  0
SECTION
  2
HEADER
  9
$ACADVER
  1
AC1014
  9
$HANDSEED
  5
FFFF
  9
$MEASUREMENT
 70
     1
  0
ENDSEC
  0
SECTION
  2
TABLES
  0
TABLE
  2
VPORT
  5
8
330
0
100
AcDbSymbolTable
 70
     4
  0
VPORT
  5
2E
330
8
100
AcDbSymbolTableRecord
100
AcDbViewportTableRecord
  2
*ACTIVE
 70
     0
 10
0.0
 20
0.0
 11
1.0
 21
1.0
 12
210.0
 22
148.5
 13
0.0
 23
0.0
 14
10.0
 24
10.0
 15
10.0
 25
10.0
 16
0.0
 26
0.0
 36
1.0
 17
0.0
 27
0.0
 37
0.0
 40
341.0
 41
1.24
 42
50.0
 43
0.0
 44
0.0
 50
0.0
 51
0.0
 71
     0
 72
   100
 73
     1
 74
     3
 75
     0
 76
     0
 77
     0
 78
     0
  0
ENDTAB
  0
TABLE
  2
LTYPE
  5
5
330
0
100
AcDbSymbolTable
 70
     1
  0
LTYPE
  5
14
330
5
100
AcDbSymbolTableRecord
100
AcDbLinetypeTableRecord
  2
BYBLOCK
 70
     0
  3

 72
    65
 73
     0
 40
0.0
  0
LTYPE
  5
15
330
5
100
AcDbSymbolTableRecord
100
AcDbLinetypeTableRecord
  2
BYLAYER
 70
     0
  3

 72
    65
 73
     0
 40
0.0
  0
LTYPE
  5
16
330
5
100
AcDbSymbolTableRecord
100
AcDbLinetypeTableRecord
  2
CONTINUOUS
 70
     0
  3
Solid line
 72
    65
 73
     0
 40
0.0
  0
ENDTAB
  0
TABLE
  2
LAYER
  5
2
100
AcDbSymbolTable
 70
2
  0
LAYER
  5
50
100
AcDbSymbolTableRecord
100
AcDbLayerTableRecord
  2
0
 70
0
  6
CONTINUOUS
  0
LAYER
  5
51
100
AcDbSymbolTableRecord
100
AcDbLayerTableRecord
  2
Layer_1
 70
0
  6
CONTINUOUS
  0
ENDTAB
  0
TABLE
  2
STYLE
  5
3
330
0
100
AcDbSymbolTable
 70
     1
  0
STYLE
  5
11
330
3
100
AcDbSymbolTableRecord
100
AcDbTextStyleTableRecord
  2
STANDARD
 70
     0
 40
0.0
 41
1.0
 50
0.0
 71
     0
 42
2.5
  3
txt
  4

  0
ENDTAB
  0
TABLE
  2
VIEW
  5
6
330
0
100
AcDbSymbolTable
 70
     0
  0
ENDTAB
  0
TABLE
  2
UCS
  5
7
330
0
100
AcDbSymbolTable
 70
     0
  0
ENDTAB
  0
TABLE
  2
APPID
  5
9
330
0
100
AcDbSymbolTable
 70
     2
  0
APPID
  5
12
330
9
100
AcDbSymbolTableRecord
100
AcDbRegAppTableRecord
  2
ACAD
 70
     0
  0
ENDTAB
  0
TABLE
  2
DIMSTYLE
  5
A
330
0
100
AcDbSymbolTable
 70
     1
  0
DIMSTYLE
105
27
330
A
100
AcDbSymbolTableRecord
100
AcDbDimStyleTableRecord
  2
ISO-25
 70
     0
  3

  4

  5

  6

  7

 40
1.0
 41
2.5
 42
0.625
 43
3.75
 44
1.25
 45
0.0
 46
0.0
 47
0.0
 48
0.0
140
2.5
141
2.5
142
0.0
143
0.03937007874016
144
1.0
145
0.0
146
1.0
147
0.625
 71
     0
 72
     0
 73
     0
 74
     0
 75
     0
 76
     0
 77
     1
 78
     8
170
     0
171
     3
172
     1
173
     0
174
     0
175
     0
176
     0
177
     0
178
     0
270
     2
271
     2
272
     2
273
     2
274
     3
340
11
275
     0
280
     0
281
     0
282
     0
283
     0
284
     8
285
     0
286
     0
287
     3
288
     0
  0
ENDTAB
  0
TABLE
  2
BLOCK_RECORD
  5
1
330
0
100
AcDbSymbolTable
 70
     1
  0
BLOCK_RECORD
  5
1F
330
1
100
AcDbSymbolTableRecord
100
AcDbBlockTableRecord
  2
*MODEL_SPACE
  0
BLOCK_RECORD
  5
1B
330
1
100
AcDbSymbolTableRecord
100
AcDbBlockTableRecord
  2
*PAPER_SPACE
  0
ENDTAB
  0
ENDSEC
  0
SECTION
  2
BLOCKS
  0
BLOCK
  5
20
330
1F
100
AcDbEntity
  8
0
100
AcDbBlockBegin
  2
*MODEL_SPACE
 70
     0
 10
0.0
 20
0.0
 30
0.0
  3
*MODEL_SPACE
  1

  0
ENDBLK
  5
21
330
1F
100
AcDbEntity
  8
0
100
AcDbBlockEnd
  0
BLOCK
  5
1C
330
1B
100
AcDbEntity
 67
     1
  8
0
100
AcDbBlockBegin
  2
*PAPER_SPACE
  1

  0
ENDBLK
  5
1D
330
1B
100
AcDbEntity
 67
     1
  8
0
100
AcDbBlockEnd
  0
ENDSEC
  0
SECTION
  2
ENTITIES
  0
SPLINE
  5
100
100
AcDbEntity
  8
Layer_1
 62
5
100
AcDbSpline
 70
8
 71
3
 72
8
 73
4
 74
0
 40
0
 40
0
 40
0
 40
0
 40
1
 40
1
 40
1
 40
1
 10
36.836580
 20
276.856155
 30
0.0
 10
42.322896
 20
271.422648
 30
0.0
 10
41.116523
 20
260.286362
 30
0.0
 10
38.798474
 20
258.784487
 30
0.0
  0
SPLINE
  5
101
100
AcDbEntity
  8
Layer_1
 62
5
100
AcDbSpline
 70
8
 71
3
 72
8
 73
4
 74
0
 40
0
 40
0
 40
0
 40
0
 40
1
 40
1
 40
1
 40
1
 10
38.798474
 20
258.784487
 30
0.0
 10
36.480354
 20
257.282449
 30
0.0
 10
33.640252
 20
255.039740
 30
0.0
 10
28.307845
 20
254.868846
 30
0.0
  0
SPLINE
  5
102
100
AcDbEntity
  8
Layer_1
 62
5
100
AcDbSpline
 70
8
 71
3
 72
8
 73
4
 74
0
 40
0
 40
0
 40
0
 40
0
 40
1
 40
1
 40
1
 40
1
 10
28.307845
 20
254.868846
 30
0.0
 10
23.995817
 20
255.024312
 30
0.0
 10
17.736673
 20
263.143412
 30
0.0
 10
17.736673
 20
263.143412
 30
0.0
  0
SPLINE
  5
103
100
AcDbEntity
  8
Layer_1
 62
5
100
AcDbSpline
 70
8
 71
3
 72
8
 73
4
 74
0
 40
0
 40
0
 40
0
 40
0
 40
1
 40
1
 40
1
 40
1
 10
125.408220
 20
270.177085
 30
0.0
 10
125.505220
 20
270.619587
 30
0.0
 10
126.427960
 20
276.234626
 30
0.0
 10
126.614160
 20
277.318040
 30
0.0
  0
SPLINE
  5
104
100
AcDbEntity
  8
Layer_1
 62
5
100
AcDbSpline
 70
8
 71
3
 72
8
 73
4
 74
0
 40
0
 40
0
 40
0
 40
0
 40
1
 40
1
 40
1
 40
1
 10
126.614160
 20
277.318040
 30
0.0
 10
126.800510
 20
278.401363
 30
0.0
 10
126.261540
 20
282.913102
 30
0.0
 10
123.146450
 20
284.677053
 30
0.0
  0
SPLINE
  5
105
100
AcDbEntity
  8
Layer_1
 62
5
100
AcDbSpline
 70
8
 71
3
 72
8
 73
4
 74
0
 40
0
 40
0
 40
0
 40
0
 40
1
 40
1
 40
1
 40
1
 10
123.146450
 20
284.677053
 30
0.0
 10
120.031460
 20
286.441283
 30
0.0
 10
111.643140
 20
289.270869
 30
0.0
 10
111.643140
 20
289.270869
 30
0.0
  0
LINE
  5
106
100
AcDbEntity
  8
Layer_1
 62
5
100
AcDbLine
 10
111.643140
 20
289.270869
 30
0.0
 11
111.643140
 21
289.270869
 31
0.0
  0
LINE
  5
107
100
AcDbEntity
  8
Layer_1
 62
5
100
AcDbLine
 10
111.643140
 20
289.270869
 30
0.0
 11
111.643140
 21
289.270869
 31
0.0
  0
LINE
  5
108
100
AcDbEntity
  8
Layer_1
 62
5
100
AcDbLine
 10
111.643140
 20
289.270869
 30
0.0
 11
111.643140
 21
289.270869
 31
0.0
  0
SPLINE
  5
109
100
AcDbEntity
  8
Layer_1
 62
5
100
AcDbSpline
 70
8
 71
3
 72
8
 73
4
 74
0
 40
0
 40
0
 40
0
 40
0
 40
1
 40
1
 40
1
 40
1
 10
77.851173
 20
229.303406
 30
0.0
 10
77.851173
 20
229.303406
 30
0.0
 10
67.175837
 20
236.629966
 30
0.0
 10
60.859699
 20
242.224027
 30
0.0
  0
SPLINE
  5
10a
100
AcDbEntity
  8
Layer_1
 62
5
100
AcDbSpline
 70
8
 71
3
 72
8
 73
4
 74
0
 40
0
 40
0
 40
0
 40
0
 40
1
 40
1
 40
1
 40
1
 10
60.859699
 20
242.224027
 30
0.0
 10
54.543544
 20
247.818219
 30
0.0
 10
61.256552
 20
260.633860
 30
0.0
 10
57.128712
 20
265.612489
 30
0.0
  0
SPLINE
  5
10b
100
AcDbEntity
  8
Layer_1
 62
5
100
AcDbSpline
 70
8
 71
3
 72
8
 73
4
 74
0
 40
0
 40
0
 40
0
 40
0
 40
1
 40
1
 40
1
 40
1
 10
57.128712
 20
265.612489
 30
0.0
 10
53.000920
 20
270.590995
 30
0.0
 10
50.337364
 20
286.845482
 30
0.0
 10
41.156232
 20
280.379577
 30
0.0
  0
SPLINE
  5
10c
100
AcDbEntity
  8
Layer_1
 62
5
100
AcDbSpline
 70
8
 71
3
 72
8
 73
4
 74
0
 40
0
 40
0
 40
0
 40
0
 40
1
 40
1
 40
1
 40
1
 10
41.156232
 20
280.379577
 30
0.0
 10
39.578270
 20
279.268703
 30
0.0
 10
38.198087
 20
278.039562
 30
0.0
 10
36.964791
 20
276.765995
 30
0.0
  0
SPLINE
  5
10d
100
AcDbEntity
  8
Layer_1
 62
5
100
AcDbSpline
 70
8
 71
3
 72
8
 73
4
 74
0
 40
0
 40
0
 40
0
 40
0
 40
1
 40
1
 40
1
 40
1
 10
31.640325
 20
270.150357
 30
0.0
 10
28.941590
 20
266.412327
 30
0.0
 10
26.834722
 20
263.461638
 30
0.0
 10
23.851385
 20
263.474138
 30
0.0
  0
SPLINE
  5
10e
100
AcDbEntity
  8
Layer_1
 62
5
100
AcDbSpline
 70
8
 71
3
 72
8
 73
4
 74
0
 40
0
 40
0
 40
0
 40
0
 40
1
 40
1
 40
1
 40
1
 10
17.833326
 20
262.950111
 30
0.0
 10
12.364736
 20
262.184769
 30
0.0
 10
6.401140
 20
260.851702
 30
0.0
 10
6.401140
 20
260.851702
 30
0.0
  0
SPLINE
  5
10f
100
AcDbEntity
  8
Layer_1
 62
5
100
AcDbSpline
 70
8
 71
3
 72
8
 73
4
 74
0
 40
0
 40
0
 40
0
 40
0
 40
1
 40
1
 40
1
 40
1
 10
77.851466
 20
229.303268
 30
0.0
 10
77.851466
 20
229.303268
 30
0.0
 10
85.207014
 20
239.925766
 30
0.0
 10
90.820132
 20
246.204352
 30
0.0
  0
SPLINE
  5
110
100
AcDbEntity
  8
Layer_1
 62
5
100
AcDbSpline
 70
8
 71
3
 72
8
 73
4
 74
0
 40
0
 40
0
 40
0
 40
0
 40
1
 40
1
 40
1
 40
1
 10
90.820132
 20
246.204352
 30
0.0
 10
96.433309
 20
252.483047
 30
0.0
 10
109.257030
 20
245.716306
 30
0.0
 10
114.250090
 20
249.812877
 30
0.0
  0
SPLINE
  5
111
100
AcDbEntity
  8
Layer_1
 62
5
100
AcDbSpline
 70
8
 71
3
 72
8
 73
4
 74
0
 40
0
 40
0
 40
0
 40
0
 40
1
 40
1
 40
1
 40
1
 10
114.250090
 20
249.812877
 30
0.0
 10
119.243010
 20
253.909685
 30
0.0
 10
135.526460
 20
256.487799
 30
0.0
 10
129.066130
 20
265.687431
 30
0.0
  0
SPLINE
  5
112
100
AcDbEntity
  8
Layer_1
 62
5
100
AcDbSpline
 70
8
 71
3
 72
8
 73
4
 74
0
 40
0
 40
0
 40
0
 40
0
 40
1
 40
1
 40
1
 40
1
 10
129.066130
 20
265.687431
 30
0.0
 10
125.977030
 20
270.086372
 30
0.0
 10
121.908960
 20
271.951503
 30
0.0
 10
118.632690
 20
275.388732
 30
0.0
  0
SPLINE
  5
113
100
AcDbEntity
  8
Layer_1
 62
5
100
AcDbSpline
 70
8
 71
3
 72
8
 73
4
 74
0
 40
0
 40
0
 40
0
 40
0
 40
1
 40
1
 40
1
 40
1
 10
112.164340
 20
283.050665
 30
0.0
 10
112.197540
 20
288.654859
 30
0.0
 10
109.567240
 20
300.487394
 30
0.0
 10
109.567240
 20
300.487394
 30
0.0
  0
SPLINE
  5
114
100
AcDbEntity
  8
Layer_1
 62
5
100
AcDbSpline
 70
8
 71
3
 72
8
 73
4
 74
0
 40
0
 40
0
 40
0
 40
0
 40
1
 40
1
 40
1
 40
1
 10
46.892657
 20
319.616931
 30
0.0
 10
41.848492
 20
326.843652
 30
0.0
 10
37.878964
 20
332.141446
 30
0.0
 10
37.878964
 20
332.141446
 30
0.0
  0
LINE
  5
115
100
AcDbEntity
  8
Layer_1
 62
5
100
AcDbLine
 10
37.878964
 20
332.141446
 30
0.0
 11
37.878964
 21
332.141446
 31
0.0
  0
LINE
  5
116
100
AcDbEntity
  8
Layer_1
 62
5
100
AcDbLine
 10
6.401433
 20
260.851599
 30
0.0
 11
28.703187
 21
296.748684
 31
0.0
  0
SPLINE
  5
117
100
AcDbEntity
  8
Layer_1
 62
5
100
AcDbSpline
 70
8
 71
3
 72
8
 73
4
 74
0
 40
0
 40
0
 40
0
 40
0
 40
1
 40
1
 40
1
 40
1
 10
28.703187
 20
296.748684
 30
0.0
 10
28.703187
 20
296.748684
 30
0.0
 10
52.334520
 20
304.899341
 30
0.0
 10
55.755034
 20
296.726536
 30
0.0
  0
SPLINE
  5
118
100
AcDbEntity
  8
Layer_1
 62
5
100
AcDbSpline
 70
8
 71
3
 72
8
 73
4
 74
0
 40
0
 40
0
 40
0
 40
0
 40
1
 40
1
 40
1
 40
1
 10
55.755034
 20
296.726536
 30
0.0
 10
59.175292
 20
288.553654
 30
0.0
 10
66.733648
 20
272.241870
 30
0.0
 10
67.714778
 20
281.627208
 30
0.0
  0
SPLINE
  5
119
100
AcDbEntity
  8
Layer_1
 62
5
100
AcDbSpline
 70
8
 71
3
 72
8
 73
4
 74
0
 40
0
 40
0
 40
0
 40
0
 40
1
 40
1
 40
1
 40
1
 10
67.714778
 20
281.627208
 30
0.0
 10
68.142074
 20
285.716309
 30
0.0
 10
59.493140
 20
300.475250
 30
0.0
 10
53.026996
 20
310.589025
 30
0.0
  0
LINE
  5
11a
100
AcDbEntity
  8
Layer_1
 62
5
100
AcDbLine
 10
109.329070
 20
300.593127
 30
0.0
 11
73.340706
 21
322.920825
 31
0.0
  0
SPLINE
  5
11b
100
AcDbEntity
  8
Layer_1
 62
5
100
AcDbSpline
 70
8
 71
3
 72
8
 73
4
 74
0
 40
0
 40
0
 40
0
 40
0
 40
1
 40
1
 40
1
 40
1
 10
73.340706
 20
322.920825
 30
0.0
 10
73.340706
 20
322.920825
 30
0.0
 10
65.138469
 20
346.530154
 30
0.0
 10
73.317886
 20
349.931751
 30
0.0
  0
SPLINE
  5
11c
100
AcDbEntity
  8
Layer_1
 62
5
100
AcDbSpline
 70
8
 71
3
 72
8
 73
4
 74
0
 40
0
 40
0
 40
0
 40
0
 40
1
 40
1
 40
1
 40
1
 10
73.317886
 20
349.931751
 30
0.0
 10
81.497460
 20
353.333395
 30
0.0
 10
97.821568
 20
360.853410
 30
0.0
 10
88.420200
 20
361.848587
 30
0.0
  0
SPLINE
  5
11d
100
AcDbEntity
  8
Layer_1
 62
5
100
AcDbSpline
 70
8
 71
3
 72
8
 73
4
 74
0
 40
0
 40
0
 40
0
 40
0
 40
1
 40
1
 40
1
 40
1
 10
88.420200
 20
361.848587
 30
0.0
 10
84.358838
 20
362.278380
 30
0.0
 10
72.088693
 20
354.768687
 30
0.0
 10
64.341924
 20
350.422333
 30
0.0
  0
SPLINE
  5
11e
100
AcDbEntity
  8
Layer_1
 62
5
100
AcDbSpline
 70
8
 71
3
 72
8
 73
4
 74
0
 40
0
 40
0
 40
0
 40
0
 40
1
 40
1
 40
1
 40
1
 10
56.599297
 20
345.354981
 30
0.0
 10
55.433895
 20
344.571657
 30
0.0
 10
54.263348
 20
343.823965
 30
0.0
 10
53.150896
 20
343.061761
 30
0.0
  0
SPLINE
  5
11f
100
AcDbEntity
  8
Layer_1
 62
5
100
AcDbSpline
 70
8
 71
3
 72
8
 73
4
 74
0
 40
0
 40
0
 40
0
 40
0
 40
1
 40
1
 40
1
 40
1
 10
45.654107
 20
337.778841
 30
0.0
 10
40.971291
 20
334.449235
 30
0.0
 10
37.878970
 20
332.141439
 30
0.0
 10
37.878970
 20
332.141439
 30
0.0
  0
LINE
  5
120
100
AcDbEntity
  8
Layer_1
 62
5
100
AcDbLine
 10
37.878970
 20
332.141439
 30
0.0
 11
37.878970
 21
332.141439
 31
0.0
  0
SPLINE
  5
121
100
AcDbEntity
  8
Layer_1
 62
5
100
AcDbSpline
 70
8
 71
3
 72
8
 73
4
 74
0
 40
0
 40
0
 40
0
 40
0
 40
1
 40
1
 40
1
 40
1
 10
46.703500
 20
319.569752
 30
0.0
 10
46.468778
 20
319.038167
 30
0.0
 10
39.402481
 20
315.428527
 30
0.0
 10
39.935079
 20
315.193334
 30
0.0
  0
SPLINE
  5
122
100
AcDbEntity
  8
Layer_1
 62
5
100
AcDbSpline
 70
8
 71
3
 72
8
 73
4
 74
0
 40
0
 40
0
 40
0
 40
0
 40
1
 40
1
 40
1
 40
1
 10
39.935079
 20
315.193334
 30
0.0
 10
40.467588
 20
314.958214
 30
0.0
 10
46.062297
 20
306.011682
 30
0.0
 10
46.062297
 20
306.011682
 30
0.0
  0
LINE
  5
123
100
AcDbEntity
  8
Layer_1
 62
5
100
AcDbLine
 10
46.062297
 20
306.011682
 30
0.0
 11
53.432001
 21
310.884498
 31
0.0
  0
LINE
  5
124
100
AcDbEntity
  8
Layer_1
 62
5
100
AcDbLine
 10
53.432001
 20
310.884498
 30
0.0
 11
53.432001
 21
310.884498
 31
0.0
  0
LINE
  5
125
100
AcDbEntity
  8
Layer_1
 62
5
100
AcDbLine
 10
46.892702
 20
319.616913
 30
0.0
 11
48.808660
 21
316.826549
 31
0.0
  0
LINE
  5
126
100
AcDbEntity
  8
Layer_1
 62
5
100
AcDbLine
 10
51.111081
 20
313.379436
 30
0.0
 11
53.026991
 21
310.588972
 31
0.0
  0
SPLINE
  5
127
100
AcDbEntity
  8
Layer_1
 62
5
100
AcDbSpline
 70
8
 71
3
 72
8
 73
4
 74
0
 40
0
 40
0
 40
0
 40
0
 40
1
 40
1
 40
1
 40
1
 10
64.468773
 20
350.671733
 30
0.0
 10
64.280048
 20
350.755073
 30
0.0
 10
52.533776
 20
352.888625
 30
0.0
 10
50.980514
 20
352.631610
 30
0.0
  0
SPLINE
  5
128
100
AcDbEntity
  8
Layer_1
 62
5
100
AcDbSpline
 70
8
 71
3
 72
8
 73
4
 74
0
 40
0
 40
0
 40
0
 40
0
 40
1
 40
1
 40
1
 40
1
 10
50.980514
 20
352.631610
 30
0.0
 10
49.427216
 20
352.374725
 30
0.0
 10
45.355354
 20
337.651095
 30
0.0
 10
45.355354
 20
337.651095
 30
0.0
  0
LINE
  5
129
100
AcDbEntity
  8
Layer_1
 62
5
100
AcDbLine
 10
45.355354
 20
337.651095
 30
0.0
 11
45.355354
 21
337.651095
 31
0.0
  0
LINE
  5
12a
100
AcDbEntity
  8
Layer_1
 62
5
100
AcDbLine
 10
45.355354
 20
337.651095
 30
0.0
 11
45.355354
 21
337.651095
 31
0.0
  0
SPLINE
  5
12b
100
AcDbEntity
  8
Layer_1
 62
5
100
AcDbSpline
 70
8
 71
3
 72
8
 73
4
 74
0
 40
0
 40
0
 40
0
 40
0
 40
1
 40
1
 40
1
 40
1
 10
234.400680
 20
93.702220
 30
0.0
 10
228.871870
 20
88.330320
 30
0.0
 10
217.740320
 20
89.751220
 30
0.0
 10
216.273580
 20
92.094710
 30
0.0
  0
SPLINE
  5
12c
100
AcDbEntity
  8
Layer_1
 62
5
100
AcDbSpline
 70
8
 71
3
 72
8
 73
4
 74
0
 40
0
 40
0
 40
0
 40
0
 40
1
 40
1
 40
1
 40
1
 10
216.273580
 20
92.094710
 30
0.0
 10
214.807020
 20
94.438190
 30
0.0
 10
212.606740
 20
97.317180
 30
0.0
 10
212.521350
 20
102.644100
 30
0.0
  0
SPLINE
  5
12d
100
AcDbEntity
  8
Layer_1
 62
5
100
AcDbSpline
 70
8
 71
3
 72
8
 73
4
 74
0
 40
0
 40
0
 40
0
 40
0
 40
1
 40
1
 40
1
 40
1
 10
212.521350
 20
102.644100
 30
0.0
 10
212.746250
 20
106.946020
 30
0.0
 10
220.976680
 20
113.037230
 30
0.0
 10
220.976680
 20
113.037230
 30
0.0
  0
SPLINE
  5
12e
100
AcDbEntity
  8
Layer_1
 62
5
100
AcDbSpline
 70
8
 71
3
 72
8
 73
4
 74
0
 40
0
 40
0
 40
0
 40
0
 40
1
 40
1
 40
1
 40
1
 10
226.290050
 20
5.405110
 30
0.0
 10
226.732240
 20
5.299600
 30
0.0
 10
232.339410
 20
4.269370
 30
0.0
 10
233.421140
 20
4.062380
 30
0.0
  0
SPLINE
  5
12f
100
AcDbEntity
  8
Layer_1
 62
5
100
AcDbSpline
 70
8
 71
3
 72
8
 73
4
 74
0
 40
0
 40
0
 40
0
 40
0
 40
1
 40
1
 40
1
 40
1
 10
233.421140
 20
4.062380
 30
0.0
 10
234.502780
 20
3.854990
 30
0.0
 10
239.029230
 20
4.305790
 30
0.0
 10
240.845670
 20
7.381480
 30
0.0
  0
SPLINE
  5
130
100
AcDbEntity
  8
Layer_1
 62
5
100
AcDbSpline
 70
8
 71
3
 72
8
 73
4
 74
0
 40
0
 40
0
 40
0
 40
0
 40
1
 40
1
 40
1
 40
1
 10
240.845670
 20
7.381480
 30
0.0
 10
242.662630
 20
10.456920
 30
0.0
 10
245.630750
 20
18.776550
 30
0.0
 10
245.630750
 20
18.776550
 30
0.0
  0
LINE
  5
131
100
AcDbEntity
  8
Layer_1
 62
5
100
AcDbLine
 10
245.630750
 20
18.776550
 30
0.0
 11
245.630750
 21
18.776550
 31
0.0
  0
LINE
  5
132
100
AcDbEntity
  8
Layer_1
 62
5
100
AcDbLine
 10
245.630750
 20
18.776550
 30
0.0
 11
245.630750
 21
18.776550
 31
0.0
  0
LINE
  5
133
100
AcDbEntity
  8
Layer_1
 62
5
100
AcDbLine
 10
245.630750
 20
18.776550
 30
0.0
 11
245.630750
 21
18.776550
 31
0.0
  0
SPLINE
  5
134
100
AcDbEntity
  8
Layer_1
 62
5
100
AcDbSpline
 70
8
 71
3
 72
8
 73
4
 74
0
 40
0
 40
0
 40
0
 40
0
 40
1
 40
1
 40
1
 40
1
 10
186.126590
 20
53.678380
 30
0.0
 10
186.126590
 20
53.678380
 30
0.0
 10
193.634270
 20
64.193950
 30
0.0
 10
199.337190
 20
70.390950
 30
0.0
  0
SPLINE
  5
135
100
AcDbEntity
  8
Layer_1
 62
5
100
AcDbSpline
 70
8
 71
3
 72
8
 73
4
 74
0
 40
0
 40
0
 40
0
 40
0
 40
1
 40
1
 40
1
 40
1
 10
199.337190
 20
70.390950
 30
0.0
 10
205.040430
 20
76.588110
 30
0.0
 10
217.765260
 20
69.637130
 30
0.0
 10
222.816670
 20
73.661410
 30
0.0
  0
SPLINE
  5
136
100
AcDbEntity
  8
Layer_1
 62
5
100
AcDbSpline
 70
8
 71
3
 72
8
 73
4
 74
0
 40
0
 40
0
 40
0
 40
0
 40
1
 40
1
 40
1
 40
1
 10
222.816670
 20
73.661410
 30
0.0
 10
227.868160
 20
77.685870
 30
0.0
 10
244.186840
 20
80.029210
 30
0.0
 10
237.859750
 20
89.320920
 30
0.0
  0
SPLINE
  5
137
100
AcDbEntity
  8
Layer_1
 62
5
100
AcDbSpline
 70
8
 71
3
 72
8
 73
4
 74
0
 40
0
 40
0
 40
0
 40
0
 40
1
 40
1
 40
1
 40
1
 10
237.859750
 20
89.320920
 30
0.0
 10
236.772720
 20
90.917700
 30
0.0
 10
235.564310
 20
92.319620
 30
0.0
 10
234.308670
 20
93.575630
 30
0.0
  0
SPLINE
  5
138
100
AcDbEntity
  8
Layer_1
 62
5
100
AcDbSpline
 70
8
 71
3
 72
8
 73
4
 74
0
 40
0
 40
0
 40
0
 40
0
 40
1
 40
1
 40
1
 40
1
 10
227.769880
 20
99.020030
 30
0.0
 10
224.070320
 20
101.786870
 30
0.0
 10
221.149610
 20
103.947650
 30
0.0
 10
221.210100
 20
106.925970
 30
0.0
  0
SPLINE
  5
139
100
AcDbEntity
  8
Layer_1
 62
5
100
AcDbSpline
 70
8
 71
3
 72
8
 73
4
 74
0
 40
0
 40
0
 40
0
 40
0
 40
1
 40
1
 40
1
 40
1
 10
220.781850
 20
112.944390
 30
0.0
 10
220.103430
 20
118.418780
 30
0.0
 10
218.864340
 20
124.398570
 30
0.0
 10
218.864340
 20
124.398570
 30
0.0
  0
SPLINE
  5
13a
100
AcDbEntity
  8
Layer_1
 62
5
100
AcDbSpline
 70
8
 71
3
 72
8
 73
4
 74
0
 40
0
 40
0
 40
0
 40
0
 40
1
 40
1
 40
1
 40
1
 10
186.126460
 20
53.678120
 30
0.0
 10
186.126460
 20
53.678120
 30
0.0
 10
196.645000
 20
46.128060
 30
0.0
 10
202.841690
 20
40.402110
 30
0.0
  0
SPLINE
  5
13b
100
AcDbEntity
  8
Layer_1
 62
5
100
AcDbSpline
 70
8
 71
3
 72
8
 73
4
 74
0
 40
0
 40
0
 40
0
 40
0
 40
1
 40
1
 40
1
 40
1
 10
202.841690
 20
40.402110
 30
0.0
 10
209.038520
 20
34.676230
 30
0.0
 10
202.056760
 20
22.004880
 30
0.0
 10
206.078630
 20
16.940490
 30
0.0
  0
SPLINE
  5
13c
100
AcDbEntity
  8
Layer_1
 62
5
100
AcDbSpline
 70
8
 71
3
 72
8
 73
4
 74
0
 40
0
 40
0
 40
0
 40
0
 40
1
 40
1
 40
1
 40
1
 10
206.078630
 20
16.940490
 30
0.0
 10
210.100630
 20
11.876020
 30
0.0
 10
212.420660
 20
-4.430880
 30
0.0
 10
221.736250
 20
1.840210
 30
0.0
  0
SPLINE
  5
13d
100
AcDbEntity
  8
Layer_1
 62
5
100
AcDbSpline
 70
8
 71
3
 72
8
 73
4
 74
0
 40
0
 40
0
 40
0
 40
0
 40
1
 40
1
 40
1
 40
1
 10
221.736250
 20
1.840210
 30
0.0
 10
226.190510
 20
4.838890
 30
0.0
 10
228.123530
 20
8.863990
 30
0.0
 10
231.617840
 20
12.068110
 30
0.0
  0
SPLINE
  5
13e
100
AcDbEntity
  8
Layer_1
 62
5
100
AcDbSpline
 70
8
 71
3
 72
8
 73
4
 74
0
 40
0
 40
0
 40
0
 40
0
 40
1
 40
1
 40
1
 40
1
 10
239.393950
 20
18.376920
 30
0.0
 10
245.004960
 20
18.235060
 30
0.0
 10
256.895600
 20
20.631070
 30
0.0
 10
256.895600
 20
20.631070
 30
0.0
  0
SPLINE
  5
13f
100
AcDbEntity
  8
Layer_1
 62
5
100
AcDbSpline
 70
8
 71
3
 72
8
 73
4
 74
0
 40
0
 40
0
 40
0
 40
0
 40
1
 40
1
 40
1
 40
1
 10
277.057100
 20
82.831360
 30
0.0
 10
284.374450
 20
87.727030
 30
0.0
 10
289.743090
 20
91.587040
 30
0.0
 10
289.743090
 20
91.587040
 30
0.0
  0
LINE
  5
140
100
AcDbEntity
  8
Layer_1
 62
5
100
AcDbLine
 10
289.743090
 20
91.587040
 30
0.0
 11
289.743090
 21
91.587040
 31
0.0
  0
LINE
  5
141
100
AcDbEntity
  8
Layer_1
 62
5
100
AcDbLine
 10
218.864220
 20
124.398270
 30
0.0
 11
254.450670
 21
101.435540
 31
0.0
  0
SPLINE
  5
142
100
AcDbEntity
  8
Layer_1
 62
5
100
AcDbSpline
 70
8
 71
3
 72
8
 73
4
 74
0
 40
0
 40
0
 40
0
 40
0
 40
1
 40
1
 40
1
 40
1
 10
254.450670
 20
101.435540
 30
0.0
 10
254.450670
 20
101.435540
 30
0.0
 10
262.232590
 20
77.684420
 30
0.0
 10
253.994060
 20
74.428390
 30
0.0
  0
SPLINE
  5
143
100
AcDbEntity
  8
Layer_1
 62
5
100
AcDbSpline
 70
8
 71
3
 72
8
 73
4
 74
0
 40
0
 40
0
 40
0
 40
0
 40
1
 40
1
 40
1
 40
1
 10
253.994060
 20
74.428390
 30
0.0
 10
245.755440
 20
71.172440
 30
0.0
 10
229.300550
 20
63.943260
 30
0.0
 10
238.682630
 20
62.781560
 30
0.0
  0
SPLINE
  5
144
100
AcDbEntity
  8
Layer_1
 62
5
100
AcDbSpline
 70
8
 71
3
 72
8
 73
4
 74
0
 40
0
 40
0
 40
0
 40
0
 40
1
 40
1
 40
1
 40
1
 10
238.682630
 20
62.781560
 30
0.0
 10
242.770400
 20
62.275390
 30
0.0
 10
257.687680
 20
70.623500
 30
0.0
 10
267.918830
 20
76.882590
 30
0.0
  0
LINE
  5
145
100
AcDbEntity
  8
Layer_1
 62
5
100
AcDbLine
 10
257.005320
 20
20.866890
 30
0.0
 11
279.940490
 21
56.362630
 31
0.0
  0
SPLINE
  5
146
100
AcDbEntity
  8
Layer_1
 62
5
100
AcDbSpline
 70
8
 71
3
 72
8
 73
4
 74
0
 40
0
 40
0
 40
0
 40
0
 40
1
 40
1
 40
1
 40
1
 10
279.940490
 20
56.362630
 30
0.0
 10
279.940490
 20
56.362630
 30
0.0
 10
303.712920
 20
64.092710
 30
0.0
 10
306.987750
 20
55.860560
 30
0.0
  0
SPLINE
  5
147
100
AcDbEntity
  8
Layer_1
 62
5
100
AcDbSpline
 70
8
 71
3
 72
8
 73
4
 74
0
 40
0
 40
0
 40
0
 40
0
 40
1
 40
1
 40
1
 40
1
 10
306.987750
 20
55.860560
 30
0.0
 10
310.262400
 20
47.628270
 30
0.0
 10
317.530150
 20
31.184840
 30
0.0
 10
318.677610
 20
40.551390
 30
0.0
  0
SPLINE
  5
148
100
AcDbEntity
  8
Layer_1
 62
5
100
AcDbSpline
 70
8
 71
3
 72
8
 73
4
 74
0
 40
0
 40
0
 40
0
 40
0
 40
1
 40
1
 40
1
 40
1
 10
318.677610
 20
40.551390
 30
0.0
 10
319.173340
 20
44.597810
 30
0.0
 10
311.850740
 20
56.993820
 30
0.0
 10
307.623190
 20
64.812330
 30
0.0
  0
SPLINE
  5
149
100
AcDbEntity
  8
Layer_1
 62
5
100
AcDbSpline
 70
8
 71
3
 72
8
 73
4
 74
0
 40
0
 40
0
 40
0
 40
0
 40
1
 40
1
 40
1
 40
1
 10
302.673390
 20
72.640690
 30
0.0
 10
301.907800
 20
73.819530
 30
0.0
 10
301.177900
 20
75.002680
 30
0.0
 10
300.432510
 20
76.127960
 30
0.0
  0
SPLINE
  5
14a
100
AcDbEntity
  8
Layer_1
 62
5
100
AcDbSpline
 70
8
 71
3
 72
8
 73
4
 74
0
 40
0
 40
0
 40
0
 40
0
 40
1
 40
1
 40
1
 40
1
 10
295.263070
 20
83.715090
 30
0.0
 10
292.004300
 20
88.455030
 30
0.0
 10
289.743130
 20
91.587070
 30
0.0
 10
289.743130
 20
91.587070
 30
0.0
  0
LINE
  5
14b
100
AcDbEntity
  8
Layer_1
 62
5
100
AcDbLine
 10
289.743130
 20
91.587070
 30
0.0
 11
289.743130
 21
91.587070
 31
0.0
  0
SPLINE
  5
14c
100
AcDbEntity
  8
Layer_1
 62
5
100
AcDbSpline
 70
8
 71
3
 72
8
 73
4
 74
0
 40
0
 40
0
 40
0
 40
0
 40
1
 40
1
 40
1
 40
1
 10
277.012920
 20
83.021190
 30
0.0
 10
276.484610
 20
83.265800
 30
0.0
 10
272.983470
 20
90.390850
 30
0.0
 10
272.739430
 20
89.863700
 30
0.0
  0
SPLINE
  5
14d
100
AcDbEntity
  8
Layer_1
 62
5
100
AcDbSpline
 70
8
 71
3
 72
8
 73
4
 74
0
 40
0
 40
0
 40
0
 40
0
 40
1
 40
1
 40
1
 40
1
 10
272.739430
 20
89.863700
 30
0.0
 10
272.495270
 20
89.336250
 30
0.0
 10
263.447210
 20
83.924710
 30
0.0
 10
263.447210
 20
83.924710
 30
0.0
  0
LINE
  5
14e
100
AcDbEntity
  8
Layer_1
 62
5
100
AcDbLine
 10
263.447210
 20
83.924710
 30
0.0
 11
268.208160
 21
76.472480
 31
0.0
  0
LINE
  5
14f
100
AcDbEntity
  8
Layer_1
 62
5
100
AcDbLine
 10
268.208160
 20
76.472480
 30
0.0
 11
268.208160
 21
76.472480
 31
0.0
  0
LINE
  5
150
100
AcDbEntity
  8
Layer_1
 62
5
100
AcDbLine
 10
277.057160
 20
82.831340
 30
0.0
 11
274.232260
 21
80.972770
 31
0.0
  0
LINE
  5
151
100
AcDbEntity
  8
Layer_1
 62
5
100
AcDbLine
 10
270.743710
 20
78.741140
 30
0.0
 11
267.918920
 21
76.882530
 31
0.0
  0
SPLINE
  5
152
100
AcDbEntity
  8
Layer_1
 62
5
100
AcDbSpline
 70
8
 71
3
 72
8
 73
4
 74
0
 40
0
 40
0
 40
0
 40
0
 40
1
 40
1
 40
1
 40
1
 10
307.870780
 20
64.680830
 30
0.0
 10
307.957180
 20
64.867380
 30
0.0
 10
310.282300
 20
76.553080
 30
0.0
 10
310.049990
 20
78.108890
 30
0.0
  0
SPLINE
  5
153
100
AcDbEntity
  8
Layer_1
 62
5
100
AcDbSpline
 70
8
 71
3
 72
8
 73
4
 74
0
 40
0
 40
0
 40
0
 40
0
 40
1
 40
1
 40
1
 40
1
 10
310.049990
 20
78.108890
 30
0.0
 10
309.817830
 20
79.664550
 30
0.0
 10
295.140000
 20
84.015830
 30
0.0
 10
295.140000
 20
84.015830
 30
0.0
  0
LINE
  5
154
100
AcDbEntity
  8
Layer_1
 62
5
100
AcDbLine
 10
295.140000
 20
84.015830
 30
0.0
 11
295.140000
 21
84.015830
 31
0.0
  0
LINE
  5
155
100
AcDbEntity
  8
Layer_1
 62
5
100
AcDbLine
 10
295.140000
 20
84.015830
 30
0.0
 11
295.140000
 21
84.015830
 31
0.0
  0
SPLINE
  5
156
100
AcDbEntity
  8
Layer_1
 62
5
100
AcDbSpline
 70
8
 71
3
 72
8
 73
4
 74
0
 40
0
 40
0
 40
0
 40
0
 40
1
 40
1
 40
1
 40
1
 10
39.388858
 20
59.503630
 30
0.0
 10
44.340213
 20
53.578530
 30
0.0
 10
42.092514
 20
42.604920
 30
0.0
 10
39.643570
 20
41.327560
 30
0.0
  0
SPLINE
  5
157
100
AcDbEntity
  8
Layer_1
 62
5
100
AcDbSpline
 70
8
 71
3
 72
8
 73
4
 74
0
 40
0
 40
0
 40
0
 40
0
 40
1
 40
1
 40
1
 40
1
 10
39.643570
 20
41.327560
 30
0.0
 10
37.194535
 20
40.050040
 30
0.0
 10
34.156222
 20
38.084190
 30
0.0
 10
28.831357
 20
38.415230
 30
0.0
  0
SPLINE
  5
158
100
AcDbEntity
  8
Layer_1
 62
5
100
AcDbSpline
 70
8
 71
3
 72
8
 73
4
 74
0
 40
0
 40
0
 40
0
 40
0
 40
1
 40
1
 40
1
 40
1
 10
28.831357
 20
38.415230
 30
0.0
 10
24.553029
 20
38.975280
 30
0.0
 10
19.084680
 20
47.646720
 30
0.0
 10
19.084680
 20
47.646720
 30
0.0
  0
SPLINE
  5
159
100
AcDbEntity
  8
Layer_1
 62
5
100
AcDbSpline
 70
8
 71
3
 72
8
 73
4
 74
0
 40
0
 40
0
 40
0
 40
0
 40
1
 40
1
 40
1
 40
1
 10
126.940560
 20
44.529550
 30
0.0
 10
127.078750
 20
44.960980
 30
0.0
 10
128.525110
 20
50.464440
 30
0.0
 10
128.812310
 20
51.525560
 30
0.0
  0
SPLINE
  5
15a
100
AcDbEntity
  8
Layer_1
 62
5
100
AcDbSpline
 70
8
 71
3
 72
8
 73
4
 74
0
 40
0
 40
0
 40
0
 40
0
 40
1
 40
1
 40
1
 40
1
 10
128.812310
 20
51.525560
 30
0.0
 10
129.099660
 20
52.586570
 30
0.0
 10
128.987120
 20
57.128990
 30
0.0
 10
126.051600
 20
59.177920
 30
0.0
  0
SPLINE
  5
15b
100
AcDbEntity
  8
Layer_1
 62
5
100
AcDbSpline
 70
8
 71
3
 72
8
 73
4
 74
0
 40
0
 40
0
 40
0
 40
0
 40
1
 40
1
 40
1
 40
1
 10
126.051600
 20
59.177920
 30
0.0
 10
123.116220
 20
61.227100
 30
0.0
 10
115.031000
 20
64.832560
 30
0.0
 10
115.031000
 20
64.832560
 30
0.0
  0
LINE
  5
15c
100
AcDbEntity
  8
Layer_1
 62
5
100
AcDbLine
 10
115.031000
 20
64.832560
 30
0.0
 11
115.031000
 21
64.832560
 31
0.0
  0
LINE
  5
15d
100
AcDbEntity
  8
Layer_1
 62
5
100
AcDbLine
 10
115.031000
 20
64.832560
 30
0.0
 11
115.031000
 21
64.832560
 31
0.0
  0
LINE
  5
15e
100
AcDbEntity
  8
Layer_1
 62
5
100
AcDbLine
 10
115.031000
 20
64.832560
 30
0.0
 11
115.031000
 21
64.832560
 31
0.0
  0
SPLINE
  5
15f
100
AcDbEntity
  8
Layer_1
 62
5
100
AcDbSpline
 70
8
 71
3
 72
8
 73
4
 74
0
 40
0
 40
0
 40
0
 40
0
 40
1
 40
1
 40
1
 40
1
 10
75.752572
 20
8.306540
 30
0.0
 10
75.752572
 20
8.306540
 30
0.0
 10
65.813093
 20
16.604010
 30
0.0
 10
60.050683
 20
22.766940
 30
0.0
  0
SPLINE
  5
160
100
AcDbEntity
  8
Layer_1
 62
5
100
AcDbSpline
 70
8
 71
3
 72
8
 73
4
 74
0
 40
0
 40
0
 40
0
 40
0
 40
1
 40
1
 40
1
 40
1
 10
60.050683
 20
22.766940
 30
0.0
 10
54.288271
 20
28.930010
 30
0.0
 10
62.176054
 20
41.057980
 30
0.0
 10
58.534414
 20
46.402540
 30
0.0
  0
SPLINE
  5
161
100
AcDbEntity
  8
Layer_1
 62
5
100
AcDbSpline
 70
8
 71
3
 72
8
 73
4
 74
0
 40
0
 40
0
 40
0
 40
0
 40
1
 40
1
 40
1
 40
1
 10
58.534414
 20
46.402540
 30
0.0
 10
54.892815
 20
51.746960
 30
0.0
 10
53.768749
 20
68.179850
 30
0.0
 10
44.020547
 20
62.605470
 30
0.0
  0
SPLINE
  5
162
100
AcDbEntity
  8
Layer_1
 62
5
100
AcDbSpline
 70
8
 71
3
 72
8
 73
4
 74
0
 40
0
 40
0
 40
0
 40
0
 40
1
 40
1
 40
1
 40
1
 10
44.020547
 20
62.605470
 30
0.0
 10
42.345161
 20
61.647820
 30
0.0
 10
40.855565
 20
60.553830
 30
0.0
 10
39.508029
 20
59.401820
 30
0.0
  0
SPLINE
  5
163
100
AcDbEntity
  8
Layer_1
 62
5
100
AcDbSpline
 70
8
 71
3
 72
8
 73
4
 74
0
 40
0
 40
0
 40
0
 40
0
 40
1
 40
1
 40
1
 40
1
 10
33.585346
 20
53.315890
 30
0.0
 10
30.547230
 20
49.848050
 30
0.0
 10
28.172366
 20
47.108440
 30
0.0
 10
25.203407
 20
47.401280
 30
0.0
  0
SPLINE
  5
164
100
AcDbEntity
  8
Layer_1
 62
5
100
AcDbSpline
 70
8
 71
3
 72
8
 73
4
 74
0
 40
0
 40
0
 40
0
 40
0
 40
1
 40
1
 40
1
 40
1
 10
19.162742
 20
47.445180
 30
0.0
 10
13.646427
 20
47.197200
 30
0.0
 10
7.583940
 20
46.430530
 30
0.0
 10
7.583940
 20
46.430530
 30
0.0
  0
SPLINE
  5
165
100
AcDbEntity
  8
Layer_1
 62
5
100
AcDbSpline
 70
8
 71
3
 72
8
 73
4
 74
0
 40
0
 40
0
 40
0
 40
0
 40
1
 40
1
 40
1
 40
1
 10
75.752846
 20
8.306370
 30
0.0
 10
75.752846
 20
8.306370
 30
0.0
 10
84.074205
 20
18.190520
 30
0.0
 10
90.252585
 20
23.913760
 30
0.0
  0
SPLINE
  5
166
100
AcDbEntity
  8
Layer_1
 62
5
100
AcDbSpline
 70
8
 71
3
 72
8
 73
4
 74
0
 40
0
 40
0
 40
0
 40
0
 40
1
 40
1
 40
1
 40
1
 10
90.252585
 20
23.913760
 30
0.0
 10
96.431001
 20
29.637100
 30
0.0
 10
108.561950
 20
21.695050
 30
0.0
 10
113.917900
 20
25.304200
 30
0.0
  0
SPLINE
  5
167
100
AcDbEntity
  8
Layer_1
 62
5
100
AcDbSpline
 70
8
 71
3
 72
8
 73
4
 74
0
 40
0
 40
0
 40
0
 40
0
 40
1
 40
1
 40
1
 40
1
 10
113.917900
 20
25.304200
 30
0.0
 10
119.273740
 20
28.913600
 30
0.0
 10
135.727400
 20
29.949880
 30
0.0
 10
130.160310
 20
39.715970
 30
0.0
  0
SPLINE
  5
168
100
AcDbEntity
  8
Layer_1
 62
5
100
AcDbSpline
 70
8
 71
3
 72
8
 73
4
 74
0
 40
0
 40
0
 40
0
 40
0
 40
1
 40
1
 40
1
 40
1
 10
130.160310
 20
39.715970
 30
0.0
 10
127.498330
 20
44.385770
 30
0.0
 10
123.623570
 20
46.624990
 30
0.0
 10
120.684850
 20
50.354940
 30
0.0
  0
SPLINE
  5
169
100
AcDbEntity
  8
Layer_1
 62
5
100
AcDbSpline
 70
8
 71
3
 72
8
 73
4
 74
0
 40
0
 40
0
 40
0
 40
0
 40
1
 40
1
 40
1
 40
1
 10
114.965270
 20
58.590890
 30
0.0
 10
115.525050
 20
64.167160
 30
0.0
 10
114.018490
 20
76.194530
 30
0.0
 10
114.018490
 20
76.194530
 30
0.0
  0
SPLINE
  5
16a
100
AcDbEntity
  8
Layer_1
 62
5
100
AcDbSpline
 70
8
 71
3
 72
8
 73
4
 74
0
 40
0
 40
0
 40
0
 40
0
 40
1
 40
1
 40
1
 40
1
 10
53.419369
 20
101.129980
 30
0.0
 10
49.076752
 20
108.798790
 30
0.0
 10
45.622715
 20
114.446220
 30
0.0
 10
45.622715
 20
114.446220
 30
0.0
  0
LINE
  5
16b
100
AcDbEntity
  8
Layer_1
 62
5
100
AcDbLine
 10
45.622715
 20
114.446220
 30
0.0
 11
45.622715
 21
114.446220
 31
0.0
  0
LINE
  5
16c
100
AcDbEntity
  8
Layer_1
 62
5
100
AcDbLine
 10
7.584223
 20
46.430410
 30
0.0
 11
33.161098
 21
80.072530
 31
0.0
  0
SPLINE
  5
16d
100
AcDbEntity
  8
Layer_1
 62
5
100
AcDbSpline
 70
8
 71
3
 72
8
 73
4
 74
0
 40
0
 40
0
 40
0
 40
0
 40
1
 40
1
 40
1
 40
1
 10
33.161098
 20
80.072530
 30
0.0
 10
33.161098
 20
80.072530
 30
0.0
 10
57.453883
 20
85.966080
 30
0.0
 10
60.091121
 20
77.507970
 30
0.0
  0
SPLINE
  5
16e
100
AcDbEntity
  8
Layer_1
 62
5
100
AcDbSpline
 70
8
 71
3
 72
8
 73
4
 74
0
 40
0
 40
0
 40
0
 40
0
 40
1
 40
1
 40
1
 40
1
 10
60.091121
 20
77.507970
 30
0.0
 10
62.728098
 20
69.049810
 30
0.0
 10
68.719903
 20
52.099830
 30
0.0
 10
70.578781
 20
61.351420
 30
0.0
  0
SPLINE
  5
16f
100
AcDbEntity
  8
Layer_1
 62
5
100
AcDbSpline
 70
8
 71
3
 72
8
 73
4
 74
0
 40
0
 40
0
 40
0
 40
0
 40
1
 40
1
 40
1
 40
1
 10
70.578781
 20
61.351420
 30
0.0
 10
71.388508
 20
65.382260
 30
0.0
 10
64.165007
 20
80.888750
 30
0.0
 10
58.678051
 20
91.565490
 30
0.0
  0
LINE
  5
170
100
AcDbEntity
  8
Layer_1
 62
5
100
AcDbLine
 10
113.791320
 20
76.322190
 30
0.0
 11
80.060857
 21
101.933480
 31
0.0
  0
SPLINE
  5
171
100
AcDbEntity
  8
Layer_1
 62
5
100
AcDbSpline
 70
8
 71
3
 72
8
 73
4
 74
0
 40
0
 40
0
 40
0
 40
0
 40
1
 40
1
 40
1
 40
1
 10
80.060857
 20
101.933480
 30
0.0
 10
80.060857
 20
101.933480
 30
0.0
 10
74.113891
 20
126.209210
 30
0.0
 10
82.576809
 20
128.826980
 30
0.0
  0
SPLINE
  5
172
100
AcDbEntity
  8
Layer_1
 62
5
100
AcDbSpline
 70
8
 71
3
 72
8
 73
4
 74
0
 40
0
 40
0
 40
0
 40
0
 40
1
 40
1
 40
1
 40
1
 10
82.576809
 20
128.826980
 30
0.0
 10
91.039885
 20
131.444800
 30
0.0
 10
107.998430
 20
137.397280
 30
0.0
 10
98.732269
 20
139.271650
 30
0.0
  0
SPLINE
  5
173
100
AcDbEntity
  8
Layer_1
 62
5
100
AcDbSpline
 70
8
 71
3
 72
8
 73
4
 74
0
 40
0
 40
0
 40
0
 40
0
 40
1
 40
1
 40
1
 40
1
 10
98.732269
 20
139.271650
 30
0.0
 10
94.729300
 20
140.081270
 30
0.0
 10
81.807663
 20
133.758040
 30
0.0
 10
73.686685
 20
130.159020
 30
0.0
  0
SPLINE
  5
174
100
AcDbEntity
  8
Layer_1
 62
5
100
AcDbSpline
 70
8
 71
3
 72
8
 73
4
 74
0
 40
0
 40
0
 40
0
 40
0
 40
1
 40
1
 40
1
 40
1
 10
65.502072
 20
125.841800
 30
0.0
 10
64.268207
 20
125.171480
 30
0.0
 10
63.032568
 20
124.537120
 30
0.0
 10
61.853402
 20
123.882840
 30
0.0
  0
SPLINE
  5
175
100
AcDbEntity
  8
Layer_1
 62
5
100
AcDbSpline
 70
8
 71
3
 72
8
 73
4
 74
0
 40
0
 40
0
 40
0
 40
0
 40
1
 40
1
 40
1
 40
1
 10
53.893283
 20
119.327900
 30
0.0
 10
48.918259
 20
116.453160
 30
0.0
 10
45.622723
 20
114.446220
 30
0.0
 10
45.622723
 20
114.446220
 30
0.0
  0
LINE
  5
176
100
AcDbEntity
  8
Layer_1
 62
5
100
AcDbLine
 10
45.622723
 20
114.446220
 30
0.0
 11
45.622723
 21
114.446220
 31
0.0
  0
SPLINE
  5
177
100
AcDbEntity
  8
Layer_1
 62
5
100
AcDbSpline
 70
8
 71
3
 72
8
 73
4
 74
0
 40
0
 40
0
 40
0
 40
0
 40
1
 40
1
 40
1
 40
1
 10
53.226617
 20
101.100790
 30
0.0
 10
52.942974
 20
100.593620
 30
0.0
 10
45.568701
 20
97.664090
 30
0.0
 10
46.076833
 20
97.379890
 30
0.0
  0
SPLINE
  5
178
100
AcDbEntity
  8
Layer_1
 62
5
100
AcDbSpline
 70
8
 71
3
 72
8
 73
4
 74
0
 40
0
 40
0
 40
0
 40
0
 40
1
 40
1
 40
1
 40
1
 10
46.076833
 20
97.379890
 30
0.0
 10
46.584888
 20
97.095750
 30
0.0
 10
51.313977
 20
87.663000
 30
0.0
 10
51.313977
 20
87.663000
 30
0.0
  0
LINE
  5
179
100
AcDbEntity
  8
Layer_1
 62
5
100
AcDbLine
 10
51.313977
 20
87.663000
 30
0.0
 11
59.109036
 21
91.821590
 31
0.0
  0
LINE
  5
17a
100
AcDbEntity
  8
Layer_1
 62
5
100
AcDbLine
 10
59.109036
 20
91.821590
 30
0.0
 11
59.109036
 21
91.821590
 31
0.0
  0
LINE
  5
17b
100
AcDbEntity
  8
Layer_1
 62
5
100
AcDbLine
 10
53.419415
 20
101.129960
 30
0.0
 11
55.064635
 21
98.171870
 31
0.0
  0
LINE
  5
17c
100
AcDbEntity
  8
Layer_1
 62
5
100
AcDbLine
 10
57.032883
 20
94.523620
 30
0.0
 11
58.678040
 21
91.565440
 31
0.0
  0
SPLINE
  5
17d
100
AcDbEntity
  8
Layer_1
 62
5
100
AcDbSpline
 70
8
 71
3
 72
8
 73
4
 74
0
 40
0
 40
0
 40
0
 40
0
 40
1
 40
1
 40
1
 40
1
 10
73.836414
 20
130.395400
 30
0.0
 10
73.656360
 20
130.496100
 30
0.0
 10
62.162610
 20
133.724210
 30
0.0
 10
60.592069
 20
133.614310
 30
0.0
  0
SPLINE
  5
17e
100
AcDbEntity
  8
Layer_1
 62
5
100
AcDbSpline
 70
8
 71
3
 72
8
 73
4
 74
0
 40
0
 40
0
 40
0
 40
0
 40
1
 40
1
 40
1
 40
1
 10
60.592069
 20
133.614310
 30
0.0
 10
59.021503
 20
133.504560
 30
0.0
 10
53.583844
 20
119.228800
 30
0.0
 10
53.583844
 20
119.228800
 30
0.0
  0
LINE
  5
17f
100
AcDbEntity
  8
Layer_1
 62
5
100
AcDbLine
 10
53.583844
 20
119.228800
 30
0.0
 11
53.583844
 21
119.228800
 31
0.0
  0
LINE
  5
180
100
AcDbEntity
  8
Layer_1
 62
5
100
AcDbLine
 10
53.583844
 20
119.228800
 30
0.0
 11
53.583844
 21
119.228800
 31
0.0
  0
SPLINE
  5
181
100
AcDbEntity
  8
Layer_1
 62
5
100
AcDbSpline
 70
8
 71
3
 72
8
 73
4
 74
0
 40
0
 40
0
 40
0
 40
0
 40
1
 40
1
 40
1
 40
1
 10
494.254940
 20
328.564146
 30
0.0
 10
495.658630
 20
320.984426
 30
0.0
 10
488.302880
 20
312.509526
 30
0.0
 10
485.539450
 20
312.588716
 30
0.0
  0
SPLINE
  5
182
100
AcDbEntity
  8
Layer_1
 62
5
100
AcDbSpline
 70
8
 71
3
 72
8
 73
4
 74
0
 40
0
 40
0
 40
0
 40
0
 40
1
 40
1
 40
1
 40
1
 10
485.539450
 20
312.588716
 30
0.0
 10
482.775850
 20
312.668016
 30
0.0
 10
479.160130
 20
312.433766
 30
0.0
 10
474.679980
 20
315.316756
 30
0.0
  0
SPLINE
  5
183
100
AcDbEntity
  8
Layer_1
 62
5
100
AcDbSpline
 70
8
 71
3
 72
8
 73
4
 74
0
 40
0
 40
0
 40
0
 40
0
 40
1
 40
1
 40
1
 40
1
 10
474.679980
 20
315.316756
 30
0.0
 10
471.224870
 20
317.889866
 30
0.0
 10
470.720760
 20
328.116646
 30
0.0
 10
470.720760
 20
328.116646
 30
0.0
  0
SPLINE
  5
184
100
AcDbEntity
  8
Layer_1
 62
5
100
AcDbSpline
 70
8
 71
3
 72
8
 73
4
 74
0
 40
0
 40
0
 40
0
 40
0
 40
1
 40
1
 40
1
 40
1
 10
563.231050
 20
272.846856
 30
0.0
 10
563.563260
 20
273.155756
 30
0.0
 10
567.530930
 20
277.250606
 30
0.0
 10
568.303170
 20
278.036006
 30
0.0
  0
SPLINE
  5
185
100
AcDbEntity
  8
Layer_1
 62
5
100
AcDbSpline
 70
8
 71
3
 72
8
 73
4
 74
0
 40
0
 40
0
 40
0
 40
0
 40
1
 40
1
 40
1
 40
1
 10
568.303170
 20
278.036006
 30
0.0
 10
569.075520
 20
278.821016
 30
0.0
 10
571.210890
 20
282.837696
 30
0.0
 10
569.658890
 20
286.054937
 30
0.0
  0
SPLINE
  5
186
100
AcDbEntity
  8
Layer_1
 62
5
100
AcDbSpline
 70
8
 71
3
 72
8
 73
4
 74
0
 40
0
 40
0
 40
0
 40
0
 40
1
 40
1
 40
1
 40
1
 10
569.658890
 20
286.054937
 30
0.0
 10
568.107250
 20
289.272517
 30
0.0
 10
562.829640
 20
296.355767
 30
0.0
 10
562.829640
 20
296.355767
 30
0.0
  0
LINE
  5
187
100
AcDbEntity
  8
Layer_1
 62
5
100
AcDbLine
 10
562.829640
 20
296.355767
 30
0.0
 11
562.829640
 21
296.355767
 31
0.0
  0
LINE
  5
188
100
AcDbEntity
  8
Layer_1
 62
5
100
AcDbLine
 10
562.829640
 20
296.355767
 30
0.0
 11
562.829640
 21
296.355767
 31
0.0
  0
LINE
  5
189
100
AcDbEntity
  8
Layer_1
 62
5
100
AcDbLine
 10
562.829640
 20
296.355767
 30
0.0
 11
562.829640
 21
296.355767
 31
0.0
  0
SPLINE
  5
18a
100
AcDbEntity
  8
Layer_1
 62
5
100
AcDbSpline
 70
8
 71
3
 72
8
 73
4
 74
0
 40
0
 40
0
 40
0
 40
0
 40
1
 40
1
 40
1
 40
1
 10
500.786600
 20
266.196876
 30
0.0
 10
500.786600
 20
266.196876
 30
0.0
 10
496.200080
 20
278.276066
 30
0.0
 10
494.206110
 20
286.458457
 30
0.0
  0
SPLINE
  5
18b
100
AcDbEntity
  8
Layer_1
 62
5
100
AcDbSpline
 70
8
 71
3
 72
8
 73
4
 74
0
 40
0
 40
0
 40
0
 40
0
 40
1
 40
1
 40
1
 40
1
 10
494.206110
 20
286.458457
 30
0.0
 10
492.212130
 20
294.640956
 30
0.0
 10
505.053380
 20
301.374647
 30
0.0
 10
504.506090
 20
307.809946
 30
0.0
  0
SPLINE
  5
18c
100
AcDbEntity
  8
Layer_1
 62
5
100
AcDbSpline
 70
8
 71
3
 72
8
 73
4
 74
0
 40
0
 40
0
 40
0
 40
0
 40
1
 40
1
 40
1
 40
1
 10
504.506090
 20
307.809946
 30
0.0
 10
503.958730
 20
314.245336
 30
0.0
 10
511.059020
 20
329.124096
 30
0.0
 10
499.818160
 20
329.012306
 30
0.0
  0
SPLINE
  5
18d
100
AcDbEntity
  8
Layer_1
 62
5
100
AcDbSpline
 70
8
 71
3
 72
8
 73
4
 74
0
 40
0
 40
0
 40
0
 40
0
 40
1
 40
1
 40
1
 40
1
 10
499.818160
 20
329.012306
 30
0.0
 10
497.886580
 20
328.993306
 30
0.0
 10
496.049670
 20
328.765156
 30
0.0
 10
494.308300
 20
328.417056
 30
0.0
  0
SPLINE
  5
18e
100
AcDbEntity
  8
Layer_1
 62
5
100
AcDbSpline
 70
8
 71
3
 72
8
 73
4
 74
0
 40
0
 40
0
 40
0
 40
0
 40
1
 40
1
 40
1
 40
1
 10
486.151560
 20
325.995266
 30
0.0
 10
481.797320
 20
324.451116
 30
0.0
 10
478.379500
 20
323.219056
 30
0.0
 10
475.934760
 20
324.921186
 30
0.0
  0
SPLINE
  5
18f
100
AcDbEntity
  8
Layer_1
 62
5
100
AcDbSpline
 70
8
 71
3
 72
8
 73
4
 74
0
 40
0
 40
0
 40
0
 40
0
 40
1
 40
1
 40
1
 40
1
 10
470.689270
 20
327.902616
 30
0.0
 10
465.757470
 20
330.373986
 30
0.0
 10
460.094420
 20
332.659356
 30
0.0
 10
460.094420
 20
332.659356
 30
0.0
  0
SPLINE
  5
190
100
AcDbEntity
  8
Layer_1
 62
5
100
AcDbSpline
 70
8
 71
3
 72
8
 73
4
 74
0
 40
0
 40
0
 40
0
 40
0
 40
1
 40
1
 40
1
 40
1
 10
500.786770
 20
266.196606
 30
0.0
 10
500.786770
 20
266.196606
 30
0.0
 10
512.902720
 20
270.762136
 30
0.0
 10
521.104080
 20
272.742946
 30
0.0
  0
SPLINE
  5
191
100
AcDbEntity
  8
Layer_1
 62
5
100
AcDbSpline
 70
8
 71
3
 72
8
 73
4
 74
0
 40
0
 40
0
 40
0
 40
0
 40
1
 40
1
 40
1
 40
1
 10
521.104080
 20
272.742946
 30
0.0
 10
529.305520
 20
274.724186
 30
0.0
 10
535.977690
 20
261.887116
 30
0.0
 10
542.422220
 20
262.425066
 30
0.0
  0
SPLINE
  5
192
100
AcDbEntity
  8
Layer_1
 62
5
100
AcDbSpline
 70
8
 71
3
 72
8
 73
4
 74
0
 40
0
 40
0
 40
0
 40
0
 40
1
 40
1
 40
1
 40
1
 10
542.422220
 20
262.425066
 30
0.0
 10
548.867110
 20
262.963236
 30
0.0
 10
563.723260
 20
255.850236
 30
0.0
 10
563.671150
 20
267.079816
 30
0.0
  0
SPLINE
  5
193
100
AcDbEntity
  8
Layer_1
 62
5
100
AcDbSpline
 70
8
 71
3
 72
8
 73
4
 74
0
 40
0
 40
0
 40
0
 40
0
 40
1
 40
1
 40
1
 40
1
 10
563.671150
 20
267.079816
 30
0.0
 10
563.646250
 20
272.449376
 30
0.0
 10
561.368810
 20
276.290036
 30
0.0
 10
560.640480
 20
280.974926
 30
0.0
  0
SPLINE
  5
194
100
AcDbEntity
  8
Layer_1
 62
5
100
AcDbSpline
 70
8
 71
3
 72
8
 73
4
 74
0
 40
0
 40
0
 40
0
 40
0
 40
1
 40
1
 40
1
 40
1
 10
559.703280
 20
290.944277
 30
0.0
 10
562.933190
 20
295.534717
 30
0.0
 10
567.533660
 20
306.758056
 30
0.0
 10
567.533660
 20
306.758056
 30
0.0
  0
SPLINE
  5
195
100
AcDbEntity
  8
Layer_1
 62
5
100
AcDbSpline
 70
8
 71
3
 72
8
 73
4
 74
0
 40
0
 40
0
 40
0
 40
0
 40
1
 40
1
 40
1
 40
1
 10
526.956650
 20
358.030396
 30
0.0
 10
526.940850
 20
366.834376
 30
0.0
 10
526.706210
 20
373.442546
 30
0.0
 10
526.706210
 20
373.442546
 30
0.0
  0
LINE
  5
196
100
AcDbEntity
  8
Layer_1
 62
5
100
AcDbLine
 10
526.706210
 20
373.442546
 30
0.0
 11
526.706210
 21
373.442546
 31
0.0
  0
LINE
  5
197
100
AcDbEntity
  8
Layer_1
 62
5
100
AcDbLine
 10
460.094630
 20
332.659106
 30
0.0
 11
498.938290
 21
349.536666
 31
0.0
  0
SPLINE
  5
198
100
AcDbEntity
  8
Layer_1
 62
5
100
AcDbSpline
 70
8
 71
3
 72
8
 73
4
 74
0
 40
0
 40
0
 40
0
 40
0
 40
1
 40
1
 40
1
 40
1
 10
498.938290
 20
349.536666
 30
0.0
 10
498.938290
 20
349.536666
 30
0.0
 10
523.017980
 20
342.840156
 30
0.0
 10
521.158430
 20
334.178836
 30
0.0
  0
SPLINE
  5
199
100
AcDbEntity
  8
Layer_1
 62
5
100
AcDbSpline
 70
8
 71
3
 72
8
 73
4
 74
0
 40
0
 40
0
 40
0
 40
0
 40
1
 40
1
 40
1
 40
1
 10
521.158430
 20
334.178836
 30
0.0
 10
519.298730
 20
325.517636
 30
0.0
 10
516.188660
 20
307.815886
 30
0.0
 10
522.358660
 20
314.978666
 30
0.0
  0
SPLINE
  5
19a
100
AcDbEntity
  8
Layer_1
 62
5
100
AcDbSpline
 70
8
 71
3
 72
8
 73
4
 74
0
 40
0
 40
0
 40
0
 40
0
 40
1
 40
1
 40
1
 40
1
 10
522.358660
 20
314.978666
 30
0.0
 10
525.046710
 20
318.099376
 30
0.0
 10
526.373130
 20
335.142316
 30
0.0
 10
526.838820
 20
347.126966
 30
0.0
  0
LINE
  5
19b
100
AcDbEntity
  8
Layer_1
 62
5
100
AcDbLine
 10
567.398390
 20
306.980056
 30
0.0
 11
550.581110
 21
345.750536
 31
0.0
  0
SPLINE
  5
19c
100
AcDbEntity
  8
Layer_1
 62
5
100
AcDbSpline
 70
8
 71
3
 72
8
 73
4
 74
0
 40
0
 40
0
 40
0
 40
0
 40
1
 40
1
 40
1
 40
1
 10
550.581110
 20
345.750536
 30
0.0
 10
550.581110
 20
345.750536
 30
0.0
 10
557.332470
 20
369.819126
 30
0.0
 10
565.998840
 20
367.978756
 30
0.0
  0
SPLINE
  5
19d
100
AcDbEntity
  8
Layer_1
 62
5
100
AcDbSpline
 70
8
 71
3
 72
8
 73
4
 74
0
 40
0
 40
0
 40
0
 40
0
 40
1
 40
1
 40
1
 40
1
 10
565.998840
 20
367.978756
 30
0.0
 10
574.665240
 20
366.138156
 30
0.0
 10
592.378870
 20
363.066666
 30
0.0
 10
585.221140
 20
369.215956
 30
0.0
  0
SPLINE
  5
19e
100
AcDbEntity
  8
Layer_1
 62
5
100
AcDbSpline
 70
8
 71
3
 72
8
 73
4
 74
0
 40
0
 40
0
 40
0
 40
0
 40
1
 40
1
 40
1
 40
1
 10
585.221140
 20
369.215956
 30
0.0
 10
582.128790
 20
371.872456
 30
0.0
 10
567.752810
 20
372.653846
 30
0.0
 10
558.902190
 20
373.471986
 30
0.0
  0
SPLINE
  5
19f
100
AcDbEntity
  8
Layer_1
 62
5
100
AcDbSpline
 70
8
 71
3
 72
8
 73
4
 74
0
 40
0
 40
0
 40
0
 40
0
 40
1
 40
1
 40
1
 40
1
 10
549.642940
 20
373.694746
 30
0.0
 10
548.237480
 20
373.711246
 30
0.0
 10
546.848270
 20
373.760046
 30
0.0
 10
545.498250
 20
373.764046
 30
0.0
  0
SPLINE
  5
1a0
100
AcDbEntity
  8
Layer_1
 62
5
100
AcDbSpline
 70
8
 71
3
 72
8
 73
4
 74
0
 40
0
 40
0
 40
0
 40
0
 40
1
 40
1
 40
1
 40
1
 10
536.317880
 20
373.670146
 30
0.0
 10
530.566560
 20
373.587046
 30
0.0
 10
526.706210
 20
373.442616
 30
0.0
 10
526.706210
 20
373.442616
 30
0.0
  0
LINE
  5
1a1
100
AcDbEntity
  8
Layer_1
 62
5
100
AcDbLine
 10
526.706210
 20
373.442616
 30
0.0
 11
526.706210
 21
373.442616
 31
0.0
  0
SPLINE
  5
1a2
100
AcDbEntity
  8
Layer_1
 62
5
100
AcDbSpline
 70
8
 71
3
 72
8
 73
4
 74
0
 40
0
 40
0
 40
0
 40
0
 40
1
 40
1
 40
1
 40
1
 10
526.774110
 20
358.098896
 30
0.0
 10
526.277570
 20
357.794896
 30
0.0
 10
518.407070
 20
358.832966
 30
0.0
 10
518.710340
 20
358.337666
 30
0.0
  0
SPLINE
  5
1a3
100
AcDbEntity
  8
Layer_1
 62
5
100
AcDbSpline
 70
8
 71
3
 72
8
 73
4
 74
0
 40
0
 40
0
 40
0
 40
0
 40
1
 40
1
 40
1
 40
1
 10
518.710340
 20
358.337666
 30
0.0
 10
519.013840
 20
357.841996
 30
0.0
 10
518.498910
 20
347.311646
 30
0.0
 10
518.498910
 20
347.311646
 30
0.0
  0
LINE
  5
1a4
100
AcDbEntity
  8
Layer_1
 62
5
100
AcDbLine
 10
518.498910
 20
347.311646
 30
0.0
 11
527.340420
 21
347.140466
 31
0.0
  0
LINE
  5
1a5
100
AcDbEntity
  8
Layer_1
 62
5
100
AcDbLine
 10
527.340420
 20
347.140466
 30
0.0
 11
527.340420
 21
347.140466
 31
0.0
  0
LINE
  5
1a6
100
AcDbEntity
  8
Layer_1
 62
5
100
AcDbLine
 10
526.956710
 20
358.030526
 30
0.0
 11
526.936510
 21
354.649056
 31
0.0
  0
LINE
  5
1a7
100
AcDbEntity
  8
Layer_1
 62
5
100
AcDbLine
 10
526.858910
 20
350.508416
 30
0.0
 11
526.838810
 21
347.127076
 31
0.0
  0
SPLINE
  5
1a8
100
AcDbEntity
  8
Layer_1
 62
5
100
AcDbSpline
 70
8
 71
3
 72
8
 73
4
 74
0
 40
0
 40
0
 40
0
 40
0
 40
1
 40
1
 40
1
 40
1
 10
559.148980
 20
373.605176
 30
0.0
 10
559.041620
 20
373.780626
 30
0.0
 10
550.607010
 20
382.196156
 30
0.0
 10
549.183600
 20
382.865616
 30
0.0
  0
SPLINE
  5
1a9
100
AcDbEntity
  8
Layer_1
 62
5
100
AcDbSpline
 70
8
 71
3
 72
8
 73
4
 74
0
 40
0
 40
0
 40
0
 40
0
 40
1
 40
1
 40
1
 40
1
 10
549.183600
 20
382.865616
 30
0.0
 10
547.760260
 20
383.535126
 30
0.0
 10
535.999390
 20
373.734576
 30
0.0
 10
535.999390
 20
373.734576
 30
0.0
  0
LINE
  5
1aa
100
AcDbEntity
  8
Layer_1
 62
5
100
AcDbLine
 10
535.999390
 20
373.734576
 30
0.0
 11
535.999390
 21
373.734576
 31
0.0
  0
LINE
  5
1ab
100
AcDbEntity
  8
Layer_1
 62
5
100
AcDbLine
 10
535.999390
 20
373.734576
 30
0.0
 11
535.999390
 21
373.734576
 31
0.0
  0
SPLINE
  5
1ac
100
AcDbEntity
  8
Layer_1
 62
5
100
AcDbSpline
 70
8
 71
3
 72
8
 73
4
 74
0
 40
0
 40
0
 40
0
 40
0
 40
1
 40
1
 40
1
 40
1
 10
117.564030
 20
122.660100
 30
0.0
 10
119.835330
 20
115.293710
 30
0.0
 10
113.509610
 20
106.024610
 30
0.0
 10
110.755570
 20
105.783520
 30
0.0
  0
SPLINE
  5
1ad
100
AcDbEntity
  8
Layer_1
 62
5
100
AcDbSpline
 70
8
 71
3
 72
8
 73
4
 74
0
 40
0
 40
0
 40
0
 40
0
 40
1
 40
1
 40
1
 40
1
 10
110.755570
 20
105.783520
 30
0.0
 10
108.001370
 20
105.542510
 30
0.0
 10
104.437040
 20
104.891470
 30
0.0
 10
99.653373
 20
107.236700
 30
0.0
  0
SPLINE
  5
1ae
100
AcDbEntity
  8
Layer_1
 62
5
100
AcDbSpline
 70
8
 71
3
 72
8
 73
4
 74
0
 40
0
 40
0
 40
0
 40
0
 40
1
 40
1
 40
1
 40
1
 10
99.653373
 20
107.236700
 30
0.0
 10
95.923735
 20
109.392740
 30
0.0
 10
94.239703
 20
119.492490
 30
0.0
 10
94.239703
 20
119.492490
 30
0.0
  0
SPLINE
  5
1af
100
AcDbEntity
  8
Layer_1
 62
5
100
AcDbSpline
 70
8
 71
3
 72
8
 73
4
 74
0
 40
0
 40
0
 40
0
 40
0
 40
1
 40
1
 40
1
 40
1
 10
192.523830
 20
75.298180
 30
0.0
 10
192.818060
 20
75.643450
 30
0.0
 10
196.285270
 20
80.169890
 30
0.0
 10
196.961440
 20
81.039370
 30
0.0
  0
SPLINE
  5
1b0
100
AcDbEntity
  8
Layer_1
 62
5
100
AcDbSpline
 70
8
 71
3
 72
8
 73
4
 74
0
 40
0
 40
0
 40
0
 40
0
 40
1
 40
1
 40
1
 40
1
 10
196.961440
 20
81.039370
 30
0.0
 10
197.637770
 20
81.908470
 30
0.0
 10
199.294030
 20
86.145250
 30
0.0
 10
197.380200
 20
89.161310
 30
0.0
  0
SPLINE
  5
1b1
100
AcDbEntity
  8
Layer_1
 62
5
100
AcDbSpline
 70
8
 71
3
 72
8
 73
4
 74
0
 40
0
 40
0
 40
0
 40
0
 40
1
 40
1
 40
1
 40
1
 10
197.380200
 20
89.161310
 30
0.0
 10
195.466680
 20
92.177740
 30
0.0
 10
189.404920
 20
98.602750
 30
0.0
 10
189.404920
 20
98.602750
 30
0.0
  0
LINE
  5
1b2
100
AcDbEntity
  8
Layer_1
 62
5
100
AcDbLine
 10
189.404920
 20
98.602750
 30
0.0
 11
189.404920
 21
98.602750
 31
0.0
  0
LINE
  5
1b3
100
AcDbEntity
  8
Layer_1
 62
5
100
AcDbLine
 10
189.404920
 20
98.602750
 30
0.0
 11
189.404920
 21
98.602750
 31
0.0
  0
LINE
  5
1b4
100
AcDbEntity
  8
Layer_1
 62
5
100
AcDbLine
 10
189.404920
 20
98.602750
 30
0.0
 11
189.404920
 21
98.602750
 31
0.0
  0
SPLINE
  5
1b5
100
AcDbEntity
  8
Layer_1
 62
5
100
AcDbSpline
 70
8
 71
3
 72
8
 73
4
 74
0
 40
0
 40
0
 40
0
 40
0
 40
1
 40
1
 40
1
 40
1
 10
131.268250
 20
61.467510
 30
0.0
 10
131.268250
 20
61.467510
 30
0.0
 10
125.314870
 20
72.934870
 30
0.0
 10
122.387520
 20
80.831570
 30
0.0
  0
SPLINE
  5
1b6
100
AcDbEntity
  8
Layer_1
 62
5
100
AcDbSpline
 70
8
 71
3
 72
8
 73
4
 74
0
 40
0
 40
0
 40
0
 40
0
 40
1
 40
1
 40
1
 40
1
 10
122.387520
 20
80.831570
 30
0.0
 10
119.460150
 20
88.728390
 30
0.0
 10
131.436000
 20
96.902700
 30
0.0
 10
130.147760
 20
103.231440
 30
0.0
  0
SPLINE
  5
1b7
100
AcDbEntity
  8
Layer_1
 62
5
100
AcDbSpline
 70
8
 71
3
 72
8
 73
4
 74
0
 40
0
 40
0
 40
0
 40
0
 40
1
 40
1
 40
1
 40
1
 10
130.147760
 20
103.231440
 30
0.0
 10
128.859460
 20
109.560280
 30
0.0
 10
134.190440
 20
125.160670
 30
0.0
 10
123.038030
 20
123.748960
 30
0.0
  0
SPLINE
  5
1b8
100
AcDbEntity
  8
Layer_1
 62
5
100
AcDbSpline
 70
8
 71
3
 72
8
 73
4
 74
0
 40
0
 40
0
 40
0
 40
0
 40
1
 40
1
 40
1
 40
1
 10
123.038030
 20
123.748960
 30
0.0
 10
121.121620
 20
123.506590
 30
0.0
 10
119.323450
 20
123.067430
 30
0.0
 10
117.634050
 20
122.520180
 30
0.0
  0
SPLINE
  5
1b9
100
AcDbEntity
  8
Layer_1
 62
5
100
AcDbSpline
 70
8
 71
3
 72
8
 73
4
 74
0
 40
0
 40
0
 40
0
 40
0
 40
1
 40
1
 40
1
 40
1
 10
109.812320
 20
119.170850
 30
0.0
 10
105.666000
 20
117.133240
 30
0.0
 10
102.413690
 20
115.513980
 30
0.0
 10
99.788406
 20
116.921810
 30
0.0
  0
SPLINE
  5
1ba
100
AcDbEntity
  8
Layer_1
 62
5
100
AcDbSpline
 70
8
 71
3
 72
8
 73
4
 74
0
 40
0
 40
0
 40
0
 40
0
 40
1
 40
1
 40
1
 40
1
 10
94.233209
 20
119.276290
 30
0.0
 10
89.048600
 20
121.160400
 30
0.0
 10
83.159184
 20
122.775140
 30
0.0
 10
83.159184
 20
122.775140
 30
0.0
  0
SPLINE
  5
1bb
100
AcDbEntity
  8
Layer_1
 62
5
100
AcDbSpline
 70
8
 71
3
 72
8
 73
4
 74
0
 40
0
 40
0
 40
0
 40
0
 40
1
 40
1
 40
1
 40
1
 10
131.268480
 20
61.467300
 30
0.0
 10
131.268480
 20
61.467300
 30
0.0
 10
142.774780
 20
67.404080
 30
0.0
 10
150.691860
 20
70.320560
 30
0.0
  0
SPLINE
  5
1bc
100
AcDbEntity
  8
Layer_1
 62
5
100
AcDbSpline
 70
8
 71
3
 72
8
 73
4
 74
0
 40
0
 40
0
 40
0
 40
0
 40
1
 40
1
 40
1
 40
1
 10
150.691860
 20
70.320560
 30
0.0
 10
158.608960
 20
73.237470
 30
0.0
 10
166.721670
 20
61.258650
 30
0.0
 10
173.060670
 20
62.538670
 30
0.0
  0
SPLINE
  5
1bd
100
AcDbEntity
  8
Layer_1
 62
5
100
AcDbSpline
 70
8
 71
3
 72
8
 73
4
 74
0
 40
0
 40
0
 40
0
 40
0
 40
1
 40
1
 40
1
 40
1
 10
173.060670
 20
62.538670
 30
0.0
 10
179.400000
 20
63.818960
 30
0.0
 10
194.979400
 20
58.472720
 30
0.0
 10
193.628280
 20
69.620850
 30
0.0
  0
SPLINE
  5
1be
100
AcDbEntity
  8
Layer_1
 62
5
100
AcDbSpline
 70
8
 71
3
 72
8
 73
4
 74
0
 40
0
 40
0
 40
0
 40
0
 40
1
 40
1
 40
1
 40
1
 10
193.628280
 20
69.620850
 30
0.0
 10
192.982240
 20
74.951450
 30
0.0
 10
190.275700
 20
78.502790
 30
0.0
 10
189.010180
 20
83.071950
 30
0.0
  0
SPLINE
  5
1bf
100
AcDbEntity
  8
Layer_1
 62
5
100
AcDbSpline
 70
8
 71
3
 72
8
 73
4
 74
0
 40
0
 40
0
 40
0
 40
0
 40
1
 40
1
 40
1
 40
1
 10
186.925730
 20
92.865890
 30
0.0
 10
189.602800
 20
97.799230
 30
0.0
 10
192.873730
 20
109.479500
 30
0.0
 10
192.873730
 20
109.479500
 30
0.0
  0
SPLINE
  5
1c0
100
AcDbEntity
  8
Layer_1
 62
5
100
AcDbSpline
 70
8
 71
3
 72
8
 73
4
 74
0
 40
0
 40
0
 40
0
 40
0
 40
1
 40
1
 40
1
 40
1
 10
146.636590
 20
155.712310
 30
0.0
 10
145.602200
 20
164.455320
 30
0.0
 10
144.604510
 20
170.991960
 30
0.0
 10
144.604510
 20
170.991960
 30
0.0
  0
LINE
  5
1c1
100
AcDbEntity
  8
Layer_1
 62
5
100
AcDbLine
 10
144.604510
 20
170.991960
 30
0.0
 11
144.604510
 21
170.991960
 31
0.0
  0
LINE
  5
1c2
100
AcDbEntity
  8
Layer_1
 62
5
100
AcDbLine
 10
83.159400
 20
122.774880
 30
0.0
 11
119.789220
 21
144.033660
 31
0.0
  0
SPLINE
  5
1c3
100
AcDbEntity
  8
Layer_1
 62
5
100
AcDbSpline
 70
8
 71
3
 72
8
 73
4
 74
0
 40
0
 40
0
 40
0
 40
0
 40
1
 40
1
 40
1
 40
1
 10
119.789220
 20
144.033660
 30
0.0
 10
119.789220
 20
144.033660
 30
0.0
 10
144.482010
 20
140.168360
 30
0.0
 10
143.637140
 20
131.350050
 30
0.0
  0
SPLINE
  5
1c4
100
AcDbEntity
  8
Layer_1
 62
5
100
AcDbSpline
 70
8
 71
3
 72
8
 73
4
 74
0
 40
0
 40
0
 40
0
 40
0
 40
1
 40
1
 40
1
 40
1
 10
143.637140
 20
131.350050
 30
0.0
 10
142.792120
 20
122.531830
 30
0.0
 10
141.751190
 20
104.589130
 30
0.0
 10
147.050930
 20
112.417710
 30
0.0
  0
SPLINE
  5
1c5
100
AcDbEntity
  8
Layer_1
 62
5
100
AcDbSpline
 70
8
 71
3
 72
8
 73
4
 74
0
 40
0
 40
0
 40
0
 40
0
 40
1
 40
1
 40
1
 40
1
 10
147.050930
 20
112.417710
 30
0.0
 10
149.359840
 20
115.828490
 30
0.0
 10
148.705330
 20
132.910440
 30
0.0
 10
147.781160
 20
144.868480
 30
0.0
  0
LINE
  5
1c6
100
AcDbEntity
  8
Layer_1
 62
5
100
AcDbLine
 10
192.713650
 20
109.684320
 30
0.0
 11
171.523250
 21
146.248490
 31
0.0
  0
SPLINE
  5
1c7
100
AcDbEntity
  8
Layer_1
 62
5
100
AcDbSpline
 70
8
 71
3
 72
8
 73
4
 74
0
 40
0
 40
0
 40
0
 40
0
 40
1
 40
1
 40
1
 40
1
 10
171.523250
 20
146.248490
 30
0.0
 10
171.523250
 20
146.248490
 30
0.0
 10
175.444320
 20
170.936600
 30
0.0
 10
184.265420
 20
170.111360
 30
0.0
  0
SPLINE
  5
1c8
100
AcDbEntity
  8
Layer_1
 62
5
100
AcDbSpline
 70
8
 71
3
 72
8
 73
4
 74
0
 40
0
 40
0
 40
0
 40
0
 40
1
 40
1
 40
1
 40
1
 10
184.265420
 20
170.111360
 30
0.0
 10
193.086580
 20
169.285910
 30
0.0
 10
211.036630
 20
168.284670
 30
0.0
 10
203.215450
 20
173.564440
 30
0.0
  0
SPLINE
  5
1c9
100
AcDbEntity
  8
Layer_1
 62
5
100
AcDbSpline
 70
8
 71
3
 72
8
 73
4
 74
0
 40
0
 40
0
 40
0
 40
0
 40
1
 40
1
 40
1
 40
1
 10
203.215450
 20
173.564440
 30
0.0
 10
199.836490
 20
175.845280
 30
0.0
 10
185.466660
 20
174.958010
 30
0.0
 10
176.580820
 20
174.746550
 30
0.0
  0
SPLINE
  5
1ca
100
AcDbEntity
  8
Layer_1
 62
5
100
AcDbSpline
 70
8
 71
3
 72
8
 73
4
 74
0
 40
0
 40
0
 40
0
 40
0
 40
1
 40
1
 40
1
 40
1
 10
167.358000
 20
173.896440
 30
0.0
 10
165.960070
 20
173.750210
 30
0.0
 10
164.574550
 20
173.637930
 30
0.0
 10
163.233120
 20
173.485700
 30
0.0
  0
SPLINE
  5
1cb
100
AcDbEntity
  8
Layer_1
 62
5
100
AcDbSpline
 70
8
 71
3
 72
8
 73
4
 74
0
 40
0
 40
0
 40
0
 40
0
 40
1
 40
1
 40
1
 40
1
 10
154.125290
 20
172.330180
 30
0.0
 10
148.422210
 20
171.582160
 30
0.0
 10
144.604500
 20
170.992020
 30
0.0
 10
144.604500
 20
170.992020
 30
0.0
  0
LINE
  5
1cc
100
AcDbEntity
  8
Layer_1
 62
5
100
AcDbLine
 10
144.604500
 20
170.992020
 30
0.0
 11
144.604500
 21
170.992020
 31
0.0
  0
SPLINE
  5
1cd
100
AcDbEntity
  8
Layer_1
 62
5
100
AcDbSpline
 70
8
 71
3
 72
8
 73
4
 74
0
 40
0
 40
0
 40
0
 40
0
 40
1
 40
1
 40
1
 40
1
 10
146.447350
 20
155.759230
 30
0.0
 10
145.989310
 20
155.399810
 30
0.0
 10
138.051570
 20
155.520220
 30
0.0
 10
138.410110
 20
155.063340
 30
0.0
  0
SPLINE
  5
1ce
100
AcDbEntity
  8
Layer_1
 62
5
100
AcDbSpline
 70
8
 71
3
 72
8
 73
4
 74
0
 40
0
 40
0
 40
0
 40
0
 40
1
 40
1
 40
1
 40
1
 10
138.410110
 20
155.063340
 30
0.0
 10
138.768920
 20
154.606120
 30
0.0
 10
139.475900
 20
144.086920
 30
0.0
 10
139.475900
 20
144.086920
 30
0.0
  0
LINE
  5
1cf
100
AcDbEntity
  8
Layer_1
 62
5
100
AcDbLine
 10
139.475900
 20
144.086920
 30
0.0
 11
148.277840
 21
144.939930
 31
0.0
  0
LINE
  5
1d0
100
AcDbEntity
  8
Layer_1
 62
5
100
AcDbLine
 10
148.277840
 20
144.939930
 30
0.0
 11
148.277840
 21
144.939930
 31
0.0
  0
LINE
  5
1d1
100
AcDbEntity
  8
Layer_1
 62
5
100
AcDbLine
 10
146.636640
 20
155.712440
 30
0.0
 11
147.007830
 21
152.351350
 31
0.0
  0
LINE
  5
1d2
100
AcDbEntity
  8
Layer_1
 62
5
100
AcDbLine
 10
147.409870
 20
148.229540
 30
0.0
 11
147.781150
 21
144.868580
 31
0.0
  0
SPLINE
  5
1d3
100
AcDbEntity
  8
Layer_1
 62
5
100
AcDbSpline
 70
8
 71
3
 72
8
 73
4
 74
0
 40
0
 40
0
 40
0
 40
0
 40
1
 40
1
 40
1
 40
1
 10
176.810550
 20
174.907400
 30
0.0
 10
176.683600
 20
175.069250
 30
0.0
 10
167.331900
 20
182.452300
 30
0.0
 10
165.840590
 20
182.952570
 30
0.0
  0
SPLINE
  5
1d4
100
AcDbEntity
  8
Layer_1
 62
5
100
AcDbSpline
 70
8
 71
3
 72
8
 73
4
 74
0
 40
0
 40
0
 40
0
 40
0
 40
1
 40
1
 40
1
 40
1
 10
165.840590
 20
182.952570
 30
0.0
 10
164.349350
 20
183.452890
 30
0.0
 10
153.801480
 20
172.357320
 30
0.0
 10
153.801480
 20
172.357320
 30
0.0
  0
LINE
  5
1d5
100
AcDbEntity
  8
Layer_1
 62
5
100
AcDbLine
 10
153.801480
 20
172.357320
 30
0.0
 11
153.801480
 21
172.357320
 31
0.0
  0
LINE
  5
1d6
100
AcDbEntity
  8
Layer_1
 62
5
100
AcDbLine
 10
153.801480
 20
172.357320
 30
0.0
 11
153.801480
 21
172.357320
 31
0.0
  0
SPLINE
  5
1d7
100
AcDbEntity
  8
Layer_1
 62
5
100
AcDbSpline
 70
8
 71
3
 72
8
 73
4
 74
0
 40
0
 40
0
 40
0
 40
0
 40
1
 40
1
 40
1
 40
1
 10
521.487180
 20
107.507170
 30
0.0
 10
515.073030
 20
103.208270
 30
0.0
 10
504.397620
 20
106.600640
 30
0.0
 10
503.385630
 20
109.170640
 30
0.0
  0
SPLINE
  5
1d8
100
AcDbEntity
  8
Layer_1
 62
5
100
AcDbSpline
 70
8
 71
3
 72
8
 73
4
 74
0
 40
0
 40
0
 40
0
 40
0
 40
1
 40
1
 40
1
 40
1
 10
503.385630
 20
109.170640
 30
0.0
 10
502.373970
 20
111.740820
 30
0.0
 10
500.739070
 20
114.969330
 30
0.0
 10
501.629630
 20
120.229550
 30
0.0
  0
SPLINE
  5
1d9
100
AcDbEntity
  8
Layer_1
 62
5
100
AcDbSpline
 70
8
 71
3
 72
8
 73
4
 74
0
 40
0
 40
0
 40
0
 40
0
 40
1
 40
1
 40
1
 40
1
 10
501.629630
 20
120.229550
 30
0.0
 10
502.637770
 20
124.425030
 30
0.0
 10
511.837590
 20
128.948400
 30
0.0
 10
511.837590
 20
128.948400
 30
0.0
  0
SPLINE
  5
1da
100
AcDbEntity
  8
Layer_1
 62
5
100
AcDbSpline
 70
8
 71
3
 72
8
 73
4
 74
0
 40
0
 40
0
 40
0
 40
0
 40
1
 40
1
 40
1
 40
1
 10
497.364200
 20
22.022700
 30
0.0
 10
497.778750
 20
21.839750
 30
0.0
 10
503.098970
 20
19.821060
 30
0.0
 10
504.123740
 20
19.423550
 30
0.0
  0
SPLINE
  5
1db
100
AcDbEntity
  8
Layer_1
 62
5
100
AcDbSpline
 70
8
 71
3
 72
8
 73
4
 74
0
 40
0
 40
0
 40
0
 40
0
 40
1
 40
1
 40
1
 40
1
 10
504.123740
 20
19.423550
 30
0.0
 10
505.148600
 20
19.026010
 30
0.0
 10
509.677570
 20
18.658760
 30
0.0
 10
512.024730
 20
21.361800
 30
0.0
  0
SPLINE
  5
1dc
100
AcDbEntity
  8
Layer_1
 62
5
100
AcDbSpline
 70
8
 71
3
 72
8
 73
4
 74
0
 40
0
 40
0
 40
0
 40
0
 40
1
 40
1
 40
1
 40
1
 10
512.024730
 20
21.361800
 30
0.0
 10
514.371960
 20
24.064790
 30
0.0
 10
518.809930
 20
31.724730
 30
0.0
 10
518.809930
 20
31.724730
 30
0.0
  0
LINE
  5
1dd
100
AcDbEntity
  8
Layer_1
 62
5
100
AcDbLine
 10
518.809930
 20
31.724730
 30
0.0
 11
518.809930
 21
31.724730
 31
0.0
  0
LINE
  5
1de
100
AcDbEntity
  8
Layer_1
 62
5
100
AcDbLine
 10
518.809930
 20
31.724730
 30
0.0
 11
518.809930
 21
31.724730
 31
0.0
  0
LINE
  5
1df
100
AcDbEntity
  8
Layer_1
 62
5
100
AcDbLine
 10
518.809930
 20
31.724730
 30
0.0
 11
518.809930
 21
31.724730
 31
0.0
  0
SPLINE
  5
1e0
100
AcDbEntity
  8
Layer_1
 62
5
100
AcDbSpline
 70
8
 71
3
 72
8
 73
4
 74
0
 40
0
 40
0
 40
0
 40
0
 40
1
 40
1
 40
1
 40
1
 10
466.740880
 20
76.745150
 30
0.0
 10
466.740880
 20
76.745150
 30
0.0
 10
476.040240
 20
85.754240
 30
0.0
 10
482.776540
 20
90.834550
 30
0.0
  0
SPLINE
  5
1e1
100
AcDbEntity
  8
Layer_1
 62
5
100
AcDbSpline
 70
8
 71
3
 72
8
 73
4
 74
0
 40
0
 40
0
 40
0
 40
0
 40
1
 40
1
 40
1
 40
1
 10
482.776540
 20
90.834550
 30
0.0
 10
489.512900
 20
95.914940
 30
0.0
 10
500.741610
 20
86.792220
 30
0.0
 10
506.440210
 20
89.849860
 30
0.0
  0
SPLINE
  5
1e2
100
AcDbEntity
  8
Layer_1
 62
5
100
AcDbSpline
 70
8
 71
3
 72
8
 73
4
 74
0
 40
0
 40
0
 40
0
 40
0
 40
1
 40
1
 40
1
 40
1
 10
506.440210
 20
89.849860
 30
0.0
 10
512.138890
 20
92.907650
 30
0.0
 10
528.598710
 20
92.292520
 30
0.0
 10
524.083260
 20
102.574120
 30
0.0
  0
SPLINE
  5
1e3
100
AcDbEntity
  8
Layer_1
 62
5
100
AcDbSpline
 70
8
 71
3
 72
8
 73
4
 74
0
 40
0
 40
0
 40
0
 40
0
 40
1
 40
1
 40
1
 40
1
 10
524.083260
 20
102.574120
 30
0.0
 10
523.307930
 20
104.341370
 30
0.0
 10
522.376890
 20
105.937910
 30
0.0
 10
521.373310
 20
107.399320
 30
0.0
  0
SPLINE
  5
1e4
100
AcDbEntity
  8
Layer_1
 62
5
100
AcDbSpline
 70
8
 71
3
 72
8
 73
4
 74
0
 40
0
 40
0
 40
0
 40
0
 40
1
 40
1
 40
1
 40
1
 10
515.945910
 20
113.930760
 30
0.0
 10
512.817830
 20
117.317700
 30
0.0
 10
510.343940
 20
119.968090
 30
0.0
 10
510.948180
 20
122.889760
 30
0.0
  0
SPLINE
  5
1e5
100
AcDbEntity
  8
Layer_1
 62
5
100
AcDbSpline
 70
8
 71
3
 72
8
 73
4
 74
0
 40
0
 40
0
 40
0
 40
0
 40
1
 40
1
 40
1
 40
1
 10
511.628760
 20
128.892170
 30
0.0
 10
511.963890
 20
134.403860
 30
0.0
 10
511.840820
 20
140.513390
 30
0.0
 10
511.840820
 20
140.513390
 30
0.0
  0
SPLINE
  5
1e6
100
AcDbEntity
  8
Layer_1
 62
5
100
AcDbSpline
 70
8
 71
3
 72
8
 73
4
 74
0
 40
0
 40
0
 40
0
 40
0
 40
1
 40
1
 40
1
 40
1
 10
466.740700
 20
76.744910
 30
0.0
 10
466.740700
 20
76.744910
 30
0.0
 10
475.692340
 20
67.427520
 30
0.0
 10
480.732100
 20
60.679960
 30
0.0
  0
SPLINE
  5
1e7
100
AcDbEntity
  8
Layer_1
 62
5
100
AcDbSpline
 70
8
 71
3
 72
8
 73
4
 74
0
 40
0
 40
0
 40
0
 40
0
 40
1
 40
1
 40
1
 40
1
 10
480.732100
 20
60.679960
 30
0.0
 10
485.772040
 20
53.932500
 30
0.0
 10
476.594950
 20
42.706740
 30
0.0
 10
479.619320
 20
37.000070
 30
0.0
  0
SPLINE
  5
1e8
100
AcDbEntity
  8
Layer_1
 62
5
100
AcDbSpline
 70
8
 71
3
 72
8
 73
4
 74
0
 40
0
 40
0
 40
0
 40
0
 40
1
 40
1
 40
1
 40
1
 10
479.619320
 20
37.000070
 30
0.0
 10
482.643780
 20
31.293340
 30
0.0
 10
481.939320
 20
14.822120
 30
0.0
 10
492.238030
 20
19.328320
 30
0.0
  0
SPLINE
  5
1e9
100
AcDbEntity
  8
Layer_1
 62
5
100
AcDbSpline
 70
8
 71
3
 72
8
 73
4
 74
0
 40
0
 40
0
 40
0
 40
0
 40
1
 40
1
 40
1
 40
1
 10
492.238030
 20
19.328320
 30
0.0
 10
497.162440
 20
21.483040
 30
0.0
 10
499.797690
 20
25.099980
 30
0.0
 10
503.816720
 20
27.629150
 30
0.0
  0
SPLINE
  5
1ea
100
AcDbEntity
  8
Layer_1
 62
5
100
AcDbSpline
 70
8
 71
3
 72
8
 73
4
 74
0
 40
0
 40
0
 40
0
 40
0
 40
1
 40
1
 40
1
 40
1
 10
512.609920
 20
32.448160
 30
0.0
 10
518.096060
 20
31.303640
 30
0.0
 10
530.215420
 20
31.533390
 30
0.0
 10
530.215420
 20
31.533390
 30
0.0
  0
SPLINE
  5
1eb
100
AcDbEntity
  8
Layer_1
 62
5
100
AcDbSpline
 70
8
 71
3
 72
8
 73
4
 74
0
 40
0
 40
0
 40
0
 40
0
 40
1
 40
1
 40
1
 40
1
 10
561.402020
 20
89.165030
 30
0.0
 10
569.485920
 20
92.674920
 30
0.0
 10
575.466220
 20
95.514100
 30
0.0
 10
575.466220
 20
95.514100
 30
0.0
  0
LINE
  5
1ec
100
AcDbEntity
  8
Layer_1
 62
5
100
AcDbLine
 10
575.466220
 20
95.514100
 30
0.0
 11
575.466220
 21
95.514100
 31
0.0
  0
LINE
  5
1ed
100
AcDbEntity
  8
Layer_1
 62
5
100
AcDbLine
 10
511.840640
 20
140.513160
 30
0.0
 11
542.598210
 21
111.531130
 31
0.0
  0
SPLINE
  5
1ee
100
AcDbEntity
  8
Layer_1
 62
5
100
AcDbSpline
 70
8
 71
3
 72
8
 73
4
 74
0
 40
0
 40
0
 40
0
 40
0
 40
1
 40
1
 40
1
 40
1
 10
542.598210
 20
111.531130
 30
0.0
 10
542.598210
 20
111.531130
 30
0.0
 10
545.897130
 20
86.752180
 30
0.0
 10
537.208060
 20
85.021740
 30
0.0
  0
SPLINE
  5
1ef
100
AcDbEntity
  8
Layer_1
 62
5
100
AcDbSpline
 70
8
 71
3
 72
8
 73
4
 74
0
 40
0
 40
0
 40
0
 40
0
 40
1
 40
1
 40
1
 40
1
 10
537.208060
 20
85.021740
 30
0.0
 10
528.519170
 20
83.291310
 30
0.0
 10
511.031670
 20
79.120360
 30
0.0
 10
520.035740
 20
76.296280
 30
0.0
  0
SPLINE
  5
1f0
100
AcDbEntity
  8
Layer_1
 62
5
100
AcDbSpline
 70
8
 71
3
 72
8
 73
4
 74
0
 40
0
 40
0
 40
0
 40
0
 40
1
 40
1
 40
1
 40
1
 10
520.035740
 20
76.296280
 30
0.0
 10
523.958760
 20
75.065870
 30
0.0
 10
540.140490
 20
80.614010
 30
0.0
 10
551.336370
 20
84.944390
 30
0.0
  0
LINE
  5
1f1
100
AcDbEntity
  8
Layer_1
 62
5
100
AcDbLine
 10
530.366300
 20
31.745870
 30
0.0
 11
559.391650
 21
62.587590
 31
0.0
  0
SPLINE
  5
1f2
100
AcDbEntity
  8
Layer_1
 62
5
100
AcDbSpline
 70
8
 71
3
 72
8
 73
4
 74
0
 40
0
 40
0
 40
0
 40
0
 40
1
 40
1
 40
1
 40
1
 10
559.391650
 20
62.587590
 30
0.0
 10
559.391650
 20
62.587590
 30
0.0
 10
584.159100
 20
65.941410
 30
0.0
 10
585.869950
 20
57.249560
 30
0.0
  0
SPLINE
  5
1f3
100
AcDbEntity
  8
Layer_1
 62
5
100
AcDbSpline
 70
8
 71
3
 72
8
 73
4
 74
0
 40
0
 40
0
 40
0
 40
0
 40
1
 40
1
 40
1
 40
1
 10
585.869950
 20
57.249560
 30
0.0
 10
587.580620
 20
48.557720
 30
0.0
 10
591.711780
 20
31.066060
 30
0.0
 10
594.552610
 20
40.082750
 30
0.0
  0
SPLINE
  5
1f4
100
AcDbEntity
  8
Layer_1
 62
5
100
AcDbSpline
 70
8
 71
3
 72
8
 73
4
 74
0
 40
0
 40
0
 40
0
 40
0
 40
1
 40
1
 40
1
 40
1
 10
594.552610
 20
40.082750
 30
0.0
 10
595.779840
 20
43.978030
 30
0.0
 10
590.854520
 20
57.494630
 30
0.0
 10
588.132020
 20
65.949650
 30
0.0
  0
SPLINE
  5
1f5
100
AcDbEntity
  8
Layer_1
 62
5
100
AcDbSpline
 70
8
 71
3
 72
8
 73
4
 74
0
 40
0
 40
0
 40
0
 40
0
 40
1
 40
1
 40
1
 40
1
 10
584.701960
 20
74.543910
 30
0.0
 10
584.165420
 20
75.841580
 30
0.0
 10
583.664840
 20
77.137260
 30
0.0
 10
583.138570
 20
78.378860
 30
0.0
  0
SPLINE
  5
1f6
100
AcDbEntity
  8
Layer_1
 62
5
100
AcDbSpline
 70
8
 71
3
 72
8
 73
4
 74
0
 40
0
 40
0
 40
0
 40
0
 40
1
 40
1
 40
1
 40
1
 10
579.448290
 20
86.774720
 30
0.0
 10
577.114280
 20
92.025210
 30
0.0
 10
575.466040
 20
95.514030
 30
0.0
 10
575.466040
 20
95.514030
 30
0.0
  0
LINE
  5
1f7
100
AcDbEntity
  8
Layer_1
 62
5
100
AcDbLine
 10
575.466040
 20
95.514030
 30
0.0
 11
575.466040
 21
95.514030
 31
0.0
  0
SPLINE
  5
1f8
100
AcDbEntity
  8
Layer_1
 62
5
100
AcDbSpline
 70
8
 71
3
 72
8
 73
4
 74
0
 40
0
 40
0
 40
0
 40
0
 40
1
 40
1
 40
1
 40
1
 10
561.393120
 20
89.359830
 30
0.0
 10
560.918590
 20
89.695430
 30
0.0
 10
558.783050
 20
97.337380
 30
0.0
 10
558.446460
 20
96.861880
 30
0.0
  0
SPLINE
  5
1f9
100
AcDbEntity
  8
Layer_1
 62
5
100
AcDbSpline
 70
8
 71
3
 72
8
 73
4
 74
0
 40
0
 40
0
 40
0
 40
0
 40
1
 40
1
 40
1
 40
1
 10
558.446460
 20
96.861880
 30
0.0
 10
558.110270
 20
96.386680
 30
0.0
 10
548.231500
 20
92.678620
 30
0.0
 10
548.231500
 20
92.678620
 30
0.0
  0
LINE
  5
1fa
100
AcDbEntity
  8
Layer_1
 62
5
100
AcDbLine
 10
548.231500
 20
92.678620
 30
0.0
 11
551.544970
 21
84.488600
 31
0.0
  0
LINE
  5
1fb
100
AcDbEntity
  8
Layer_1
 62
5
100
AcDbLine
 10
551.544970
 20
84.488600
 30
0.0
 11
551.544970
 21
84.488600
 31
0.0
  0
LINE
  5
1fc
100
AcDbEntity
  8
Layer_1
 62
5
100
AcDbLine
 10
561.401410
 20
89.164760
 30
0.0
 11
558.286220
 21
87.840680
 31
0.0
  0
LINE
  5
1fd
100
AcDbEntity
  8
Layer_1
 62
5
100
AcDbLine
 10
554.450970
 20
86.268120
 30
0.0
 11
551.335800
 21
84.944060
 31
0.0
  0
SPLINE
  5
1fe
100
AcDbEntity
  8
Layer_1
 62
5
100
AcDbSpline
 70
8
 71
3
 72
8
 73
4
 74
0
 40
0
 40
0
 40
0
 40
0
 40
1
 40
1
 40
1
 40
1
 10
588.350540
 20
65.775630
 30
0.0
 10
588.469710
 20
65.944060
 30
0.0
 10
592.891900
 20
77.033260
 30
0.0
 10
592.948260
 20
78.606610
 30
0.0
  0
SPLINE
  5
1ff
100
AcDbEntity
  8
Layer_1
 62
5
100
AcDbSpline
 70
8
 71
3
 72
8
 73
4
 74
0
 40
0
 40
0
 40
0
 40
0
 40
1
 40
1
 40
1
 40
1
 10
592.948260
 20
78.606610
 30
0.0
 10
593.004860
 20
80.179940
 30
0.0
 10
579.381990
 20
87.092750
 30
0.0
 10
579.381990
 20
87.092750
 30
0.0
  0
LINE
  5
200
100
AcDbEntity
  8
Layer_1
 62
5
100
AcDbLine
 10
579.381990
 20
87.092750
 30
0.0
 11
579.381990
 21
87.092750
 31
0.0
  0
LINE
  5
201
100
AcDbEntity
  8
Layer_1
 62
5
100
AcDbLine
 10
579.381990
 20
87.092750
 30
0.0
 11
579.381990
 21
87.092750
 31
0.0
  0
SPLINE
  5
202
100
AcDbEntity
  8
Layer_1
 62
5
100
AcDbSpline
 70
8
 71
3
 72
8
 73
4
 74
0
 40
0
 40
0
 40
0
 40
0
 40
1
 40
1
 40
1
 40
1
 10
173.409600
 20
345.691697
 30
0.0
 10
166.647770
 20
349.419851
 30
0.0
 10
164.766170
 20
360.462152
 30
0.0
 10
166.585790
 20
362.540120
 30
0.0
  0
SPLINE
  5
203
100
AcDbEntity
  8
Layer_1
 62
5
100
AcDbSpline
 70
8
 71
3
 72
8
 73
4
 74
0
 40
0
 40
0
 40
0
 40
0
 40
1
 40
1
 40
1
 40
1
 10
166.585790
 20
362.540120
 30
0.0
 10
168.405070
 20
364.618604
 30
0.0
 10
170.524850
 20
367.551515
 30
0.0
 10
175.607740
 20
369.172545
 30
0.0
  0
SPLINE
  5
204
100
AcDbEntity
  8
Layer_1
 62
5
100
AcDbSpline
 70
8
 71
3
 72
8
 73
4
 74
0
 40
0
 40
0
 40
0
 40
0
 40
1
 40
1
 40
1
 40
1
 10
175.607740
 20
369.172545
 30
0.0
 10
179.798220
 20
370.200904
 30
0.0
 10
188.037200
 20
364.100423
 30
0.0
 10
188.037200
 20
364.100423
 30
0.0
  0
SPLINE
  5
205
100
AcDbEntity
  8
Layer_1
 62
5
100
AcDbSpline
 70
8
 71
3
 72
8
 73
4
 74
0
 40
0
 40
0
 40
0
 40
0
 40
1
 40
1
 40
1
 40
1
 10
86.382262
 20
327.921577
 30
0.0
 10
86.409822
 20
327.469393
 30
0.0
 10
87.056030
 20
321.815857
 30
0.0
 10
87.172868
 20
320.722805
 30
0.0
  0
SPLINE
  5
206
100
AcDbEntity
  8
Layer_1
 62
5
100
AcDbSpline
 70
8
 71
3
 72
8
 73
4
 74
0
 40
0
 40
0
 40
0
 40
0
 40
1
 40
1
 40
1
 40
1
 10
87.172868
 20
320.722805
 30
0.0
 10
87.289536
 20
319.629772
 30
0.0
 10
89.040465
 20
315.436868
 30
0.0
 10
92.518955
 20
314.590952
 30
0.0
  0
SPLINE
  5
207
100
AcDbEntity
  8
Layer_1
 62
5
100
AcDbSpline
 70
8
 71
3
 72
8
 73
4
 74
0
 40
0
 40
0
 40
0
 40
0
 40
1
 40
1
 40
1
 40
1
 10
92.518955
 20
314.590952
 30
0.0
 10
95.997414
 20
313.744733
 30
0.0
 10
104.839620
 20
313.314166
 30
0.0
 10
104.839620
 20
313.314166
 30
0.0
  0
LINE
  5
208
100
AcDbEntity
  8
Layer_1
 62
5
100
AcDbLine
 10
104.839620
 20
313.314166
 30
0.0
 11
104.839620
 21
313.314166
 31
0.0
  0
LINE
  5
209
100
AcDbEntity
  8
Layer_1
 62
5
100
AcDbLine
 10
104.839620
 20
313.314166
 30
0.0
 11
104.839620
 21
313.314166
 31
0.0
  0
LINE
  5
20a
100
AcDbEntity
  8
Layer_1
 62
5
100
AcDbLine
 10
104.839620
 20
313.314166
 30
0.0
 11
104.839620
 21
313.314166
 31
0.0
  0
SPLINE
  5
20b
100
AcDbEntity
  8
Layer_1
 62
5
100
AcDbSpline
 70
8
 71
3
 72
8
 73
4
 74
0
 40
0
 40
0
 40
0
 40
0
 40
1
 40
1
 40
1
 40
1
 10
120.965120
 20
380.231958
 30
0.0
 10
120.965120
 20
380.231958
 30
0.0
 10
133.235810
 20
376.100206
 30
0.0
 10
140.839830
 20
372.444267
 30
0.0
  0
SPLINE
  5
20c
100
AcDbEntity
  8
Layer_1
 62
5
100
AcDbSpline
 70
8
 71
3
 72
8
 73
4
 74
0
 40
0
 40
0
 40
0
 40
0
 40
1
 40
1
 40
1
 40
1
 10
140.839830
 20
372.444267
 30
0.0
 10
148.443940
 20
368.788219
 30
0.0
 10
145.487080
 20
354.626163
 30
0.0
 10
150.817930
 20
350.964498
 30
0.0
  0
SPLINE
  5
20d
100
AcDbEntity
  8
Layer_1
 62
5
100
AcDbSpline
 70
8
 71
3
 72
8
 73
4
 74
0
 40
0
 40
0
 40
0
 40
0
 40
1
 40
1
 40
1
 40
1
 10
150.817930
 20
350.964498
 30
0.0
 10
156.148700
 20
347.302925
 30
0.0
 10
163.151090
 20
332.394215
 30
0.0
 10
170.216750
 20
341.122267
 30
0.0
  0
SPLINE
  5
20e
100
AcDbEntity
  8
Layer_1
 62
5
100
AcDbSpline
 70
8
 71
3
 72
8
 73
4
 74
0
 40
0
 40
0
 40
0
 40
0
 40
1
 40
1
 40
1
 40
1
 10
170.216750
 20
341.122267
 30
0.0
 10
171.431190
 20
342.621990
 30
0.0
 10
172.423160
 20
344.181371
 30
0.0
 10
173.261620
 20
345.743422
 30
0.0
  0
SPLINE
  5
20f
100
AcDbEntity
  8
Layer_1
 62
5
100
AcDbSpline
 70
8
 71
3
 72
8
 73
4
 74
0
 40
0
 40
0
 40
0
 40
0
 40
1
 40
1
 40
1
 40
1
 10
176.576420
 20
353.561941
 30
0.0
 10
178.151400
 20
357.894998
 30
0.0
 10
179.372080
 20
361.309007
 30
0.0
 10
182.245400
 20
362.111942
 30
0.0
  0
SPLINE
  5
210
100
AcDbEntity
  8
Layer_1
 62
5
100
AcDbSpline
 70
8
 71
3
 72
8
 73
4
 74
0
 40
0
 40
0
 40
0
 40
0
 40
1
 40
1
 40
1
 40
1
 10
187.891390
 20
364.259988
 30
0.0
 10
192.942910
 20
366.490071
 30
0.0
 10
198.315540
 20
369.401477
 30
0.0
 10
198.315540
 20
369.401477
 30
0.0
  0
SPLINE
  5
211
100
AcDbEntity
  8
Layer_1
 62
5
100
AcDbSpline
 70
8
 71
3
 72
8
 73
4
 74
0
 40
0
 40
0
 40
0
 40
0
 40
1
 40
1
 40
1
 40
1
 10
120.964790
 20
380.231983
 30
0.0
 10
120.964790
 20
380.231983
 30
0.0
 10
116.790710
 20
368.004114
 30
0.0
 10
113.106150
 20
360.430973
 30
0.0
  0
SPLINE
  5
212
100
AcDbEntity
  8
Layer_1
 62
5
100
AcDbSpline
 70
8
 71
3
 72
8
 73
4
 74
0
 40
0
 40
0
 40
0
 40
0
 40
1
 40
1
 40
1
 40
1
 10
113.106150
 20
360.430973
 30
0.0
 10
109.421630
 20
352.857726
 30
0.0
 10
95.237167
 20
355.864051
 30
0.0
 10
91.553095
 20
350.559361
 30
0.0
  0
SPLINE
  5
213
100
AcDbEntity
  8
Layer_1
 62
5
100
AcDbSpline
 70
8
 71
3
 72
8
 73
4
 74
0
 40
0
 40
0
 40
0
 40
0
 40
1
 40
1
 40
1
 40
1
 10
91.553095
 20
350.559361
 30
0.0
 10
87.869218
 20
345.254436
 30
0.0
 10
72.909367
 20
338.326217
 30
0.0
 10
81.637059
 20
331.241240
 30
0.0
  0
SPLINE
  5
214
100
AcDbEntity
  8
Layer_1
 62
5
100
AcDbSpline
 70
8
 71
3
 72
8
 73
4
 74
0
 40
0
 40
0
 40
0
 40
0
 40
1
 40
1
 40
1
 40
1
 10
81.637059
 20
331.241240
 30
0.0
 10
85.810323
 20
327.853465
 30
0.0
 10
90.233142
 20
327.170545
 30
0.0
 10
94.323754
 20
324.759010
 30
0.0
  0
SPLINE
  5
215
100
AcDbEntity
  8
Layer_1
 62
5
100
AcDbSpline
 70
8
 71
3
 72
8
 73
4
 74
0
 40
0
 40
0
 40
0
 40
0
 40
1
 40
1
 40
1
 40
1
 10
102.639060
 20
319.155439
 30
0.0
 10
104.138020
 20
313.755303
 30
0.0
 10
109.900570
 20
303.091323
 30
0.0
 10
109.900570
 20
303.091323
 30
0.0
  0
SPLINE
  5
216
100
AcDbEntity
  8
Layer_1
 62
5
100
AcDbSpline
 70
8
 71
3
 72
8
 73
4
 74
0
 40
0
 40
0
 40
0
 40
0
 40
1
 40
1
 40
1
 40
1
 10
175.416840
 20
301.810105
 30
0.0
 10
182.243270
 20
296.236160
 30
0.0
 10
187.509000
 20
292.224217
 30
0.0
 10
187.509000
 20
292.224217
 30
0.0
  0
LINE
  5
217
100
AcDbEntity
  8
Layer_1
 62
5
100
AcDbLine
 10
187.509000
 20
292.224217
 30
0.0
 11
187.509000
 21
292.224217
 31
0.0
  0
LINE
  5
218
100
AcDbEntity
  8
Layer_1
 62
5
100
AcDbLine
 10
198.315220
 20
369.401513
 30
0.0
 11
186.667670
 21
328.777529
 31
0.0
  0
SPLINE
  5
219
100
AcDbEntity
  8
Layer_1
 62
5
100
AcDbSpline
 70
8
 71
3
 72
8
 73
4
 74
0
 40
0
 40
0
 40
0
 40
0
 40
1
 40
1
 40
1
 40
1
 10
186.667670
 20
328.777529
 30
0.0
 10
186.667670
 20
328.777529
 30
0.0
 10
166.161570
 20
314.481391
 30
0.0
 10
160.638630
 20
321.408979
 30
0.0
  0
SPLINE
  5
21a
100
AcDbEntity
  8
Layer_1
 62
5
100
AcDbSpline
 70
8
 71
3
 72
8
 73
4
 74
0
 40
0
 40
0
 40
0
 40
0
 40
1
 40
1
 40
1
 40
1
 10
160.638630
 20
321.408979
 30
0.0
 10
155.115930
 20
328.336693
 30
0.0
 10
143.389210
 20
341.963423
 30
0.0
 10
145.009160
 20
332.666971
 30
0.0
  0
SPLINE
  5
21b
100
AcDbEntity
  8
Layer_1
 62
5
100
AcDbSpline
 70
8
 71
3
 72
8
 73
4
 74
0
 40
0
 40
0
 40
0
 40
0
 40
1
 40
1
 40
1
 40
1
 10
145.009160
 20
332.666971
 30
0.0
 10
145.715120
 20
328.616656
 30
0.0
 10
158.066750
 20
316.781700
 30
0.0
 10
167.049680
 20
308.818950
 30
0.0
  0
LINE
  5
21c
100
AcDbEntity
  8
Layer_1
 62
5
100
AcDbLine
 10
110.158570
 20
303.054679
 30
0.0
 11
150.877300
 21
291.407097
 31
0.0
  0
SPLINE
  5
21d
100
AcDbEntity
  8
Layer_1
 62
5
100
AcDbSpline
 70
8
 71
3
 72
8
 73
4
 74
0
 40
0
 40
0
 40
0
 40
0
 40
1
 40
1
 40
1
 40
1
 10
150.877300
 20
291.407097
 30
0.0
 10
150.877300
 20
291.407097
 30
0.0
 10
165.216850
 20
270.936314
 30
0.0
 10
158.277750
 20
265.429738
 30
0.0
  0
SPLINE
  5
21e
100
AcDbEntity
  8
Layer_1
 62
5
100
AcDbSpline
 70
8
 71
3
 72
8
 73
4
 74
0
 40
0
 40
0
 40
0
 40
0
 40
1
 40
1
 40
1
 40
1
 10
158.277750
 20
265.429738
 30
0.0
 10
151.338530
 20
259.923060
 30
0.0
 10
137.689620
 20
248.229836
 30
0.0
 10
147.005180
 20
249.840647
 30
0.0
  0
SPLINE
  5
21f
100
AcDbEntity
  8
Layer_1
 62
5
100
AcDbSpline
 70
8
 71
3
 72
8
 73
4
 74
0
 40
0
 40
0
 40
0
 40
0
 40
1
 40
1
 40
1
 40
1
 10
147.005180
 20
249.840647
 30
0.0
 10
151.029470
 20
250.536638
 30
0.0
 10
160.781480
 20
261.112546
 30
0.0
 10
167.046340
 20
267.409766
 30
0.0
  0
SPLINE
  5
220
100
AcDbEntity
  8
Layer_1
 62
5
100
AcDbSpline
 70
8
 71
3
 72
8
 73
4
 74
0
 40
0
 40
0
 40
0
 40
0
 40
1
 40
1
 40
1
 40
1
 10
173.110230
 20
274.399428
 30
0.0
 10
174.017400
 20
275.471258
 30
0.0
 10
174.939150
 20
276.510285
 30
0.0
 10
175.801050
 20
277.547416
 30
0.0
  0
SPLINE
  5
221
100
AcDbEntity
  8
Layer_1
 62
5
100
AcDbSpline
 70
8
 71
3
 72
8
 73
4
 74
0
 40
0
 40
0
 40
0
 40
0
 40
1
 40
1
 40
1
 40
1
 10
181.569580
 20
284.677289
 30
0.0
 10
185.164720
 20
289.159457
 30
0.0
 10
187.509010
 20
292.224203
 30
0.0
 10
187.509010
 20
292.224203
 30
0.0
  0
LINE
  5
222
100
AcDbEntity
  8
Layer_1
 62
5
100
AcDbLine
 10
187.509010
 20
292.224203
 30
0.0
 11
187.509010
 21
292.224203
 31
0.0
  0
SPLINE
  5
223
100
AcDbEntity
  8
Layer_1
 62
5
100
AcDbSpline
 70
8
 71
3
 72
8
 73
4
 74
0
 40
0
 40
0
 40
0
 40
0
 40
1
 40
1
 40
1
 40
1
 10
175.585920
 20
301.907156
 30
0.0
 10
175.666520
 20
302.482644
 30
0.0
 10
181.477990
 20
307.885287
 30
0.0
 10
180.901760
 20
307.965712
 30
0.0
  0
SPLINE
  5
224
100
AcDbEntity
  8
Layer_1
 62
5
100
AcDbSpline
 70
8
 71
3
 72
8
 73
4
 74
0
 40
0
 40
0
 40
0
 40
0
 40
1
 40
1
 40
1
 40
1
 10
180.901760
 20
307.965712
 30
0.0
 10
180.325290
 20
308.046422
 30
0.0
 10
172.499450
 20
315.124382
 30
0.0
 10
172.499450
 20
315.124382
 30
0.0
  0
LINE
  5
225
100
AcDbEntity
  8
Layer_1
 62
5
100
AcDbLine
 10
172.499450
 20
315.124382
 30
0.0
 11
166.741170
 21
308.423738
 31
0.0
  0
LINE
  5
226
100
AcDbEntity
  8
Layer_1
 62
5
100
AcDbLine
 10
166.741170
 20
308.423738
 30
0.0
 11
166.741170
 21
308.423738
 31
0.0
  0
LINE
  5
227
100
AcDbEntity
  8
Layer_1
 62
5
100
AcDbLine
 10
175.417160
 20
301.809782
 30
0.0
 11
172.811820
 21
303.970607
 31
0.0
  0
LINE
  5
228
100
AcDbEntity
  8
Layer_1
 62
5
100
AcDbLine
 10
169.655340
 20
306.657700
 30
0.0
 11
167.050020
 21
308.818639
 31
0.0
  0
SPLINE
  5
229
100
AcDbEntity
  8
Layer_1
 62
5
100
AcDbSpline
 70
8
 71
3
 72
8
 73
4
 74
0
 40
0
 40
0
 40
0
 40
0
 40
1
 40
1
 40
1
 40
1
 10
166.992820
 20
267.134871
 30
0.0
 10
167.197120
 20
267.106171
 30
0.0
 10
179.079490
 20
268.262561
 30
0.0
 10
180.503460
 20
268.934105
 30
0.0
  0
SPLINE
  5
22a
100
AcDbEntity
  8
Layer_1
 62
5
100
AcDbSpline
 70
8
 71
3
 72
8
 73
4
 74
0
 40
0
 40
0
 40
0
 40
0
 40
1
 40
1
 40
1
 40
1
 10
180.503460
 20
268.934105
 30
0.0
 10
181.927510
 20
269.605522
 30
0.0
 10
181.822450
 20
284.881465
 30
0.0
 10
181.822450
 20
284.881465
 30
0.0
  0
LINE
  5
22b
100
AcDbEntity
  8
Layer_1
 62
5
100
AcDbLine
 10
181.822450
 20
284.881465
 30
0.0
 11
181.822450
 21
284.881465
 31
0.0
  0
LINE
  5
22c
100
AcDbEntity
  8
Layer_1
 62
5
100
AcDbLine
 10
181.822450
 20
284.881465
 30
0.0
 11
181.822450
 21
284.881465
 31
0.0
  0
SPLINE
  5
22d
100
AcDbEntity
  8
Layer_1
 62
5
100
AcDbSpline
 70
8
 71
3
 72
8
 73
4
 74
0
 40
0
 40
0
 40
0
 40
0
 40
1
 40
1
 40
1
 40
1
 10
571.060550
 20
232.857747
 30
0.0
 10
564.362980
 20
236.700218
 30
0.0
 10
562.669230
 20
247.772873
 30
0.0
 10
564.523890
 20
249.819620
 30
0.0
  0
SPLINE
  5
22e
100
AcDbEntity
  8
Layer_1
 62
5
100
AcDbSpline
 70
8
 71
3
 72
8
 73
4
 74
0
 40
0
 40
0
 40
0
 40
0
 40
1
 40
1
 40
1
 40
1
 10
564.523890
 20
249.819620
 30
0.0
 10
566.378880
 20
251.866182
 30
0.0
 10
568.547460
 20
254.763309
 30
0.0
 10
573.657110
 20
256.297857
 30
0.0
  0
SPLINE
  5
22f
100
AcDbEntity
  8
Layer_1
 62
5
100
AcDbSpline
 70
8
 71
3
 72
8
 73
4
 74
0
 40
0
 40
0
 40
0
 40
0
 40
1
 40
1
 40
1
 40
1
 10
573.657110
 20
256.297857
 30
0.0
 10
577.864530
 20
257.254888
 30
0.0
 10
585.998680
 20
251.015205
 30
0.0
 10
585.998680
 20
251.015205
 30
0.0
  0
SPLINE
  5
230
100
AcDbEntity
  8
Layer_1
 62
5
100
AcDbSpline
 70
8
 71
3
 72
8
 73
4
 74
0
 40
0
 40
0
 40
0
 40
0
 40
1
 40
1
 40
1
 40
1
 10
483.744070
 20
216.568680
 30
0.0
 10
483.763970
 20
216.115983
 30
0.0
 10
484.314010
 20
210.452290
 30
0.0
 10
484.412180
 20
209.357534
 30
0.0
  0
SPLINE
  5
231
100
AcDbEntity
  8
Layer_1
 62
5
100
AcDbSpline
 70
8
 71
3
 72
8
 73
4
 74
0
 40
0
 40
0
 40
0
 40
0
 40
1
 40
1
 40
1
 40
1
 10
484.412180
 20
209.357534
 30
0.0
 10
484.510380
 20
208.262654
 30
0.0
 10
486.189690
 20
204.040558
 30
0.0
 10
489.653310
 20
203.135594
 30
0.0
  0
SPLINE
  5
232
100
AcDbEntity
  8
Layer_1
 62
5
100
AcDbSpline
 70
8
 71
3
 72
8
 73
4
 74
0
 40
0
 40
0
 40
0
 40
0
 40
1
 40
1
 40
1
 40
1
 10
489.653310
 20
203.135594
 30
0.0
 10
493.116890
 20
202.230500
 30
0.0
 10
501.950540
 20
201.649813
 30
0.0
 10
501.950540
 20
201.649813
 30
0.0
  0
LINE
  5
233
100
AcDbEntity
  8
Layer_1
 62
5
100
AcDbLine
 10
501.950540
 20
201.649813
 30
0.0
 11
501.950540
 21
201.649813
 31
0.0
  0
LINE
  5
234
100
AcDbEntity
  8
Layer_1
 62
5
100
AcDbLine
 10
501.950540
 20
201.649813
 30
0.0
 11
501.950540
 21
201.649813
 31
0.0
  0
LINE
  5
235
100
AcDbEntity
  8
Layer_1
 62
5
100
AcDbLine
 10
501.950540
 20
201.649813
 30
0.0
 11
501.950540
 21
201.649813
 31
0.0
  0
SPLINE
  5
236
100
AcDbEntity
  8
Layer_1
 62
5
100
AcDbSpline
 70
8
 71
3
 72
8
 73
4
 74
0
 40
0
 40
0
 40
0
 40
0
 40
1
 40
1
 40
1
 40
1
 10
519.210340
 20
268.283932
 30
0.0
 10
519.210340
 20
268.283932
 30
0.0
 10
531.409090
 20
263.944354
 30
0.0
 10
538.949880
 20
260.159679
 30
0.0
  0
SPLINE
  5
237
100
AcDbEntity
  8
Layer_1
 62
5
100
AcDbSpline
 70
8
 71
3
 72
8
 73
4
 74
0
 40
0
 40
0
 40
0
 40
0
 40
1
 40
1
 40
1
 40
1
 10
538.949880
 20
260.159679
 30
0.0
 10
546.490790
 20
256.374998
 30
0.0
 10
543.293870
 20
242.265155
 30
0.0
 10
548.561570
 20
238.513572
 30
0.0
  0
SPLINE
  5
238
100
AcDbEntity
  8
Layer_1
 62
5
100
AcDbSpline
 70
8
 71
3
 72
8
 73
4
 74
0
 40
0
 40
0
 40
0
 40
0
 40
1
 40
1
 40
1
 40
1
 10
548.561570
 20
238.513572
 30
0.0
 10
553.829470
 20
234.761979
 30
0.0
 10
560.577640
 20
219.736452
 30
0.0
 10
567.790420
 20
228.343238
 30
0.0
  0
SPLINE
  5
239
100
AcDbEntity
  8
Layer_1
 62
5
100
AcDbSpline
 70
8
 71
3
 72
8
 73
4
 74
0
 40
0
 40
0
 40
0
 40
0
 40
1
 40
1
 40
1
 40
1
 10
567.790420
 20
228.343238
 30
0.0
 10
569.030190
 20
229.822161
 30
0.0
 10
570.048600
 20
231.364389
 30
0.0
 10
570.913390
 20
232.911986
 30
0.0
  0
SPLINE
  5
23a
100
AcDbEntity
  8
Layer_1
 62
5
100
AcDbSpline
 70
8
 71
3
 72
8
 73
4
 74
0
 40
0
 40
0
 40
0
 40
0
 40
1
 40
1
 40
1
 40
1
 10
574.360500
 20
240.673030
 30
0.0
 10
576.008940
 20
244.978698
 30
0.0
 10
577.287330
 20
248.371398
 30
0.0
 10
580.173970
 20
249.125497
 30
0.0
  0
SPLINE
  5
23b
100
AcDbEntity
  8
Layer_1
 62
5
100
AcDbSpline
 70
8
 71
3
 72
8
 73
4
 74
0
 40
0
 40
0
 40
0
 40
0
 40
1
 40
1
 40
1
 40
1
 10
585.855670
 20
251.177433
 30
0.0
 10
590.944340
 20
253.321364
 30
0.0
 10
596.365670
 20
256.141104
 30
0.0
 10
596.365670
 20
256.141104
 30
0.0
  0
SPLINE
  5
23c
100
AcDbEntity
  8
Layer_1
 62
5
100
AcDbSpline
 70
8
 71
3
 72
8
 73
4
 74
0
 40
0
 40
0
 40
0
 40
0
 40
1
 40
1
 40
1
 40
1
 10
519.210020
 20
268.283983
 30
0.0
 10
519.210020
 20
268.283983
 30
0.0
 10
514.828810
 20
256.128726
 30
0.0
 10
511.016090
 20
248.619312
 30
0.0
  0
SPLINE
  5
23d
100
AcDbEntity
  8
Layer_1
 62
5
100
AcDbSpline
 70
8
 71
3
 72
8
 73
4
 74
0
 40
0
 40
0
 40
0
 40
0
 40
1
 40
1
 40
1
 40
1
 10
511.016090
 20
248.619312
 30
0.0
 10
507.203570
 20
241.109769
 30
0.0
 10
493.072250
 20
244.356737
 30
0.0
 10
489.298700
 20
239.115268
 30
0.0
  0
SPLINE
  5
23e
100
AcDbEntity
  8
Layer_1
 62
5
100
AcDbSpline
 70
8
 71
3
 72
8
 73
4
 74
0
 40
0
 40
0
 40
0
 40
0
 40
1
 40
1
 40
1
 40
1
 10
489.298700
 20
239.115268
 30
0.0
 10
485.525110
 20
233.873696
 30
0.0
 10
470.449730
 20
227.200486
 30
0.0
 10
479.055810
 20
219.968292
 30
0.0
  0
SPLINE
  5
23f
100
AcDbEntity
  8
Layer_1
 62
5
100
AcDbSpline
 70
8
 71
3
 72
8
 73
4
 74
0
 40
0
 40
0
 40
0
 40
0
 40
1
 40
1
 40
1
 40
1
 10
479.055810
 20
219.968292
 30
0.0
 10
483.170910
 20
216.510188
 30
0.0
 10
487.581400
 20
215.752274
 30
0.0
 10
491.630590
 20
213.271688
 30
0.0
  0
SPLINE
  5
240
100
AcDbEntity
  8
Layer_1
 62
5
100
AcDbSpline
 70
8
 71
3
 72
8
 73
4
 74
0
 40
0
 40
0
 40
0
 40
0
 40
1
 40
1
 40
1
 40
1
 10
499.849400
 20
207.527590
 30
0.0
 10
501.256540
 20
202.102910
 30
0.0
 10
506.837080
 20
191.342400
 30
0.0
 10
506.837080
 20
191.342400
 30
0.0
  0
SPLINE
  5
241
100
AcDbEntity
  8
Layer_1
 62
5
100
AcDbSpline
 70
8
 71
3
 72
8
 73
4
 74
0
 40
0
 40
0
 40
0
 40
0
 40
1
 40
1
 40
1
 40
1
 10
572.322020
 20
188.948440
 30
0.0
 10
579.052870
 20
183.259460
 30
0.0
 10
584.249730
 20
179.158560
 30
0.0
 10
584.249730
 20
179.158560
 30
0.0
  0
LINE
  5
242
100
AcDbEntity
  8
Layer_1
 62
5
100
AcDbLine
 10
584.249730
 20
179.158560
 30
0.0
 11
584.249730
 21
179.158560
 31
0.0
  0
LINE
  5
243
100
AcDbEntity
  8
Layer_1
 62
5
100
AcDbLine
 10
596.365370
 20
256.141172
 30
0.0
 11
584.029400
 21
215.720756
 31
0.0
  0
SPLINE
  5
244
100
AcDbEntity
  8
Layer_1
 62
5
100
AcDbSpline
 70
8
 71
3
 72
8
 73
4
 74
0
 40
0
 40
0
 40
0
 40
0
 40
1
 40
1
 40
1
 40
1
 10
584.029400
 20
215.720756
 30
0.0
 10
584.029400
 20
215.720756
 30
0.0
 10
563.283380
 20
201.775210
 30
0.0
 10
557.879010
 20
208.795631
 30
0.0
  0
SPLINE
  5
245
100
AcDbEntity
  8
Layer_1
 62
5
100
AcDbSpline
 70
8
 71
3
 72
8
 73
4
 74
0
 40
0
 40
0
 40
0
 40
0
 40
1
 40
1
 40
1
 40
1
 10
557.879010
 20
208.795631
 30
0.0
 10
552.474730
 20
215.815976
 30
0.0
 10
540.981080
 20
229.640048
 30
0.0
 10
542.443000
 20
220.317448
 30
0.0
  0
SPLINE
  5
246
100
AcDbEntity
  8
Layer_1
 62
5
100
AcDbSpline
 70
8
 71
3
 72
8
 73
4
 74
0
 40
0
 40
0
 40
0
 40
0
 40
1
 40
1
 40
1
 40
1
 10
542.443000
 20
220.317448
 30
0.0
 10
543.079980
 20
216.255639
 30
0.0
 10
555.228900
 20
204.212668
 30
0.0
 10
564.075250
 20
196.098400
 30
0.0
  0
LINE
  5
247
100
AcDbEntity
  8
Layer_1
 62
5
100
AcDbLine
 10
507.094440
 20
191.301390
 30
0.0
 11
547.609480
 21
178.963880
 31
0.0
  0
SPLINE
  5
248
100
AcDbEntity
  8
Layer_1
 62
5
100
AcDbSpline
 70
8
 71
3
 72
8
 73
4
 74
0
 40
0
 40
0
 40
0
 40
0
 40
1
 40
1
 40
1
 40
1
 10
547.609480
 20
178.963880
 30
0.0
 10
547.609480
 20
178.963880
 30
0.0
 10
561.599230
 20
158.252480
 30
0.0
 10
554.567550
 20
152.864470
 30
0.0
  0
SPLINE
  5
249
100
AcDbEntity
  8
Layer_1
 62
5
100
AcDbSpline
 70
8
 71
3
 72
8
 73
4
 74
0
 40
0
 40
0
 40
0
 40
0
 40
1
 40
1
 40
1
 40
1
 10
554.567550
 20
152.864470
 30
0.0
 10
547.535800
 20
147.476600
 30
0.0
 10
533.690330
 20
136.016770
 30
0.0
 10
543.031730
 20
137.469250
 30
0.0
  0
SPLINE
  5
24a
100
AcDbEntity
  8
Layer_1
 62
5
100
AcDbSpline
 70
8
 71
3
 72
8
 73
4
 74
0
 40
0
 40
0
 40
0
 40
0
 40
1
 40
1
 40
1
 40
1
 10
543.031730
 20
137.469250
 30
0.0
 10
547.067260
 20
138.096770
 30
0.0
 10
556.997730
 20
148.505560
 30
0.0
 10
563.368500
 20
154.695270
 30
0.0
  0
SPLINE
  5
24b
100
AcDbEntity
  8
Layer_1
 62
5
100
AcDbSpline
 70
8
 71
3
 72
8
 73
4
 74
0
 40
0
 40
0
 40
0
 40
0
 40
1
 40
1
 40
1
 40
1
 10
569.550270
 20
161.580930
 30
0.0
 10
570.475380
 20
162.637340
 30
0.0
 10
571.414760
 20
163.660550
 30
0.0
 10
572.294240
 20
164.682820
 30
0.0
  0
SPLINE
  5
24c
100
AcDbEntity
  8
Layer_1
 62
5
100
AcDbSpline
 70
8
 71
3
 72
8
 73
4
 74
0
 40
0
 40
0
 40
0
 40
0
 40
1
 40
1
 40
1
 40
1
 10
578.182950
 20
171.713570
 30
0.0
 10
581.853820
 20
176.134000
 30
0.0
 10
584.249830
 20
179.158450
 30
0.0
 10
584.249830
 20
179.158450
 30
0.0
  0
LINE
  5
24d
100
AcDbEntity
  8
Layer_1
 62
5
100
AcDbLine
 10
584.249830
 20
179.158450
 30
0.0
 11
584.249830
 21
179.158450
 31
0.0
  0
SPLINE
  5
24e
100
AcDbEntity
  8
Layer_1
 62
5
100
AcDbSpline
 70
8
 71
3
 72
8
 73
4
 74
0
 40
0
 40
0
 40
0
 40
0
 40
1
 40
1
 40
1
 40
1
 10
572.492960
 20
189.042630
 30
0.0
 10
572.583360
 20
189.616770
 30
0.0
 10
578.485610
 20
194.919810
 30
0.0
 10
577.910160
 20
195.010610
 30
0.0
  0
SPLINE
  5
24f
100
AcDbEntity
  8
Layer_1
 62
5
100
AcDbSpline
 70
8
 71
3
 72
8
 73
4
 74
0
 40
0
 40
0
 40
0
 40
0
 40
1
 40
1
 40
1
 40
1
 10
577.910160
 20
195.010610
 30
0.0
 10
577.335150
 20
195.101110
 30
0.0
 10
569.630660
 20
202.310947
 30
0.0
 10
569.630660
 20
202.310947
 30
0.0
  0
LINE
  5
250
100
AcDbEntity
  8
Layer_1
 62
5
100
AcDbLine
 10
569.630660
 20
202.310947
 30
0.0
 11
563.759520
 21
195.709130
 31
0.0
  0
LINE
  5
251
100
AcDbEntity
  8
Layer_1
 62
5
100
AcDbLine
 10
563.759520
 20
195.709130
 30
0.0
 11
563.759520
 21
195.709130
 31
0.0
  0
LINE
  5
252
100
AcDbEntity
  8
Layer_1
 62
5
100
AcDbLine
 10
572.321790
 20
188.948680
 30
0.0
 11
569.753570
 21
191.153660
 31
0.0
  0
LINE
  5
253
100
AcDbEntity
  8
Layer_1
 62
5
100
AcDbLine
 10
566.643270
 20
193.893760
 30
0.0
 11
564.075090
 21
196.098700
 31
0.0
  0
SPLINE
  5
254
100
AcDbEntity
  8
Layer_1
 62
5
100
AcDbSpline
 70
8
 71
3
 72
8
 73
4
 74
0
 40
0
 40
0
 40
0
 40
0
 40
1
 40
1
 40
1
 40
1
 10
563.309810
 20
154.422150
 30
0.0
 10
563.513620
 20
154.390150
 30
0.0
 10
575.413850
 20
155.344290
 30
0.0
 10
576.849000
 20
155.991520
 30
0.0
  0
SPLINE
  5
255
100
AcDbEntity
  8
Layer_1
 62
5
100
AcDbSpline
 70
8
 71
3
 72
8
 73
4
 74
0
 40
0
 40
0
 40
0
 40
0
 40
1
 40
1
 40
1
 40
1
 10
576.849000
 20
155.991520
 30
0.0
 10
578.284250
 20
156.638550
 30
0.0
 10
578.438710
 20
171.914170
 30
0.0
 10
578.438710
 20
171.914170
 30
0.0
  0
LINE
  5
256
100
AcDbEntity
  8
Layer_1
 62
5
100
AcDbLine
 10
578.438710
 20
171.914170
 30
0.0
 11
578.438710
 21
171.914170
 31
0.0
  0
LINE
  5
257
100
AcDbEntity
  8
Layer_1
 62
5
100
AcDbLine
 10
578.438710
 20
171.914170
 30
0.0
 11
578.438710
 21
171.914170
 31
0.0
  0
SPLINE
  5
258
100
AcDbEntity
  8
Layer_1
 62
5
100
AcDbSpline
 70
8
 71
3
 72
8
 73
4
 74
0
 40
0
 40
0
 40
0
 40
0
 40
1
 40
1
 40
1
 40
1
 10
44.825514
 20
152.000510
 30
0.0
 10
52.546259
 20
152.113660
 30
0.0
 10
59.653117
 20
143.455440
 30
0.0
 10
59.102540
 20
140.748810
 30
0.0
  0
SPLINE
  5
259
100
AcDbEntity
  8
Layer_1
 62
5
100
AcDbSpline
 70
8
 71
3
 72
8
 73
4
 74
0
 40
0
 40
0
 40
0
 40
0
 40
1
 40
1
 40
1
 40
1
 10
59.102540
 20
140.748810
 30
0.0
 10
58.552031
 20
138.042010
 30
0.0
 10
58.164918
 20
134.443940
 30
0.0
 10
54.553556
 20
130.516880
 30
0.0
  0
SPLINE
  5
25a
100
AcDbEntity
  8
Layer_1
 62
5
100
AcDbSpline
 70
8
 71
3
 72
8
 73
4
 74
0
 40
0
 40
0
 40
0
 40
0
 40
1
 40
1
 40
1
 40
1
 10
54.553556
 20
130.516880
 30
0.0
 10
51.423572
 20
127.546870
 30
0.0
 10
41.244197
 20
128.762180
 30
0.0
 10
41.244197
 20
128.762180
 30
0.0
  0
SPLINE
  5
25b
100
AcDbEntity
  8
Layer_1
 62
5
100
AcDbSpline
 70
8
 71
3
 72
8
 73
4
 74
0
 40
0
 40
0
 40
0
 40
0
 40
1
 40
1
 40
1
 40
1
 10
111.606220
 20
210.565695
 30
0.0
 10
111.358200
 20
210.944784
 30
0.0
 10
107.995000
 20
215.534880
 30
0.0
 10
107.351780
 20
216.426352
 30
0.0
  0
SPLINE
  5
25c
100
AcDbEntity
  8
Layer_1
 62
5
100
AcDbSpline
 70
8
 71
3
 72
8
 73
4
 74
0
 40
0
 40
0
 40
0
 40
0
 40
1
 40
1
 40
1
 40
1
 10
107.351780
 20
216.426352
 30
0.0
 10
106.708750
 20
217.317885
 30
0.0
 10
103.109950
 20
220.091855
 30
0.0
 10
99.669493
 20
219.102623
 30
0.0
  0
SPLINE
  5
25d
100
AcDbEntity
  8
Layer_1
 62
5
100
AcDbSpline
 70
8
 71
3
 72
8
 73
4
 74
0
 40
0
 40
0
 40
0
 40
0
 40
1
 40
1
 40
1
 40
1
 10
99.669493
 20
219.102623
 30
0.0
 10
96.228918
 20
218.113671
 30
0.0
 10
88.335646
 20
214.105389
 30
0.0
 10
88.335646
 20
214.105389
 30
0.0
  0
LINE
  5
25e
100
AcDbEntity
  8
Layer_1
 62
5
100
AcDbLine
 10
88.335646
 20
214.105389
 30
0.0
 11
88.335646
 21
214.105389
 31
0.0
  0
LINE
  5
25f
100
AcDbEntity
  8
Layer_1
 62
5
100
AcDbLine
 10
88.335646
 20
214.105389
 30
0.0
 11
88.335646
 21
214.105389
 31
0.0
  0
LINE
  5
260
100
AcDbEntity
  8
Layer_1
 62
5
100
AcDbLine
 10
88.335646
 20
214.105389
 30
0.0
 11
88.335646
 21
214.105389
 31
0.0
  0
SPLINE
  5
261
100
AcDbEntity
  8
Layer_1
 62
5
100
AcDbSpline
 70
8
 71
3
 72
8
 73
4
 74
0
 40
0
 40
0
 40
0
 40
0
 40
1
 40
1
 40
1
 40
1
 10
107.494550
 20
147.992450
 30
0.0
 10
107.494550
 20
147.992450
 30
0.0
 10
94.789160
 20
145.499650
 30
0.0
 10
86.372798
 20
144.906410
 30
0.0
  0
SPLINE
  5
262
100
AcDbEntity
  8
Layer_1
 62
5
100
AcDbSpline
 70
8
 71
3
 72
8
 73
4
 74
0
 40
0
 40
0
 40
0
 40
0
 40
1
 40
1
 40
1
 40
1
 10
86.372798
 20
144.906410
 30
0.0
 10
77.956306
 20
144.313240
 30
0.0
 10
73.505729
 20
158.079040
 30
0.0
 10
67.060852
 20
158.617380
 30
0.0
  0
SPLINE
  5
263
100
AcDbEntity
  8
Layer_1
 62
5
100
AcDbSpline
 70
8
 71
3
 72
8
 73
4
 74
0
 40
0
 40
0
 40
0
 40
0
 40
1
 40
1
 40
1
 40
1
 10
67.060852
 20
158.617380
 30
0.0
 10
60.616098
 20
159.155670
 30
0.0
 10
47.145305
 20
168.634080
 30
0.0
 10
45.334059
 20
157.551660
 30
0.0
  0
SPLINE
  5
264
100
AcDbEntity
  8
Layer_1
 62
5
100
AcDbSpline
 70
8
 71
3
 72
8
 73
4
 74
0
 40
0
 40
0
 40
0
 40
0
 40
1
 40
1
 40
1
 40
1
 10
45.334059
 20
157.551660
 30
0.0
 10
45.022460
 20
155.647220
 30
0.0
 10
44.933774
 20
153.801190
 30
0.0
 10
44.979655
 20
152.028930
 30
0.0
  0
SPLINE
  5
265
100
AcDbEntity
  8
Layer_1
 62
5
100
AcDbSpline
 70
8
 71
3
 72
8
 73
4
 74
0
 40
0
 40
0
 40
0
 40
0
 40
1
 40
1
 40
1
 40
1
 10
45.975499
 20
143.595370
 30
0.0
 10
46.755043
 20
139.051320
 30
0.0
 10
47.386798
 20
135.481120
 30
0.0
 10
45.289147
 20
133.359730
 30
0.0
  0
SPLINE
  5
266
100
AcDbEntity
  8
Layer_1
 62
5
100
AcDbSpline
 70
8
 71
3
 72
8
 73
4
 74
0
 40
0
 40
0
 40
0
 40
0
 40
1
 40
1
 40
1
 40
1
 10
41.449887
 20
128.695860
 30
0.0
 10
38.167628
 20
124.255360
 30
0.0
 10
34.944162
 20
119.063940
 30
0.0
 10
34.944162
 20
119.063940
 30
0.0
  0
SPLINE
  5
267
100
AcDbEntity
  8
Layer_1
 62
5
100
AcDbSpline
 70
8
 71
3
 72
8
 73
4
 74
0
 40
0
 40
0
 40
0
 40
0
 40
1
 40
1
 40
1
 40
1
 10
107.494850
 20
147.992570
 30
0.0
 10
107.494850
 20
147.992570
 30
0.0
 10
105.060070
 20
160.681670
 30
0.0
 10
104.506980
 20
169.085350
 30
0.0
  0
SPLINE
  5
268
100
AcDbEntity
  8
Layer_1
 62
5
100
AcDbSpline
 70
8
 71
3
 72
8
 73
4
 74
0
 40
0
 40
0
 40
0
 40
0
 40
1
 40
1
 40
1
 40
1
 10
104.506980
 20
169.085350
 30
0.0
 10
103.953850
 20
177.489140
 30
0.0
 10
117.763680
 20
181.907860
 30
0.0
 10
118.334450
 20
188.341070
 30
0.0
  0
SPLINE
  5
269
100
AcDbEntity
  8
Layer_1
 62
5
100
AcDbSpline
 70
8
 71
3
 72
8
 73
4
 74
0
 40
0
 40
0
 40
0
 40
0
 40
1
 40
1
 40
1
 40
1
 10
118.334450
 20
188.341070
 30
0.0
 10
118.904950
 20
194.774370
 30
0.0
 10
128.464660
 20
208.205986
 30
0.0
 10
117.372910
 20
210.034154
 30
0.0
  0
SPLINE
  5
26a
100
AcDbEntity
  8
Layer_1
 62
5
100
AcDbSpline
 70
8
 71
3
 72
8
 73
4
 74
0
 40
0
 40
0
 40
0
 40
0
 40
1
 40
1
 40
1
 40
1
 10
117.372910
 20
210.034154
 30
0.0
 10
112.069240
 20
210.908328
 30
0.0
 10
107.889320
 20
209.309497
 30
0.0
 10
103.141270
 20
209.376701
 30
0.0
  0
SPLINE
  5
26b
100
AcDbEntity
  8
Layer_1
 62
5
100
AcDbSpline
 70
8
 71
3
 72
8
 73
4
 74
0
 40
0
 40
0
 40
0
 40
0
 40
1
 40
1
 40
1
 40
1
 10
93.141874
 20
210.122572
 30
0.0
 10
89.163639
 20
214.069950
 30
0.0
 10
78.873475
 20
220.476193
 30
0.0
 10
78.873475
 20
220.476193
 30
0.0
  0
SPLINE
  5
26c
100
AcDbEntity
  8
Layer_1
 62
5
100
AcDbSpline
 70
8
 71
3
 72
8
 73
4
 74
0
 40
0
 40
0
 40
0
 40
0
 40
1
 40
1
 40
1
 40
1
 10
21.334260
 20
189.118780
 30
0.0
 10
12.642699
 20
190.576820
 30
0.0
 10
6.080811
 20
191.451670
 30
0.0
 10
6.080811
 20
191.451670
 30
0.0
  0
LINE
  5
26d
100
AcDbEntity
  8
Layer_1
 62
5
100
AcDbLine
 10
6.080811
 20
191.451670
 30
0.0
 11
6.080811
 21
191.451670
 31
0.0
  0
LINE
  5
26e
100
AcDbEntity
  8
Layer_1
 62
5
100
AcDbLine
 10
34.944443
 20
119.064080
 30
0.0
 11
24.927527
 21
160.120470
 31
0.0
  0
SPLINE
  5
26f
100
AcDbEntity
  8
Layer_1
 62
5
100
AcDbSpline
 70
8
 71
3
 72
8
 73
4
 74
0
 40
0
 40
0
 40
0
 40
0
 40
1
 40
1
 40
1
 40
1
 10
24.927527
 20
160.120470
 30
0.0
 10
24.927527
 20
160.120470
 30
0.0
 10
35.652852
 20
182.700120
 30
0.0
 10
43.883159
 20
179.420400
 30
0.0
  0
SPLINE
  5
270
100
AcDbEntity
  8
Layer_1
 62
5
100
AcDbSpline
 70
8
 71
3
 72
8
 73
4
 74
0
 40
0
 40
0
 40
0
 40
0
 40
1
 40
1
 40
1
 40
1
 10
43.883159
 20
179.420400
 30
0.0
 10
52.113347
 20
176.140430
 30
0.0
 10
69.052119
 20
170.116860
 30
0.0
 10
63.037748
 20
177.388350
 30
0.0
  0
SPLINE
  5
271
100
AcDbEntity
  8
Layer_1
 62
5
100
AcDbSpline
 70
8
 71
3
 72
8
 73
4
 74
0
 40
0
 40
0
 40
0
 40
0
 40
1
 40
1
 40
1
 40
1
 10
63.037748
 20
177.388350
 30
0.0
 10
60.417222
 20
180.556350
 30
0.0
 10
43.823683
 20
184.714040
 30
0.0
 10
32.075157
 20
187.178080
 30
0.0
  0
LINE
  5
272
100
AcDbEntity
  8
Layer_1
 62
5
100
AcDbLine
 10
78.631233
 20
220.380164
 30
0.0
 11
37.492304
 21
210.316237
 31
0.0
  0
SPLINE
  5
273
100
AcDbEntity
  8
Layer_1
 62
5
100
AcDbSpline
 70
8
 71
3
 72
8
 73
4
 74
0
 40
0
 40
0
 40
0
 40
0
 40
1
 40
1
 40
1
 40
1
 10
37.492304
 20
210.316237
 30
0.0
 10
37.492304
 20
210.316237
 30
0.0
 10
14.892256
 20
220.989326
 30
0.0
 10
18.190123
 20
229.211114
 30
0.0
  0
SPLINE
  5
274
100
AcDbEntity
  8
Layer_1
 62
5
100
AcDbSpline
 70
8
 71
3
 72
8
 73
4
 74
0
 40
0
 40
0
 40
0
 40
0
 40
1
 40
1
 40
1
 40
1
 10
18.190123
 20
229.211114
 30
0.0
 10
21.488068
 20
237.433048
 30
0.0
 10
27.547652
 20
254.353658
 30
0.0
 10
20.254913
 20
248.337731
 30
0.0
  0
SPLINE
  5
275
100
AcDbEntity
  8
Layer_1
 62
5
100
AcDbSpline
 70
8
 71
3
 72
8
 73
4
 74
0
 40
0
 40
0
 40
0
 40
0
 40
1
 40
1
 40
1
 40
1
 10
20.254913
 20
248.337731
 30
0.0
 10
17.104550
 20
245.738768
 30
0.0
 10
13.875881
 20
231.719938
 30
0.0
 10
11.555496
 20
223.145613
 30
0.0
  0
SPLINE
  5
276
100
AcDbEntity
  8
Layer_1
 62
5
100
AcDbSpline
 70
8
 71
3
 72
8
 73
4
 74
0
 40
0
 40
0
 40
0
 40
0
 40
1
 40
1
 40
1
 40
1
 10
9.752815
 20
214.069457
 30
0.0
 10
9.496188
 20
212.688913
 30
0.0
 10
9.210516
 20
211.329644
 30
0.0
 10
8.975879
 20
210.001694
 30
0.0
  0
SPLINE
  5
277
100
AcDbEntity
  8
Layer_1
 62
5
100
AcDbSpline
 70
8
 71
3
 72
8
 73
4
 74
0
 40
0
 40
0
 40
0
 40
0
 40
1
 40
1
 40
1
 40
1
 10
7.499239
 20
200.950148
 30
0.0
 10
6.598047
 20
195.275390
 30
0.0
 10
6.080821
 20
191.451670
 30
0.0
 10
6.080821
 20
191.451670
 30
0.0
  0
LINE
  5
278
100
AcDbEntity
  8
Layer_1
 62
5
100
AcDbLine
 10
6.080821
 20
191.451670
 30
0.0
 11
6.080821
 21
191.451670
 31
0.0
  0
SPLINE
  5
279
100
AcDbEntity
  8
Layer_1
 62
5
100
AcDbSpline
 70
8
 71
3
 72
8
 73
4
 74
0
 40
0
 40
0
 40
0
 40
0
 40
1
 40
1
 40
1
 40
1
 10
21.235513
 20
188.950700
 30
0.0
 10
21.450736
 20
188.410920
 30
0.0
 10
19.080746
 20
180.838260
 30
0.0
 10
19.621564
 20
181.053880
 30
0.0
  0
SPLINE
  5
27a
100
AcDbEntity
  8
Layer_1
 62
5
100
AcDbSpline
 70
8
 71
3
 72
8
 73
4
 74
0
 40
0
 40
0
 40
0
 40
0
 40
1
 40
1
 40
1
 40
1
 10
19.621564
 20
181.053880
 30
0.0
 10
20.162269
 20
181.269480
 30
0.0
 10
30.467255
 20
179.000450
 30
0.0
 10
30.467255
 20
179.000450
 30
0.0
  0
LINE
  5
27b
100
AcDbEntity
  8
Layer_1
 62
5
100
AcDbLine
 10
30.467255
 20
179.000450
 30
0.0
 11
32.147741
 21
187.674140
 31
0.0
  0
LINE
  5
27c
100
AcDbEntity
  8
Layer_1
 62
5
100
AcDbLine
 10
32.147741
 20
187.674140
 30
0.0
 11
32.147741
 21
187.674140
 31
0.0
  0
LINE
  5
27d
100
AcDbEntity
  8
Layer_1
 62
5
100
AcDbLine
 10
21.334305
 20
189.118810
 30
0.0
 11
24.668088
 21
188.533210
 31
0.0
  0
LINE
  5
27e
100
AcDbEntity
  8
Layer_1
 62
5
100
AcDbLine
 10
28.741373
 20
187.763750
 30
0.0
 11
32.075191
 21
187.178040
 31
0.0
  0
SPLINE
  5
27f
100
AcDbEntity
  8
Layer_1
 62
5
100
AcDbSpline
 70
8
 71
3
 72
8
 73
4
 74
0
 40
0
 40
0
 40
0
 40
0
 40
1
 40
1
 40
1
 40
1
 10
11.466232
 20
223.410800
 30
0.0
 10
11.274593
 20
223.334400
 30
0.0
 10
1.527286
 20
216.441147
 30
0.0
 10
0.623313
 20
215.152151
 30
0.0
  0
SPLINE
  5
280
100
AcDbEntity
  8
Layer_1
 62
5
100
AcDbSpline
 70
8
 71
3
 72
8
 73
4
 74
0
 40
0
 40
0
 40
0
 40
0
 40
1
 40
1
 40
1
 40
1
 10
0.623313
 20
215.152151
 30
0.0
 10
-0.280780
 20
213.863226
 30
0.0
 10
7.381285
 20
200.647393
 30
0.0
 10
7.381285
 20
200.647393
 30
0.0
  0
LINE
  5
281
100
AcDbEntity
  8
Layer_1
 62
5
100
AcDbLine
 10
7.381285
 20
200.647393
 30
0.0
 11
7.381285
 21
200.647393
 31
0.0
  0
LINE
  5
282
100
AcDbEntity
  8
Layer_1
 62
5
100
AcDbLine
 10
7.381285
 20
200.647393
 30
0.0
 11
7.381285
 21
200.647393
 31
0.0
  0
SPLINE
  5
283
100
AcDbEntity
  8
Layer_1
 62
5
100
AcDbSpline
 70
8
 71
3
 72
8
 73
4
 74
0
 40
0
 40
0
 40
0
 40
0
 40
1
 40
1
 40
1
 40
1
 10
406.910860
 20
295.209842
 30
0.0
 10
410.769480
 20
288.521582
 30
0.0
 10
406.668160
 20
278.097959
 30
0.0
 10
404.036050
 20
277.260781
 30
0.0
  0
SPLINE
  5
284
100
AcDbEntity
  8
Layer_1
 62
5
100
AcDbSpline
 70
8
 71
3
 72
8
 73
4
 74
0
 40
0
 40
0
 40
0
 40
0
 40
1
 40
1
 40
1
 40
1
 10
404.036050
 20
277.260781
 30
0.0
 10
401.403800
 20
276.423447
 30
0.0
 10
398.072720
 20
275.009351
 30
0.0
 10
392.884130
 20
276.251149
 30
0.0
  0
SPLINE
  5
285
100
AcDbEntity
  8
Layer_1
 62
5
100
AcDbSpline
 70
8
 71
3
 72
8
 73
4
 74
0
 40
0
 40
0
 40
0
 40
0
 40
1
 40
1
 40
1
 40
1
 10
392.884130
 20
276.251149
 30
0.0
 10
388.765850
 20
277.538584
 30
0.0
 10
384.870160
 20
287.021214
 30
0.0
 10
384.870160
 20
287.021214
 30
0.0
  0
SPLINE
  5
286
100
AcDbEntity
  8
Layer_1
 62
5
100
AcDbSpline
 70
8
 71
3
 72
8
 73
4
 74
0
 40
0
 40
0
 40
0
 40
0
 40
1
 40
1
 40
1
 40
1
 10
490.583370
 20
265.402996
 30
0.0
 10
490.793670
 20
265.804258
 30
0.0
 10
493.164930
 20
270.976994
 30
0.0
 10
493.630320
 20
271.972887
 30
0.0
  0
SPLINE
  5
287
100
AcDbEntity
  8
Layer_1
 62
5
100
AcDbSpline
 70
8
 71
3
 72
8
 73
4
 74
0
 40
0
 40
0
 40
0
 40
0
 40
1
 40
1
 40
1
 40
1
 10
493.630320
 20
271.972887
 30
0.0
 10
494.095850
 20
272.968691
 30
0.0
 10
494.766130
 20
277.462793
 30
0.0
 10
492.226670
 20
279.986009
 30
0.0
  0
SPLINE
  5
288
100
AcDbEntity
  8
Layer_1
 62
5
100
AcDbSpline
 70
8
 71
3
 72
8
 73
4
 74
0
 40
0
 40
0
 40
0
 40
0
 40
1
 40
1
 40
1
 40
1
 10
492.226670
 20
279.986009
 30
0.0
 10
489.687410
 20
282.509466
 30
0.0
 10
482.342660
 20
287.451621
 30
0.0
 10
482.342660
 20
287.451621
 30
0.0
  0
LINE
  5
289
100
AcDbEntity
  8
Layer_1
 62
5
100
AcDbLine
 10
482.342660
 20
287.451621
 30
0.0
 11
482.342660
 21
287.451621
 31
0.0
  0
LINE
  5
28a
100
AcDbEntity
  8
Layer_1
 62
5
100
AcDbLine
 10
482.342660
 20
287.451621
 30
0.0
 11
482.342660
 21
287.451621
 31
0.0
  0
LINE
  5
28b
100
AcDbEntity
  8
Layer_1
 62
5
100
AcDbLine
 10
482.342660
 20
287.451621
 30
0.0
 11
482.342660
 21
287.451621
 31
0.0
  0
SPLINE
  5
28c
100
AcDbEntity
  8
Layer_1
 62
5
100
AcDbSpline
 70
8
 71
3
 72
8
 73
4
 74
0
 40
0
 40
0
 40
0
 40
0
 40
1
 40
1
 40
1
 40
1
 10
433.928580
 20
238.522135
 30
0.0
 10
433.928580
 20
238.522135
 30
0.0
 10
425.564090
 20
248.405255
 30
0.0
 10
420.947350
 20
255.467332
 30
0.0
  0
SPLINE
  5
28d
100
AcDbEntity
  8
Layer_1
 62
5
100
AcDbSpline
 70
8
 71
3
 72
8
 73
4
 74
0
 40
0
 40
0
 40
0
 40
0
 40
1
 40
1
 40
1
 40
1
 10
420.947350
 20
255.467332
 30
0.0
 10
416.330600
 20
262.529533
 30
0.0
 10
426.186510
 20
273.120413
 30
0.0
 10
423.518180
 20
279.011589
 30
0.0
  0
SPLINE
  5
28e
100
AcDbEntity
  8
Layer_1
 62
5
100
AcDbSpline
 70
8
 71
3
 72
8
 73
4
 74
0
 40
0
 40
0
 40
0
 40
0
 40
1
 40
1
 40
1
 40
1
 10
423.518180
 20
279.011589
 30
0.0
 10
420.849900
 20
284.902642
 30
0.0
 10
422.568560
 20
301.284027
 30
0.0
 10
412.006940
 20
297.468992
 30
0.0
  0
SPLINE
  5
28f
100
AcDbEntity
  8
Layer_1
 62
5
100
AcDbSpline
 70
8
 71
3
 72
8
 73
4
 74
0
 40
0
 40
0
 40
0
 40
0
 40
1
 40
1
 40
1
 40
1
 10
412.006940
 20
297.468992
 30
0.0
 10
410.191820
 20
296.813710
 30
0.0
 10
408.536300
 20
295.992197
 30
0.0
 10
407.010740
 20
295.089048
 30
0.0
  0
SPLINE
  5
290
100
AcDbEntity
  8
Layer_1
 62
5
100
AcDbSpline
 70
8
 71
3
 72
8
 73
4
 74
0
 40
0
 40
0
 40
0
 40
0
 40
1
 40
1
 40
1
 40
1
 10
400.129710
 20
290.112300
 30
0.0
 10
396.540510
 20
287.218586
 30
0.0
 10
393.729900
 20
284.928156
 30
0.0
 10
390.855510
 20
285.727212
 30
0.0
  0
SPLINE
  5
291
100
AcDbEntity
  8
Layer_1
 62
5
100
AcDbSpline
 70
8
 71
3
 72
8
 73
4
 74
0
 40
0
 40
0
 40
0
 40
0
 40
1
 40
1
 40
1
 40
1
 10
384.912400
 20
286.809238
 30
0.0
 10
379.435620
 20
287.513575
 30
0.0
 10
373.331620
 20
287.800882
 30
0.0
 10
373.331620
 20
287.800882
 30
0.0
  0
SPLINE
  5
292
100
AcDbEntity
  8
Layer_1
 62
5
100
AcDbSpline
 70
8
 71
3
 72
8
 73
4
 74
0
 40
0
 40
0
 40
0
 40
0
 40
1
 40
1
 40
1
 40
1
 10
433.928860
 20
238.521931
 30
0.0
 10
433.928860
 20
238.521931
 30
0.0
 10
443.826040
 20
246.827872
 30
0.0
 10
450.896620
 20
251.403379
 30
0.0
  0
SPLINE
  5
293
100
AcDbEntity
  8
Layer_1
 62
5
100
AcDbSpline
 70
8
 71
3
 72
8
 73
4
 74
0
 40
0
 40
0
 40
0
 40
0
 40
1
 40
1
 40
1
 40
1
 10
450.896620
 20
251.403379
 30
0.0
 10
457.967220
 20
255.978977
 30
0.0
 10
468.551750
 20
246.069116
 30
0.0
 10
474.448560
 20
248.703447
 30
0.0
  0
SPLINE
  5
294
100
AcDbEntity
  8
Layer_1
 62
5
100
AcDbSpline
 70
8
 71
3
 72
8
 73
4
 74
0
 40
0
 40
0
 40
0
 40
0
 40
1
 40
1
 40
1
 40
1
 10
474.448560
 20
248.703447
 30
0.0
 10
480.345330
 20
251.338100
 30
0.0
 10
496.732100
 20
249.529482
 30
0.0
 10
492.927370
 20
260.107450
 30
0.0
  0
SPLINE
  5
295
100
AcDbEntity
  8
Layer_1
 62
5
100
AcDbSpline
 70
8
 71
3
 72
8
 73
4
 74
0
 40
0
 40
0
 40
0
 40
0
 40
1
 40
1
 40
1
 40
1
 10
492.927370
 20
260.107450
 30
0.0
 10
491.108040
 20
265.165432
 30
0.0
 10
487.676130
 20
268.037645
 30
0.0
 10
485.422630
 20
272.217384
 30
0.0
  0
SPLINE
  5
296
100
AcDbEntity
  8
Layer_1
 62
5
100
AcDbSpline
 70
8
 71
3
 72
8
 73
4
 74
0
 40
0
 40
0
 40
0
 40
0
 40
1
 40
1
 40
1
 40
1
 10
481.204560
 20
281.314218
 30
0.0
 10
482.714930
 20
286.711175
 30
0.0
 10
483.299110
 20
298.818463
 30
0.0
 10
483.299110
 20
298.818463
 30
0.0
  0
SPLINE
  5
297
100
AcDbEntity
  8
Layer_1
 62
5
100
AcDbSpline
 70
8
 71
3
 72
8
 73
4
 74
0
 40
0
 40
0
 40
0
 40
0
 40
1
 40
1
 40
1
 40
1
 10
427.890820
 20
333.803379
 30
0.0
 10
424.931620
 20
342.104728
 30
0.0
 10
422.500270
 20
348.262012
 30
0.0
 10
422.500270
 20
348.262012
 30
0.0
  0
LINE
  5
298
100
AcDbEntity
  8
Layer_1
 62
5
100
AcDbLine
 10
422.500270
 20
348.262012
 30
0.0
 11
422.500270
 21
348.262012
 31
0.0
  0
LINE
  5
299
100
AcDbEntity
  8
Layer_1
 62
5
100
AcDbLine
 10
373.331870
 20
287.800685
 30
0.0
 11
404.313030
 21
316.543311
 31
0.0
  0
SPLINE
  5
29a
100
AcDbEntity
  8
Layer_1
 62
5
100
AcDbSpline
 70
8
 71
3
 72
8
 73
4
 74
0
 40
0
 40
0
 40
0
 40
0
 40
1
 40
1
 40
1
 40
1
 10
404.313030
 20
316.543311
 30
0.0
 10
404.313030
 20
316.543311
 30
0.0
 10
429.257520
 20
318.171593
 30
0.0
 10
430.400940
 20
309.385974
 30
0.0
  0
SPLINE
  5
29b
100
AcDbEntity
  8
Layer_1
 62
5
100
AcDbSpline
 70
8
 71
3
 72
8
 73
4
 74
0
 40
0
 40
0
 40
0
 40
0
 40
1
 40
1
 40
1
 40
1
 10
430.400940
 20
309.385974
 30
0.0
 10
431.544080
 20
300.600382
 30
0.0
 10
434.531760
 20
282.872482
 30
0.0
 10
437.953940
 20
291.666620
 30
0.0
  0
SPLINE
  5
29c
100
AcDbEntity
  8
Layer_1
 62
5
100
AcDbSpline
 70
8
 71
3
 72
8
 73
4
 74
0
 40
0
 40
0
 40
0
 40
0
 40
1
 40
1
 40
1
 40
1
 10
437.953940
 20
291.666620
 30
0.0
 10
439.444790
 20
295.498183
 30
0.0
 10
434.995520
 20
312.015844
 30
0.0
 10
431.426370
 20
323.477073
 30
0.0
  0
LINE
  5
29d
100
AcDbEntity
  8
Layer_1
 62
5
100
AcDbLine
 10
483.097260
 20
298.983264
 30
0.0
 11
454.273550
 21
330.013521
 31
0.0
  0
SPLINE
  5
29e
100
AcDbEntity
  8
Layer_1
 62
5
100
AcDbSpline
 70
8
 71
3
 72
8
 73
4
 74
0
 40
0
 40
0
 40
0
 40
0
 40
1
 40
1
 40
1
 40
1
 10
454.273550
 20
330.013521
 30
0.0
 10
454.273550
 20
330.013521
 30
0.0
 10
452.589840
 20
354.950238
 30
0.0
 10
461.376850
 20
356.073696
 30
0.0
  0
SPLINE
  5
29f
100
AcDbEntity
  8
Layer_1
 62
5
100
AcDbSpline
 70
8
 71
3
 72
8
 73
4
 74
0
 40
0
 40
0
 40
0
 40
0
 40
1
 40
1
 40
1
 40
1
 10
461.376850
 20
356.073696
 30
0.0
 10
470.164000
 20
357.197146
 30
0.0
 10
487.893540
 20
360.144688
 30
0.0
 10
479.087770
 20
363.584588
 30
0.0
  0
SPLINE
  5
2a0
100
AcDbEntity
  8
Layer_1
 62
5
100
AcDbSpline
 70
8
 71
3
 72
8
 73
4
 74
0
 40
0
 40
0
 40
0
 40
0
 40
1
 40
1
 40
1
 40
1
 10
479.087770
 20
363.584588
 30
0.0
 10
475.283660
 20
365.070518
 30
0.0
 10
461.467150
 20
361.063548
 30
0.0
 10
452.848230
 20
358.914678
 30
0.0
  0
SPLINE
  5
2a1
100
AcDbEntity
  8
Layer_1
 62
5
100
AcDbSpline
 70
8
 71
3
 72
8
 73
4
 74
0
 40
0
 40
0
 40
0
 40
0
 40
1
 40
1
 40
1
 40
1
 10
444.043130
 20
356.069263
 30
0.0
 10
442.712380
 20
355.621101
 30
0.0
 10
441.386050
 20
355.208693
 30
0.0
 10
440.111950
 20
354.766927
 30
0.0
  0
SPLINE
  5
2a2
100
AcDbEntity
  8
Layer_1
 62
5
100
AcDbSpline
 70
8
 71
3
 72
8
 73
4
 74
0
 40
0
 40
0
 40
0
 40
0
 40
1
 40
1
 40
1
 40
1
 10
431.487110
 20
351.648715
 30
0.0
 10
426.091860
 20
349.672324
 30
0.0
 10
422.500270
 20
348.262003
 30
0.0
 10
422.500270
 20
348.262003
 30
0.0
  0
LINE
  5
2a3
100
AcDbEntity
  8
Layer_1
 62
5
100
AcDbLine
 10
422.500270
 20
348.262003
 30
0.0
 11
422.500270
 21
348.262003
 31
0.0
  0
SPLINE
  5
2a4
100
AcDbEntity
  8
Layer_1
 62
5
100
AcDbSpline
 70
8
 71
3
 72
8
 73
4
 74
0
 40
0
 40
0
 40
0
 40
0
 40
1
 40
1
 40
1
 40
1
 10
427.695940
 20
333.807785
 30
0.0
 10
427.329320
 20
333.356927
 30
0.0
 10
419.561110
 20
331.739186
 30
0.0
 10
420.012810
 20
331.371831
 30
0.0
  0
SPLINE
  5
2a5
100
AcDbEntity
  8
Layer_1
 62
5
100
AcDbSpline
 70
8
 71
3
 72
8
 73
4
 74
0
 40
0
 40
0
 40
0
 40
0
 40
1
 40
1
 40
1
 40
1
 10
420.012810
 20
331.371831
 30
0.0
 10
420.464400
 20
331.004531
 30
0.0
 10
423.500960
 20
320.899086
 30
0.0
 10
423.500960
 20
320.899086
 30
0.0
  0
LINE
  5
2a6
100
AcDbEntity
  8
Layer_1
 62
5
100
AcDbLine
 10
423.500960
 20
320.899086
 30
0.0
 11
431.895010
 21
323.655242
 31
0.0
  0
LINE
  5
2a7
100
AcDbEntity
  8
Layer_1
 62
5
100
AcDbLine
 10
431.895010
 20
323.655242
 30
0.0
 11
431.895010
 21
323.655242
 31
0.0
  0
LINE
  5
2a8
100
AcDbEntity
  8
Layer_1
 62
5
100
AcDbLine
 10
427.890890
 20
333.803359
 30
0.0
 11
429.002950
 21
330.606444
 31
0.0
  0
LINE
  5
2a9
100
AcDbEntity
  8
Layer_1
 62
5
100
AcDbLine
 10
430.314490
 20
326.674055
 30
0.0
 11
431.426470
 21
323.477056
 31
0.0
  0
SPLINE
  5
2aa
100
AcDbEntity
  8
Layer_1
 62
5
100
AcDbSpline
 70
8
 71
3
 72
8
 73
4
 74
0
 40
0
 40
0
 40
0
 40
0
 40
1
 40
1
 40
1
 40
1
 10
453.036450
 20
359.121798
 30
0.0
 10
452.876380
 20
359.251958
 30
0.0
 10
442.109010
 20
364.408538
 30
0.0
 10
440.542950
 20
364.570368
 30
0.0
  0
SPLINE
  5
2ab
100
AcDbEntity
  8
Layer_1
 62
5
100
AcDbSpline
 70
8
 71
3
 72
8
 73
4
 74
0
 40
0
 40
0
 40
0
 40
0
 40
1
 40
1
 40
1
 40
1
 10
440.542950
 20
364.570368
 30
0.0
 10
438.976910
 20
364.732338
 30
0.0
 10
431.165320
 20
351.604331
 30
0.0
 10
431.165320
 20
351.604331
 30
0.0
  0
LINE
  5
2ac
100
AcDbEntity
  8
Layer_1
 62
5
100
AcDbLine
 10
431.165320
 20
351.604331
 30
0.0
 11
431.165320
 21
351.604331
 31
0.0
  0
LINE
  5
2ad
100
AcDbEntity
  8
Layer_1
 62
5
100
AcDbLine
 10
431.165320
 20
351.604331
 30
0.0
 11
431.165320
 21
351.604331
 31
0.0
  0
SPLINE
  5
2ae
100
AcDbEntity
  8
Layer_1
 62
5
100
AcDbSpline
 70
8
 71
3
 72
8
 73
4
 74
0
 40
0
 40
0
 40
0
 40
0
 40
1
 40
1
 40
1
 40
1
 10
208.190830
 20
321.655120
 30
0.0
 10
211.647930
 20
314.765185
 30
0.0
 10
206.940480
 20
304.578378
 30
0.0
 10
204.264120
 20
303.885615
 30
0.0
  0
SPLINE
  5
2af
100
AcDbEntity
  8
Layer_1
 62
5
100
AcDbSpline
 70
8
 71
3
 72
8
 73
4
 74
0
 40
0
 40
0
 40
0
 40
0
 40
1
 40
1
 40
1
 40
1
 10
204.264120
 20
303.885615
 30
0.0
 10
201.587560
 20
303.192899
 30
0.0
 10
198.179780
 20
301.961931
 30
0.0
 10
193.074410
 20
303.484646
 30
0.0
  0
SPLINE
  5
2b0
100
AcDbEntity
  8
Layer_1
 62
5
100
AcDbSpline
 70
8
 71
3
 72
8
 73
4
 74
0
 40
0
 40
0
 40
0
 40
0
 40
1
 40
1
 40
1
 40
1
 10
193.074410
 20
303.484646
 30
0.0
 10
189.039830
 20
304.994891
 30
0.0
 10
185.710350
 20
314.677650
 30
0.0
 10
185.710350
 20
314.677650
 30
0.0
  0
SPLINE
  5
2b1
100
AcDbEntity
  8
Layer_1
 62
5
100
AcDbSpline
 70
8
 71
3
 72
8
 73
4
 74
0
 40
0
 40
0
 40
0
 40
0
 40
1
 40
1
 40
1
 40
1
 10
289.945200
 20
287.328038
 30
0.0
 10
290.178330
 20
287.717171
 30
0.0
 10
292.850100
 20
292.754228
 30
0.0
 10
293.373330
 20
293.723465
 30
0.0
  0
SPLINE
  5
2b2
100
AcDbEntity
  8
Layer_1
 62
5
100
AcDbSpline
 70
8
 71
3
 72
8
 73
4
 74
0
 40
0
 40
0
 40
0
 40
0
 40
1
 40
1
 40
1
 40
1
 10
293.373330
 20
293.723465
 30
0.0
 10
293.896770
 20
294.692361
 30
0.0
 10
294.830320
 20
299.144539
 30
0.0
 10
292.444510
 20
301.802962
 30
0.0
  0
SPLINE
  5
2b3
100
AcDbEntity
  8
Layer_1
 62
5
100
AcDbSpline
 70
8
 71
3
 72
8
 73
4
 74
0
 40
0
 40
0
 40
0
 40
0
 40
1
 40
1
 40
1
 40
1
 10
292.444510
 20
301.802962
 30
0.0
 10
290.058960
 20
304.461818
 30
0.0
 10
283.019020
 20
309.797080
 30
0.0
 10
283.019020
 20
309.797080
 30
0.0
  0
LINE
  5
2b4
100
AcDbEntity
  8
Layer_1
 62
5
100
AcDbLine
 10
283.019020
 20
309.797080
 30
0.0
 11
283.019020
 21
309.797080
 31
0.0
  0
LINE
  5
2b5
100
AcDbEntity
  8
Layer_1
 62
5
100
AcDbLine
 10
283.019020
 20
309.797080
 30
0.0
 11
283.019020
 21
309.797080
 31
0.0
  0
LINE
  5
2b6
100
AcDbEntity
  8
Layer_1
 62
5
100
AcDbLine
 10
283.019020
 20
309.797080
 30
0.0
 11
283.019020
 21
309.797080
 31
0.0
  0
SPLINE
  5
2b7
100
AcDbEntity
  8
Layer_1
 62
5
100
AcDbSpline
 70
8
 71
3
 72
8
 73
4
 74
0
 40
0
 40
0
 40
0
 40
0
 40
1
 40
1
 40
1
 40
1
 10
231.816320
 20
263.567446
 30
0.0
 10
231.816320
 20
263.567446
 30
0.0
 10
224.050240
 20
273.893685
 30
0.0
 10
219.858510
 20
281.198259
 30
0.0
  0
SPLINE
  5
2b8
100
AcDbEntity
  8
Layer_1
 62
5
100
AcDbSpline
 70
8
 71
3
 72
8
 73
4
 74
0
 40
0
 40
0
 40
0
 40
0
 40
1
 40
1
 40
1
 40
1
 10
219.858510
 20
281.198259
 30
0.0
 10
215.666730
 20
288.502931
 30
0.0
 10
226.127550
 20
298.543434
 30
0.0
 10
223.811440
 20
304.572375
 30
0.0
  0
SPLINE
  5
2b9
100
AcDbEntity
  8
Layer_1
 62
5
100
AcDbSpline
 70
8
 71
3
 72
8
 73
4
 74
0
 40
0
 40
0
 40
0
 40
0
 40
1
 40
1
 40
1
 40
1
 10
223.811440
 20
304.572375
 30
0.0
 10
221.495260
 20
310.601392
 30
0.0
 10
224.175680
 20
326.868153
 30
0.0
 10
213.409750
 20
323.633371
 30
0.0
  0
SPLINE
  5
2ba
100
AcDbEntity
  8
Layer_1
 62
5
100
AcDbSpline
 70
8
 71
3
 72
8
 73
4
 74
0
 40
0
 40
0
 40
0
 40
0
 40
1
 40
1
 40
1
 40
1
 10
213.409750
 20
323.633371
 30
0.0
 10
211.559710
 20
323.077720
 30
0.0
 10
209.858790
 20
322.347503
 30
0.0
 10
208.283010
 20
321.528673
 30
0.0
  0
SPLINE
  5
2bb
100
AcDbEntity
  8
Layer_1
 62
5
100
AcDbSpline
 70
8
 71
3
 72
8
 73
4
 74
0
 40
0
 40
0
 40
0
 40
0
 40
1
 40
1
 40
1
 40
1
 10
201.122130
 20
316.933144
 30
0.0
 10
197.369400
 20
314.238539
 30
0.0
 10
194.429310
 20
312.104223
 30
0.0
 10
191.607540
 20
313.058974
 30
0.0
  0
SPLINE
  5
2bc
100
AcDbEntity
  8
Layer_1
 62
5
100
AcDbSpline
 70
8
 71
3
 72
8
 73
4
 74
0
 40
0
 40
0
 40
0
 40
0
 40
1
 40
1
 40
1
 40
1
 10
185.739660
 20
314.463310
 30
0.0
 10
180.314990
 20
315.465000
 30
0.0
 10
174.239690
 20
316.084575
 30
0.0
 10
174.239690
 20
316.084575
 30
0.0
  0
SPLINE
  5
2bd
100
AcDbEntity
  8
Layer_1
 62
5
100
AcDbSpline
 70
8
 71
3
 72
8
 73
4
 74
0
 40
0
 40
0
 40
0
 40
0
 40
1
 40
1
 40
1
 40
1
 10
231.816550
 20
263.567241
 30
0.0
 10
231.816550
 20
263.567241
 30
0.0
 10
242.183930
 20
271.323390
 30
0.0
 10
249.510380
 20
275.507767
 30
0.0
  0
SPLINE
  5
2be
100
AcDbEntity
  8
Layer_1
 62
5
100
AcDbSpline
 70
8
 71
3
 72
8
 73
4
 74
0
 40
0
 40
0
 40
0
 40
0
 40
1
 40
1
 40
1
 40
1
 10
249.510380
 20
275.507767
 30
0.0
 10
256.836790
 20
279.692562
 30
0.0
 10
266.817050
 20
269.218625
 30
0.0
 10
272.857470
 20
271.528341
 30
0.0
  0
SPLINE
  5
2bf
100
AcDbEntity
  8
Layer_1
 62
5
100
AcDbSpline
 70
8
 71
3
 72
8
 73
4
 74
0
 40
0
 40
0
 40
0
 40
0
 40
1
 40
1
 40
1
 40
1
 10
272.857470
 20
271.528341
 30
0.0
 10
278.898170
 20
273.838335
 30
0.0
 10
295.146730
 20
271.139428
 30
0.0
 10
291.972400
 20
281.911132
 30
0.0
  0
SPLINE
  5
2c0
100
AcDbEntity
  8
Layer_1
 62
5
100
AcDbSpline
 70
8
 71
3
 72
8
 73
4
 74
0
 40
0
 40
0
 40
0
 40
0
 40
1
 40
1
 40
1
 40
1
 10
291.972400
 20
281.911132
 30
0.0
 10
290.454600
 20
287.061781
 30
0.0
 10
287.198520
 20
290.117172
 30
0.0
 10
285.195510
 20
294.414462
 30
0.0
  0
SPLINE
  5
2c1
100
AcDbEntity
  8
Layer_1
 62
5
100
AcDbSpline
 70
8
 71
3
 72
8
 73
4
 74
0
 40
0
 40
0
 40
0
 40
0
 40
1
 40
1
 40
1
 40
1
 10
281.521650
 20
303.729429
 30
0.0
 10
283.346910
 20
309.037263
 30
0.0
 10
284.643210
 20
321.097423
 30
0.0
 10
284.643210
 20
321.097423
 30
0.0
  0
SPLINE
  5
2c2
100
AcDbEntity
  8
Layer_1
 62
5
100
AcDbSpline
 70
8
 71
3
 72
8
 73
4
 74
0
 40
0
 40
0
 40
0
 40
0
 40
1
 40
1
 40
1
 40
1
 10
231.403390
 20
359.056179
 30
0.0
 10
228.938750
 20
367.508153
 30
0.0
 10
226.874880
 20
373.790155
 30
0.0
 10
226.874880
 20
373.790155
 30
0.0
  0
LINE
  5
2c3
100
AcDbEntity
  8
Layer_1
 62
5
100
AcDbLine
 10
226.874880
 20
373.790155
 30
0.0
 11
226.874880
 21
373.790155
 31
0.0
  0
LINE
  5
2c4
100
AcDbEntity
  8
Layer_1
 62
5
100
AcDbLine
 10
174.239970
 20
316.084385
 30
0.0
 11
206.854370
 21
343.102591
 31
0.0
  0
SPLINE
  5
2c5
100
AcDbEntity
  8
Layer_1
 62
5
100
AcDbSpline
 70
8
 71
3
 72
8
 73
4
 74
0
 40
0
 40
0
 40
0
 40
0
 40
1
 40
1
 40
1
 40
1
 10
206.854370
 20
343.102591
 30
0.0
 10
206.854370
 20
343.102591
 30
0.0
 10
231.846420
 20
343.369860
 30
0.0
 10
232.470030
 20
334.533161
 30
0.0
  0
SPLINE
  5
2c6
100
AcDbEntity
  8
Layer_1
 62
5
100
AcDbSpline
 70
8
 71
3
 72
8
 73
4
 74
0
 40
0
 40
0
 40
0
 40
0
 40
1
 40
1
 40
1
 40
1
 10
232.470030
 20
334.533161
 30
0.0
 10
233.093450
 20
325.696509
 30
0.0
 10
235.031110
 20
307.828381
 30
0.0
 10
238.964700
 20
316.424972
 30
0.0
  0
SPLINE
  5
2c7
100
AcDbEntity
  8
Layer_1
 62
5
100
AcDbSpline
 70
8
 71
3
 72
8
 73
4
 74
0
 40
0
 40
0
 40
0
 40
0
 40
1
 40
1
 40
1
 40
1
 10
238.964700
 20
316.424972
 30
0.0
 10
240.678360
 20
320.170331
 30
0.0
 10
237.210770
 20
336.909408
 30
0.0
 10
234.323720
 20
348.550451
 30
0.0
  0
LINE
  5
2c8
100
AcDbEntity
  8
Layer_1
 62
5
100
AcDbLine
 10
284.451500
 20
321.273020
 30
0.0
 11
257.511560
 21
353.833895
 31
0.0
  0
SPLINE
  5
2c9
100
AcDbEntity
  8
Layer_1
 62
5
100
AcDbSpline
 70
8
 71
3
 72
8
 73
4
 74
0
 40
0
 40
0
 40
0
 40
0
 40
1
 40
1
 40
1
 40
1
 10
257.511560
 20
353.833895
 30
0.0
 10
257.511560
 20
353.833895
 30
0.0
 10
257.300090
 20
378.830568
 30
0.0
 10
266.136290
 20
379.474003
 30
0.0
  0
SPLINE
  5
2ca
100
AcDbEntity
  8
Layer_1
 62
5
100
AcDbSpline
 70
8
 71
3
 72
8
 73
4
 74
0
 40
0
 40
0
 40
0
 40
0
 40
1
 40
1
 40
1
 40
1
 10
266.136290
 20
379.474003
 30
0.0
 10
274.972600
 20
380.117208
 30
0.0
 10
292.841400
 20
382.095245
 30
0.0
 10
284.255450
 20
386.010345
 30
0.0
  0
SPLINE
  5
2cb
100
AcDbEntity
  8
Layer_1
 62
5
100
AcDbSpline
 70
8
 71
3
 72
8
 73
4
 74
0
 40
0
 40
0
 40
0
 40
0
 40
1
 40
1
 40
1
 40
1
 10
284.255450
 20
386.010345
 30
0.0
 10
280.546090
 20
387.701598
 30
0.0
 10
266.520310
 20
384.452493
 30
0.0
 10
257.791520
 20
382.775944
 30
0.0
  0
SPLINE
  5
2cc
100
AcDbEntity
  8
Layer_1
 62
5
100
AcDbSpline
 70
8
 71
3
 72
8
 73
4
 74
0
 40
0
 40
0
 40
0
 40
0
 40
1
 40
1
 40
1
 40
1
 10
248.835870
 20
380.413810
 30
0.0
 10
247.481280
 20
380.038731
 30
0.0
 10
246.133350
 20
379.699103
 30
0.0
 10
244.835540
 20
379.327247
 30
0.0
  0
SPLINE
  5
2cd
100
AcDbEntity
  8
Layer_1
 62
5
100
AcDbSpline
 70
8
 71
3
 72
8
 73
4
 74
0
 40
0
 40
0
 40
0
 40
0
 40
1
 40
1
 40
1
 40
1
 10
236.043760
 20
376.682912
 30
0.0
 10
230.542640
 20
375.002974
 30
0.0
 10
226.874870
 20
373.790223
 30
0.0
 10
226.874870
 20
373.790223
 30
0.0
  0
LINE
  5
2ce
100
AcDbEntity
  8
Layer_1
 62
5
100
AcDbLine
 10
226.874870
 20
373.790223
 30
0.0
 11
226.874870
 21
373.790223
 31
0.0
  0
SPLINE
  5
2cf
100
AcDbEntity
  8
Layer_1
 62
5
100
AcDbSpline
 70
8
 71
3
 72
8
 73
4
 74
0
 40
0
 40
0
 40
0
 40
0
 40
1
 40
1
 40
1
 40
1
 10
231.208990
 20
359.071176
 30
0.0
 10
230.816610
 20
358.641067
 30
0.0
 10
222.968050
 20
357.448419
 30
0.0
 10
223.397170
 20
357.057044
 30
0.0
  0
SPLINE
  5
2d0
100
AcDbEntity
  8
Layer_1
 62
5
100
AcDbSpline
 70
8
 71
3
 72
8
 73
4
 74
0
 40
0
 40
0
 40
0
 40
0
 40
1
 40
1
 40
1
 40
1
 10
223.397170
 20
357.057044
 30
0.0
 10
223.826570
 20
356.665378
 30
0.0
 10
226.261710
 20
346.407526
 30
0.0
 10
226.261710
 20
346.407526
 30
0.0
  0
LINE
  5
2d1
100
AcDbEntity
  8
Layer_1
 62
5
100
AcDbLine
 10
226.261710
 20
346.407526
 30
0.0
 11
234.801780
 21
348.702978
 31
0.0
  0
LINE
  5
2d2
100
AcDbEntity
  8
Layer_1
 62
5
100
AcDbLine
 10
234.801780
 20
348.702978
 30
0.0
 11
234.801780
 21
348.702978
 31
0.0
  0
LINE
  5
2d3
100
AcDbEntity
  8
Layer_1
 62
5
100
AcDbLine
 10
231.403410
 20
359.056310
 30
0.0
 11
232.324800
 21
355.802749
 31
0.0
  0
LINE
  5
2d4
100
AcDbEntity
  8
Layer_1
 62
5
100
AcDbLine
 10
233.402240
 20
351.803985
 30
0.0
 11
234.323690
 21
348.550555
 31
0.0
  0
SPLINE
  5
2d5
100
AcDbEntity
  8
Layer_1
 62
5
100
AcDbSpline
 70
8
 71
3
 72
8
 73
4
 74
0
 40
0
 40
0
 40
0
 40
0
 40
1
 40
1
 40
1
 40
1
 10
257.991530
 20
382.972430
 30
0.0
 10
257.839560
 20
383.111051
 30
0.0
 10
247.396640
 20
388.847718
 30
0.0
 10
245.843160
 20
389.094725
 30
0.0
  0
SPLINE
  5
2d6
100
AcDbEntity
  8
Layer_1
 62
5
100
AcDbSpline
 70
8
 71
3
 72
8
 73
4
 74
0
 40
0
 40
0
 40
0
 40
0
 40
1
 40
1
 40
1
 40
1
 10
245.843160
 20
389.094725
 30
0.0
 10
244.289760
 20
389.341796
 30
0.0
 10
235.719910
 20
376.656084
 30
0.0
 10
235.719910
 20
376.656084
 30
0.0
  0
LINE
  5
2d7
100
AcDbEntity
  8
Layer_1
 62
5
100
AcDbLine
 10
235.719910
 20
376.656084
 30
0.0
 11
235.719910
 21
376.656084
 31
0.0
  0
LINE
  5
2d8
100
AcDbEntity
  8
Layer_1
 62
5
100
AcDbLine
 10
235.719910
 20
376.656084
 30
0.0
 11
235.719910
 21
376.656084
 31
0.0
  0
SPLINE
  5
2d9
100
AcDbEntity
  8
Layer_1
 62
5
100
AcDbSpline
 70
8
 71
3
 72
8
 73
4
 74
0
 40
0
 40
0
 40
0
 40
0
 40
1
 40
1
 40
1
 40
1
 10
487.141920
 20
152.861600
 30
0.0
 10
485.724480
 20
160.451900
 30
0.0
 10
493.055830
 20
168.920900
 30
0.0
 10
495.816580
 20
168.836070
 30
0.0
  0
SPLINE
  5
2da
100
AcDbEntity
  8
Layer_1
 62
5
100
AcDbSpline
 70
8
 71
3
 72
8
 73
4
 74
0
 40
0
 40
0
 40
0
 40
0
 40
1
 40
1
 40
1
 40
1
 10
495.816580
 20
168.836070
 30
0.0
 10
498.577390
 20
168.750870
 30
0.0
 10
502.189090
 20
168.978440
 30
0.0
 10
506.670450
 20
166.083490
 30
0.0
  0
SPLINE
  5
2db
100
AcDbEntity
  8
Layer_1
 62
5
100
AcDbSpline
 70
8
 71
3
 72
8
 73
4
 74
0
 40
0
 40
0
 40
0
 40
0
 40
1
 40
1
 40
1
 40
1
 10
506.670450
 20
166.083490
 30
0.0
 10
510.127140
 20
163.500920
 30
0.0
 10
510.651080
 20
153.262600
 30
0.0
 10
510.651080
 20
153.262600
 30
0.0
  0
SPLINE
  5
2dc
100
AcDbEntity
  8
Layer_1
 62
5
100
AcDbSpline
 70
8
 71
3
 72
8
 73
4
 74
0
 40
0
 40
0
 40
0
 40
0
 40
1
 40
1
 40
1
 40
1
 10
418.124740
 20
208.773468
 30
0.0
 10
417.792970
 20
208.464822
 30
0.0
 10
413.837910
 20
204.373701
 30
0.0
 10
413.068130
 20
203.589098
 30
0.0
  0
SPLINE
  5
2dd
100
AcDbEntity
  8
Layer_1
 62
5
100
AcDbSpline
 70
8
 71
3
 72
8
 73
4
 74
0
 40
0
 40
0
 40
0
 40
0
 40
1
 40
1
 40
1
 40
1
 10
413.068130
 20
203.589098
 30
0.0
 10
412.298260
 20
202.804427
 30
0.0
 10
410.172840
 20
198.788368
 30
0.0
 10
411.729700
 20
195.564740
 30
0.0
  0
SPLINE
  5
2de
100
AcDbEntity
  8
Layer_1
 62
5
100
AcDbSpline
 70
8
 71
3
 72
8
 73
4
 74
0
 40
0
 40
0
 40
0
 40
0
 40
1
 40
1
 40
1
 40
1
 10
411.729700
 20
195.564740
 30
0.0
 10
413.286470
 20
192.341040
 30
0.0
 10
418.572140
 20
185.239500
 30
0.0
 10
418.572140
 20
185.239500
 30
0.0
  0
LINE
  5
2df
100
AcDbEntity
  8
Layer_1
 62
5
100
AcDbLine
 10
418.572140
 20
185.239500
 30
0.0
 11
418.572140
 21
185.239500
 31
0.0
  0
LINE
  5
2e0
100
AcDbEntity
  8
Layer_1
 62
5
100
AcDbLine
 10
418.572140
 20
185.239500
 30
0.0
 11
418.572140
 21
185.239500
 31
0.0
  0
LINE
  5
2e1
100
AcDbEntity
  8
Layer_1
 62
5
100
AcDbLine
 10
418.572140
 20
185.239500
 30
0.0
 11
418.572140
 21
185.239500
 31
0.0
  0
SPLINE
  5
2e2
100
AcDbEntity
  8
Layer_1
 62
5
100
AcDbSpline
 70
8
 71
3
 72
8
 73
4
 74
0
 40
0
 40
0
 40
0
 40
0
 40
1
 40
1
 40
1
 40
1
 10
480.491930
 20
215.305444
 30
0.0
 10
480.491930
 20
215.305444
 30
0.0
 10
485.097960
 20
203.204763
 30
0.0
 10
487.106160
 20
195.010020
 30
0.0
  0
SPLINE
  5
2e3
100
AcDbEntity
  8
Layer_1
 62
5
100
AcDbSpline
 70
8
 71
3
 72
8
 73
4
 74
0
 40
0
 40
0
 40
0
 40
0
 40
1
 40
1
 40
1
 40
1
 10
487.106160
 20
195.010020
 30
0.0
 10
489.114440
 20
186.815140
 30
0.0
 10
476.299770
 20
180.100090
 30
0.0
 10
476.859290
 20
173.657260
 30
0.0
  0
SPLINE
  5
2e4
100
AcDbEntity
  8
Layer_1
 62
5
100
AcDbSpline
 70
8
 71
3
 72
8
 73
4
 74
0
 40
0
 40
0
 40
0
 40
0
 40
1
 40
1
 40
1
 40
1
 10
476.859290
 20
173.657260
 30
0.0
 10
477.418940
 20
167.214270
 30
0.0
 10
470.355580
 20
152.334310
 30
0.0
 10
481.584690
 20
152.423910
 30
0.0
  0
SPLINE
  5
2e5
100
AcDbEntity
  8
Layer_1
 62
5
100
AcDbSpline
 70
8
 71
3
 72
8
 73
4
 74
0
 40
0
 40
0
 40
0
 40
0
 40
1
 40
1
 40
1
 40
1
 10
481.584690
 20
152.423910
 30
0.0
 10
483.514450
 20
152.439010
 30
0.0
 10
485.348890
 20
152.663680
 30
0.0
 10
487.087810
 20
153.008800
 30
0.0
  0
SPLINE
  5
2e6
100
AcDbEntity
  8
Layer_1
 62
5
100
AcDbSpline
 70
8
 71
3
 72
8
 73
4
 74
0
 40
0
 40
0
 40
0
 40
0
 40
1
 40
1
 40
1
 40
1
 10
495.231390
 20
155.416810
 30
0.0
 10
499.578140
 20
156.953670
 30
0.0
 10
502.989910
 20
158.180260
 30
0.0
 10
505.435690
 20
156.471630
 30
0.0
  0
SPLINE
  5
2e7
100
AcDbEntity
  8
Layer_1
 62
5
100
AcDbSpline
 70
8
 71
3
 72
8
 73
4
 74
0
 40
0
 40
0
 40
0
 40
0
 40
1
 40
1
 40
1
 40
1
 10
510.681840
 20
153.476650
 30
0.0
 10
515.613540
 20
150.992790
 30
0.0
 10
521.275390
 20
148.693890
 30
0.0
 10
521.275390
 20
148.693890
 30
0.0
  0
SPLINE
  5
2e8
100
AcDbEntity
  8
Layer_1
 62
5
100
AcDbSpline
 70
8
 71
3
 72
8
 73
4
 74
0
 40
0
 40
0
 40
0
 40
0
 40
1
 40
1
 40
1
 40
1
 10
480.491790
 20
215.305700
 30
0.0
 10
480.491790
 20
215.305700
 30
0.0
 10
468.397240
 20
210.759614
 30
0.0
 10
460.208110
 20
208.793092
 30
0.0
  0
SPLINE
  5
2e9
100
AcDbEntity
  8
Layer_1
 62
5
100
AcDbSpline
 70
8
 71
3
 72
8
 73
4
 74
0
 40
0
 40
0
 40
0
 40
0
 40
1
 40
1
 40
1
 40
1
 10
460.208110
 20
208.793092
 30
0.0
 10
452.019020
 20
206.826343
 30
0.0
 10
445.328120
 20
219.689803
 30
0.0
 10
438.891030
 20
219.164031
 30
0.0
  0
SPLINE
  5
2ea
100
AcDbEntity
  8
Layer_1
 62
5
100
AcDbSpline
 70
8
 71
3
 72
8
 73
4
 74
0
 40
0
 40
0
 40
0
 40
0
 40
1
 40
1
 40
1
 40
1
 10
438.891030
 20
219.164031
 30
0.0
 10
432.453810
 20
218.638206
 30
0.0
 10
417.598620
 20
225.788107
 30
0.0
 10
417.672960
 20
214.546961
 30
0.0
  0
SPLINE
  5
2eb
100
AcDbEntity
  8
Layer_1
 62
5
100
AcDbSpline
 70
8
 71
3
 72
8
 73
4
 74
0
 40
0
 40
0
 40
0
 40
0
 40
1
 40
1
 40
1
 40
1
 10
417.672960
 20
214.546961
 30
0.0
 10
417.708560
 20
209.171881
 30
0.0
 10
419.991340
 20
205.322759
 30
0.0
 10
420.728390
 20
200.631719
 30
0.0
  0
SPLINE
  5
2ec
100
AcDbEntity
  8
Layer_1
 62
5
100
AcDbSpline
 70
8
 71
3
 72
8
 73
4
 74
0
 40
0
 40
0
 40
0
 40
0
 40
1
 40
1
 40
1
 40
1
 10
421.684510
 20
190.650280
 30
0.0
 10
418.467090
 20
186.061620
 30
0.0
 10
413.893560
 20
174.836010
 30
0.0
 10
413.893560
 20
174.836010
 30
0.0
  0
SPLINE
  5
2ed
100
AcDbEntity
  8
Layer_1
 62
5
100
AcDbSpline
 70
8
 71
3
 72
8
 73
4
 74
0
 40
0
 40
0
 40
0
 40
0
 40
1
 40
1
 40
1
 40
1
 10
454.531720
 20
123.430270
 30
0.0
 10
454.565120
 20
114.617340
 30
0.0
 10
454.812670
 20
108.001930
 30
0.0
 10
454.812670
 20
108.001930
 30
0.0
  0
LINE
  5
2ee
100
AcDbEntity
  8
Layer_1
 62
5
100
AcDbLine
 10
454.812670
 20
108.001930
 30
0.0
 11
454.812670
 21
108.001930
 31
0.0
  0
LINE
  5
2ef
100
AcDbEntity
  8
Layer_1
 62
5
100
AcDbLine
 10
521.275240
 20
148.694160
 30
0.0
 11
482.504620
 21
131.876760
 31
0.0
  0
SPLINE
  5
2f0
100
AcDbEntity
  8
Layer_1
 62
5
100
AcDbSpline
 70
8
 71
3
 72
8
 73
4
 74
0
 40
0
 40
0
 40
0
 40
0
 40
1
 40
1
 40
1
 40
1
 10
482.504620
 20
131.876760
 30
0.0
 10
482.504620
 20
131.876760
 30
0.0
 10
458.436050
 20
138.628300
 30
0.0
 10
460.276520
 20
147.294690
 30
0.0
  0
SPLINE
  5
2f1
100
AcDbEntity
  8
Layer_1
 62
5
100
AcDbSpline
 70
8
 71
3
 72
8
 73
4
 74
0
 40
0
 40
0
 40
0
 40
0
 40
1
 40
1
 40
1
 40
1
 10
460.276520
 20
147.294690
 30
0.0
 10
462.116930
 20
155.960990
 30
0.0
 10
465.188660
 20
173.674650
 30
0.0
 10
459.039260
 20
166.516880
 30
0.0
  0
SPLINE
  5
2f2
100
AcDbEntity
  8
Layer_1
 62
5
100
AcDbSpline
 70
8
 71
3
 72
8
 73
4
 74
0
 40
0
 40
0
 40
0
 40
0
 40
1
 40
1
 40
1
 40
1
 10
459.039260
 20
166.516880
 30
0.0
 10
456.360020
 20
163.398270
 30
0.0
 10
455.069110
 20
146.340600
 30
0.0
 10
454.627730
 20
134.344570
 30
0.0
  0
LINE
  5
2f3
100
AcDbEntity
  8
Layer_1
 62
5
100
AcDbLine
 10
414.029230
 20
174.613510
 30
0.0
 11
430.906800
 21
135.769840
 31
0.0
  0
SPLINE
  5
2f4
100
AcDbEntity
  8
Layer_1
 62
5
100
AcDbSpline
 70
8
 71
3
 72
8
 73
4
 74
0
 40
0
 40
0
 40
0
 40
0
 40
1
 40
1
 40
1
 40
1
 10
430.906800
 20
135.769840
 30
0.0
 10
430.906800
 20
135.769840
 30
0.0
 10
424.210260
 20
111.690150
 30
0.0
 10
415.549030
 20
113.549740
 30
0.0
  0
SPLINE
  5
2f5
100
AcDbEntity
  8
Layer_1
 62
5
100
AcDbSpline
 70
8
 71
3
 72
8
 73
4
 74
0
 40
0
 40
0
 40
0
 40
0
 40
1
 40
1
 40
1
 40
1
 10
415.549030
 20
113.549740
 30
0.0
 10
406.887830
 20
115.409450
 30
0.0
 10
389.186060
 20
118.519400
 30
0.0
 10
396.348820
 20
112.349610
 30
0.0
  0
SPLINE
  5
2f6
100
AcDbEntity
  8
Layer_1
 62
5
100
AcDbSpline
 70
8
 71
3
 72
8
 73
4
 74
0
 40
0
 40
0
 40
0
 40
0
 40
1
 40
1
 40
1
 40
1
 10
396.348820
 20
112.349610
 30
0.0
 10
399.443220
 20
109.684270
 30
0.0
 10
413.806330
 20
108.873300
 30
0.0
 10
422.649370
 20
108.036690
 30
0.0
  0
SPLINE
  5
2f7
100
AcDbEntity
  8
Layer_1
 62
5
100
AcDbSpline
 70
8
 71
3
 72
8
 73
4
 74
0
 40
0
 40
0
 40
0
 40
0
 40
1
 40
1
 40
1
 40
1
 10
431.899680
 20
107.795210
 30
0.0
 10
433.303760
 20
107.775910
 30
0.0
 10
434.691840
 20
107.724210
 30
0.0
 10
436.040340
 20
107.717610
 30
0.0
  0
SPLINE
  5
2f8
100
AcDbEntity
  8
Layer_1
 62
5
100
AcDbSpline
 70
8
 71
3
 72
8
 73
4
 74
0
 40
0
 40
0
 40
0
 40
0
 40
1
 40
1
 40
1
 40
1
 10
445.211080
 20
107.793310
 30
0.0
 10
450.956550
 20
107.864910
 30
0.0
 10
454.812680
 20
108.001910
 30
0.0
 10
454.812680
 20
108.001910
 30
0.0
  0
LINE
  5
2f9
100
AcDbEntity
  8
Layer_1
 62
5
100
AcDbLine
 10
454.812680
 20
108.001910
 30
0.0
 11
454.812680
 21
108.001910
 31
0.0
  0
SPLINE
  5
2fa
100
AcDbEntity
  8
Layer_1
 62
5
100
AcDbSpline
 70
8
 71
3
 72
8
 73
4
 74
0
 40
0
 40
0
 40
0
 40
0
 40
1
 40
1
 40
1
 40
1
 10
454.714280
 20
123.361310
 30
0.0
 10
455.209950
 20
123.664800
 30
0.0
 10
463.074250
 20
122.609900
 30
0.0
 10
462.770260
 20
123.106880
 30
0.0
  0
SPLINE
  5
2fb
100
AcDbEntity
  8
Layer_1
 62
5
100
AcDbSpline
 70
8
 71
3
 72
8
 73
4
 74
0
 40
0
 40
0
 40
0
 40
0
 40
1
 40
1
 40
1
 40
1
 10
462.770260
 20
123.106880
 30
0.0
 10
462.466350
 20
123.603330
 30
0.0
 10
462.959550
 20
134.143600
 30
0.0
 10
462.959550
 20
134.143600
 30
0.0
  0
LINE
  5
2fc
100
AcDbEntity
  8
Layer_1
 62
5
100
AcDbLine
 10
462.959550
 20
134.143600
 30
0.0
 11
454.126670
 21
134.332620
 31
0.0
  0
LINE
  5
2fd
100
AcDbEntity
  8
Layer_1
 62
5
100
AcDbLine
 10
454.126670
 20
134.332620
 30
0.0
 11
454.126670
 21
134.332620
 31
0.0
  0
LINE
  5
2fe
100
AcDbEntity
  8
Layer_1
 62
5
100
AcDbLine
 10
454.531760
 20
123.430680
 30
0.0
 11
454.545160
 21
126.815580
 31
0.0
  0
LINE
  5
2ff
100
AcDbEntity
  8
Layer_1
 62
5
100
AcDbLine
 10
454.614460
 20
130.960130
 30
0.0
 11
454.627760
 21
134.344980
 31
0.0
  0
SPLINE
  5
300
100
AcDbEntity
  8
Layer_1
 62
5
100
AcDbSpline
 70
8
 71
3
 72
8
 73
4
 74
0
 40
0
 40
0
 40
0
 40
0
 40
1
 40
1
 40
1
 40
1
 10
422.403300
 20
107.904360
 30
0.0
 10
422.511040
 20
107.728430
 30
0.0
 10
430.953610
 20
99.287510
 30
0.0
 10
432.376920
 20
98.614610
 30
0.0
  0
SPLINE
  5
301
100
AcDbEntity
  8
Layer_1
 62
5
100
AcDbSpline
 70
8
 71
3
 72
8
 73
4
 74
0
 40
0
 40
0
 40
0
 40
0
 40
1
 40
1
 40
1
 40
1
 10
432.376920
 20
98.614610
 30
0.0
 10
433.800130
 20
97.941480
 30
0.0
 10
445.529560
 20
107.728670
 30
0.0
 10
445.529560
 20
107.728670
 30
0.0
  0
LINE
  5
302
100
AcDbEntity
  8
Layer_1
 62
5
100
AcDbLine
 10
445.529560
 20
107.728670
 30
0.0
 11
445.529560
 21
107.728670
 31
0.0
  0
LINE
  5
303
100
AcDbEntity
  8
Layer_1
 62
5
100
AcDbLine
 10
445.529560
 20
107.728670
 30
0.0
 11
445.529560
 21
107.728670
 31
0.0
  0
SPLINE
  5
304
100
AcDbEntity
  8
Layer_1
 62
5
100
AcDbSpline
 70
8
 71
3
 72
8
 73
4
 74
0
 40
0
 40
0
 40
0
 40
0
 40
1
 40
1
 40
1
 40
1
 10
319.956350
 20
349.922312
 30
0.0
 10
317.395330
 20
342.651605
 30
0.0
 10
306.794120
 20
338.970792
 30
0.0
 10
304.437950
 20
340.416855
 30
0.0
  0
SPLINE
  5
305
100
AcDbEntity
  8
Layer_1
 62
5
100
AcDbSpline
 70
8
 71
3
 72
8
 73
4
 74
0
 40
0
 40
0
 40
0
 40
0
 40
1
 40
1
 40
1
 40
1
 10
304.437950
 20
340.416855
 30
0.0
 10
302.081730
 20
341.863035
 30
0.0
 10
298.830420
 20
343.462270
 30
0.0
 10
296.383440
 20
348.194731
 30
0.0
  0
SPLINE
  5
306
100
AcDbEntity
  8
Layer_1
 62
5
100
AcDbSpline
 70
8
 71
3
 72
8
 73
4
 74
0
 40
0
 40
0
 40
0
 40
0
 40
1
 40
1
 40
1
 40
1
 10
296.383440
 20
348.194731
 30
0.0
 10
294.670660
 20
352.147399
 30
0.0
 10
299.331140
 20
361.264619
 30
0.0
 10
299.331140
 20
361.264619
 30
0.0
  0
SPLINE
  5
307
100
AcDbEntity
  8
Layer_1
 62
5
100
AcDbSpline
 70
8
 71
3
 72
8
 73
4
 74
0
 40
0
 40
0
 40
0
 40
0
 40
1
 40
1
 40
1
 40
1
 10
351.981820
 20
267.239144
 30
0.0
 10
352.424760
 20
267.341379
 30
0.0
 10
357.904580
 20
268.913645
 30
0.0
 10
358.965420
 20
269.209725
 30
0.0
  0
SPLINE
  5
308
100
AcDbEntity
  8
Layer_1
 62
5
100
AcDbSpline
 70
8
 71
3
 72
8
 73
4
 74
0
 40
0
 40
0
 40
0
 40
0
 40
1
 40
1
 40
1
 40
1
 10
358.965420
 20
269.209725
 30
0.0
 10
360.026450
 20
269.505310
 30
0.0
 10
363.879620
 20
271.923028
 30
0.0
 10
364.137650
 20
275.485676
 30
0.0
  0
SPLINE
  5
309
100
AcDbEntity
  8
Layer_1
 62
5
100
AcDbSpline
 70
8
 71
3
 72
8
 73
4
 74
0
 40
0
 40
0
 40
0
 40
0
 40
1
 40
1
 40
1
 40
1
 10
364.137650
 20
275.485676
 30
0.0
 10
364.396390
 20
279.048377
 30
0.0
 10
363.352560
 20
287.819820
 30
0.0
 10
363.352560
 20
287.819820
 30
0.0
  0
LINE
  5
30a
100
AcDbEntity
  8
Layer_1
 62
5
100
AcDbLine
 10
363.352560
 20
287.819820
 30
0.0
 11
363.352560
 21
287.819820
 31
0.0
  0
LINE
  5
30b
100
AcDbEntity
  8
Layer_1
 62
5
100
AcDbLine
 10
363.352560
 20
287.819820
 30
0.0
 11
363.352560
 21
287.819820
 31
0.0
  0
LINE
  5
30c
100
AcDbEntity
  8
Layer_1
 62
5
100
AcDbLine
 10
363.352560
 20
287.819820
 30
0.0
 11
363.352560
 21
287.819820
 31
0.0
  0
SPLINE
  5
30d
100
AcDbEntity
  8
Layer_1
 62
5
100
AcDbSpline
 70
8
 71
3
 72
8
 73
4
 74
0
 40
0
 40
0
 40
0
 40
0
 40
1
 40
1
 40
1
 40
1
 10
294.533560
 20
292.598871
 30
0.0
 10
294.533560
 20
292.598871
 30
0.0
 10
296.578130
 20
305.356709
 30
0.0
 10
298.927850
 20
313.444112
 30
0.0
  0
SPLINE
  5
30e
100
AcDbEntity
  8
Layer_1
 62
5
100
AcDbSpline
 70
8
 71
3
 72
8
 73
4
 74
0
 40
0
 40
0
 40
0
 40
0
 40
1
 40
1
 40
1
 40
1
 10
298.927850
 20
313.444112
 30
0.0
 10
301.277860
 20
321.531608
 30
0.0
 10
315.766400
 20
320.968736
 30
0.0
 10
318.499640
 20
326.820349
 30
0.0
  0
SPLINE
  5
30f
100
AcDbEntity
  8
Layer_1
 62
5
100
AcDbSpline
 70
8
 71
3
 72
8
 73
4
 74
0
 40
0
 40
0
 40
0
 40
0
 40
1
 40
1
 40
1
 40
1
 10
318.499640
 20
326.820349
 30
0.0
 10
321.232750
 20
332.672159
 30
0.0
 10
334.804340
 20
342.031974
 30
0.0
 10
325.003640
 20
347.537830
 30
0.0
  0
SPLINE
  5
310
100
AcDbEntity
  8
Layer_1
 62
5
100
AcDbSpline
 70
8
 71
3
 72
8
 73
4
 74
0
 40
0
 40
0
 40
0
 40
0
 40
1
 40
1
 40
1
 40
1
 10
325.003640
 20
347.537830
 30
0.0
 10
323.319560
 20
348.484177
 30
0.0
 10
321.613450
 20
349.202050
 30
0.0
 10
319.930300
 20
349.768049
 30
0.0
  0
SPLINE
  5
311
100
AcDbEntity
  8
Layer_1
 62
5
100
AcDbSpline
 70
8
 71
3
 72
8
 73
4
 74
0
 40
0
 40
0
 40
0
 40
0
 40
1
 40
1
 40
1
 40
1
 10
311.651910
 20
351.734250
 30
0.0
 10
307.107440
 20
352.565900
 30
0.0
 10
303.530350
 20
353.201376
 30
0.0
 10
302.259250
 20
355.895536
 30
0.0
  0
SPLINE
  5
312
100
AcDbEntity
  8
Layer_1
 62
5
100
AcDbSpline
 70
8
 71
3
 72
8
 73
4
 74
0
 40
0
 40
0
 40
0
 40
0
 40
1
 40
1
 40
1
 40
1
 10
299.197980
 20
361.094771
 30
0.0
 10
296.154320
 20
365.695573
 30
0.0
 10
292.383980
 20
370.499301
 30
0.0
 10
292.383980
 20
370.499301
 30
0.0
  0
SPLINE
  5
313
100
AcDbEntity
  8
Layer_1
 62
5
100
AcDbSpline
 70
8
 71
3
 72
8
 73
4
 74
0
 40
0
 40
0
 40
0
 40
0
 40
1
 40
1
 40
1
 40
1
 10
294.533580
 20
292.598574
 30
0.0
 10
294.533580
 20
292.598574
 30
0.0
 10
307.312840
 20
290.517473
 30
0.0
 10
315.410200
 20
288.146906
 30
0.0
  0
SPLINE
  5
314
100
AcDbEntity
  8
Layer_1
 62
5
100
AcDbSpline
 70
8
 71
3
 72
8
 73
4
 74
0
 40
0
 40
0
 40
0
 40
0
 40
1
 40
1
 40
1
 40
1
 10
315.410200
 20
288.146906
 30
0.0
 10
323.507580
 20
285.776475
 30
0.0
 10
322.893330
 20
271.322123
 30
0.0
 10
328.748600
 20
268.576186
 30
0.0
  0
SPLINE
  5
315
100
AcDbEntity
  8
Layer_1
 62
5
100
AcDbSpline
 70
8
 71
3
 72
8
 73
4
 74
0
 40
0
 40
0
 40
0
 40
0
 40
1
 40
1
 40
1
 40
1
 10
328.748600
 20
268.576186
 30
0.0
 10
334.603980
 20
265.830358
 30
0.0
 10
343.937660
 20
252.259142
 30
0.0
 10
349.489830
 20
262.020197
 30
0.0
  0
SPLINE
  5
316
100
AcDbEntity
  8
Layer_1
 62
5
100
AcDbSpline
 70
8
 71
3
 72
8
 73
4
 74
0
 40
0
 40
0
 40
0
 40
0
 40
1
 40
1
 40
1
 40
1
 10
349.489830
 20
262.020197
 30
0.0
 10
352.144700
 20
266.687624
 30
0.0
 10
352.084620
 20
271.152462
 30
0.0
 10
353.788240
 20
275.576752
 30
0.0
  0
SPLINE
  5
317
100
AcDbEntity
  8
Layer_1
 62
5
100
AcDbSpline
 70
8
 71
3
 72
8
 73
4
 74
0
 40
0
 40
0
 40
0
 40
0
 40
1
 40
1
 40
1
 40
1
 10
357.944830
 20
284.686763
 30
0.0
 10
363.033090
 20
287.056417
 30
0.0
 10
372.615400
 20
294.492962
 30
0.0
 10
372.615400
 20
294.492962
 30
0.0
  0
SPLINE
  5
318
100
AcDbEntity
  8
Layer_1
 62
5
100
AcDbSpline
 70
8
 71
3
 72
8
 73
4
 74
0
 40
0
 40
0
 40
0
 40
0
 40
1
 40
1
 40
1
 40
1
 10
362.994410
 20
359.167594
 30
0.0
 10
367.369020
 20
366.807752
 30
0.0
 10
370.459160
 20
372.653410
 30
0.0
 10
370.459160
 20
372.653410
 30
0.0
  0
LINE
  5
319
100
AcDbEntity
  8
Layer_1
 62
5
100
AcDbLine
 10
370.459160
 20
372.653410
 30
0.0
 11
370.459160
 21
372.653410
 31
0.0
  0
LINE
  5
31a
100
AcDbEntity
  8
Layer_1
 62
5
100
AcDbLine
 10
292.383980
 20
370.499002
 30
0.0
 11
334.470960
 21
365.769426
 31
0.0
  0
SPLINE
  5
31b
100
AcDbEntity
  8
Layer_1
 62
5
100
AcDbSpline
 70
8
 71
3
 72
8
 73
4
 74
0
 40
0
 40
0
 40
0
 40
0
 40
1
 40
1
 40
1
 40
1
 10
334.470960
 20
365.769426
 30
0.0
 10
334.470960
 20
365.769426
 30
0.0
 10
352.008430
 20
347.961780
 30
0.0
 10
346.079210
 20
341.380034
 30
0.0
  0
SPLINE
  5
31c
100
AcDbEntity
  8
Layer_1
 62
5
100
AcDbSpline
 70
8
 71
3
 72
8
 73
4
 74
0
 40
0
 40
0
 40
0
 40
0
 40
1
 40
1
 40
1
 40
1
 10
346.079210
 20
341.380034
 30
0.0
 10
340.149900
 20
334.798479
 30
0.0
 10
328.630360
 20
321.002470
 30
0.0
 10
337.549510
 20
324.136701
 30
0.0
  0
SPLINE
  5
31d
100
AcDbEntity
  8
Layer_1
 62
5
100
AcDbSpline
 70
8
 71
3
 72
8
 73
4
 74
0
 40
0
 40
0
 40
0
 40
0
 40
1
 40
1
 40
1
 40
1
 10
337.549510
 20
324.136701
 30
0.0
 10
341.435410
 20
325.502291
 30
0.0
 10
351.080170
 20
339.616109
 30
0.0
 10
357.457510
 20
349.773881
 30
0.0
  0
LINE
  5
31e
100
AcDbEntity
  8
Layer_1
 62
5
100
AcDbLine
 10
372.608730
 20
294.752976
 30
0.0
 11
377.354230
 21
336.746441
 31
0.0
  0
SPLINE
  5
31f
100
AcDbEntity
  8
Layer_1
 62
5
100
AcDbSpline
 70
8
 71
3
 72
8
 73
4
 74
0
 40
0
 40
0
 40
0
 40
0
 40
1
 40
1
 40
1
 40
1
 10
377.354230
 20
336.746441
 30
0.0
 10
377.354230
 20
336.746441
 30
0.0
 10
395.203890
 20
354.246961
 30
0.0
 10
401.799650
 20
348.331837
 30
0.0
  0
SPLINE
  5
320
100
AcDbEntity
  8
Layer_1
 62
5
100
AcDbSpline
 70
8
 71
3
 72
8
 73
4
 74
0
 40
0
 40
0
 40
0
 40
0
 40
1
 40
1
 40
1
 40
1
 10
401.799650
 20
348.331837
 30
0.0
 10
408.395280
 20
342.416549
 30
0.0
 10
422.220600
 20
330.924548
 30
0.0
 10
419.080450
 20
339.823326
 30
0.0
  0
SPLINE
  5
321
100
AcDbEntity
  8
Layer_1
 62
5
100
AcDbSpline
 70
8
 71
3
 72
8
 73
4
 74
0
 40
0
 40
0
 40
0
 40
0
 40
1
 40
1
 40
1
 40
1
 10
419.080450
 20
339.823326
 30
0.0
 10
417.723890
 20
343.667662
 30
0.0
 10
405.650420
 20
351.510571
 30
0.0
 10
398.385520
 20
356.631326
 30
0.0
  0
SPLINE
  5
322
100
AcDbEntity
  8
Layer_1
 62
5
100
AcDbSpline
 70
8
 71
3
 72
8
 73
4
 74
0
 40
0
 40
0
 40
0
 40
0
 40
1
 40
1
 40
1
 40
1
 10
390.469410
 20
361.439532
 30
0.0
 10
389.259210
 20
362.154599
 30
0.0
 10
388.079130
 20
362.889380
 30
0.0
 10
386.910820
 20
363.565483
 30
0.0
  0
SPLINE
  5
323
100
AcDbEntity
  8
Layer_1
 62
5
100
AcDbSpline
 70
8
 71
3
 72
8
 73
4
 74
0
 40
0
 40
0
 40
0
 40
0
 40
1
 40
1
 40
1
 40
1
 10
378.905340
 20
368.059921
 30
0.0
 10
373.877910
 20
370.854699
 30
0.0
 10
370.459210
 20
372.653487
 30
0.0
 10
370.459210
 20
372.653487
 30
0.0
  0
LINE
  5
324
100
AcDbEntity
  8
Layer_1
 62
5
100
AcDbLine
 10
370.459210
 20
372.653487
 30
0.0
 11
370.459210
 21
372.653487
 31
0.0
  0
SPLINE
  5
325
100
AcDbEntity
  8
Layer_1
 62
5
100
AcDbSpline
 70
8
 71
3
 72
8
 73
4
 74
0
 40
0
 40
0
 40
0
 40
0
 40
1
 40
1
 40
1
 40
1
 10
362.870250
 20
359.317964
 30
0.0
 10
362.288270
 20
359.301954
 30
0.0
 10
355.982530
 20
364.124799
 30
0.0
 10
355.998570
 20
363.544141
 30
0.0
  0
SPLINE
  5
326
100
AcDbEntity
  8
Layer_1
 62
5
100
AcDbSpline
 70
8
 71
3
 72
8
 73
4
 74
0
 40
0
 40
0
 40
0
 40
0
 40
1
 40
1
 40
1
 40
1
 10
355.998570
 20
363.544141
 30
0.0
 10
356.014670
 20
362.963273
 30
0.0
 10
350.319470
 20
354.090906
 30
0.0
 10
350.319470
 20
354.090906
 30
0.0
  0
LINE
  5
327
100
AcDbEntity
  8
Layer_1
 62
5
100
AcDbLine
 10
350.319470
 20
354.090906
 30
0.0
 11
357.899100
 21
349.535548
 31
0.0
  0
LINE
  5
328
100
AcDbEntity
  8
Layer_1
 62
5
100
AcDbLine
 10
357.899100
 20
349.535548
 30
0.0
 11
357.899100
 21
349.535548
 31
0.0
  0
LINE
  5
329
100
AcDbEntity
  8
Layer_1
 62
5
100
AcDbLine
 10
362.994460
 20
359.167656
 30
0.0
 11
361.291610
 21
356.246170
 31
0.0
  0
LINE
  5
32a
100
AcDbEntity
  8
Layer_1
 62
5
100
AcDbLine
 10
359.160340
 20
352.695336
 30
0.0
 11
357.457570
 21
349.773961
 31
0.0
  0
SPLINE
  5
32b
100
AcDbEntity
  8
Layer_1
 62
5
100
AcDbSpline
 70
8
 71
3
 72
8
 73
4
 74
0
 40
0
 40
0
 40
0
 40
0
 40
1
 40
1
 40
1
 40
1
 10
398.665790
 20
356.623831
 30
0.0
 10
398.659790
 20
356.829350
 30
0.0
 10
395.542730
 20
368.329137
 30
0.0
 10
394.642320
 20
369.618985
 30
0.0
  0
SPLINE
  5
32c
100
AcDbEntity
  8
Layer_1
 62
5
100
AcDbSpline
 70
8
 71
3
 72
8
 73
4
 74
0
 40
0
 40
0
 40
0
 40
0
 40
1
 40
1
 40
1
 40
1
 10
394.642320
 20
369.618985
 30
0.0
 10
393.742090
 20
370.908839
 30
0.0
 10
378.661310
 20
368.274658
 30
0.0
 10
378.661310
 20
368.274658
 30
0.0
  0
LINE
  5
32d
100
AcDbEntity
  8
Layer_1
 62
5
100
AcDbLine
 10
378.661310
 20
368.274658
 30
0.0
 11
378.661310
 21
368.274658
 31
0.0
  0
LINE
  5
32e
100
AcDbEntity
  8
Layer_1
 62
5
100
AcDbLine
 10
378.661310
 20
368.274658
 30
0.0
 11
378.661310
 21
368.274658
 31
0.0
  0
SPLINE
  5
32f
100
AcDbEntity
  8
Layer_1
 62
5
100
AcDbSpline
 70
8
 71
3
 72
8
 73
4
 74
0
 40
0
 40
0
 40
0
 40
0
 40
1
 40
1
 40
1
 40
1
 10
343.169370
 20
77.112560
 30
0.0
 10
347.984350
 20
71.092510
 30
0.0
 10
345.498940
 20
60.149330
 30
0.0
 10
343.025200
 20
58.914900
 30
0.0
  0
SPLINE
  5
330
100
AcDbEntity
  8
Layer_1
 62
5
100
AcDbSpline
 70
8
 71
3
 72
8
 73
4
 74
0
 40
0
 40
0
 40
0
 40
0
 40
1
 40
1
 40
1
 40
1
 10
343.025200
 20
58.914900
 30
0.0
 10
340.551470
 20
57.680640
 30
0.0
 10
337.474130
 20
55.767590
 30
0.0
 10
332.163710
 20
56.195170
 30
0.0
  0
SPLINE
  5
331
100
AcDbEntity
  8
Layer_1
 62
5
100
AcDbSpline
 70
8
 71
3
 72
8
 73
4
 74
0
 40
0
 40
0
 40
0
 40
0
 40
1
 40
1
 40
1
 40
1
 10
332.163710
 20
56.195170
 30
0.0
 10
327.903390
 20
56.832960
 30
0.0
 10
322.632390
 20
65.611310
 30
0.0
 10
322.632390
 20
65.611310
 30
0.0
  0
SPLINE
  5
332
100
AcDbEntity
  8
Layer_1
 62
5
100
AcDbSpline
 70
8
 71
3
 72
8
 73
4
 74
0
 40
0
 40
0
 40
0
 40
0
 40
1
 40
1
 40
1
 40
1
 10
430.276350
 20
60.543430
 30
0.0
 10
430.423920
 20
60.973420
 30
0.0
 10
431.988900
 20
66.455440
 30
0.0
 10
432.299010
 20
67.512230
 30
0.0
  0
SPLINE
  5
333
100
AcDbEntity
  8
Layer_1
 62
5
100
AcDbSpline
 70
8
 71
3
 72
8
 73
4
 74
0
 40
0
 40
0
 40
0
 40
0
 40
1
 40
1
 40
1
 40
1
 10
432.299010
 20
67.512230
 30
0.0
 10
432.609520
 20
68.568900
 30
0.0
 10
432.596360
 20
73.117720
 30
0.0
 10
429.709720
 20
75.221680
 30
0.0
  0
SPLINE
  5
334
100
AcDbEntity
  8
Layer_1
 62
5
100
AcDbSpline
 70
8
 71
3
 72
8
 73
4
 74
0
 40
0
 40
0
 40
0
 40
0
 40
1
 40
1
 40
1
 40
1
 10
429.709720
 20
75.221680
 30
0.0
 10
426.823390
 20
77.326140
 30
0.0
 10
418.827960
 20
81.081010
 30
0.0
 10
418.827960
 20
81.081010
 30
0.0
  0
LINE
  5
335
100
AcDbEntity
  8
Layer_1
 62
5
100
AcDbLine
 10
418.827960
 20
81.081010
 30
0.0
 11
418.827960
 21
81.081010
 31
0.0
  0
LINE
  5
336
100
AcDbEntity
  8
Layer_1
 62
5
100
AcDbLine
 10
418.827960
 20
81.081010
 30
0.0
 11
418.827960
 21
81.081010
 31
0.0
  0
LINE
  5
337
100
AcDbEntity
  8
Layer_1
 62
5
100
AcDbLine
 10
418.827960
 20
81.081010
 30
0.0
 11
418.827960
 21
81.081010
 31
0.0
  0
SPLINE
  5
338
100
AcDbEntity
  8
Layer_1
 62
5
100
AcDbSpline
 70
8
 71
3
 72
8
 73
4
 74
0
 40
0
 40
0
 40
0
 40
0
 40
1
 40
1
 40
1
 40
1
 10
378.362460
 20
25.211290
 30
0.0
 10
378.362460
 20
25.211290
 30
0.0
 10
368.618090
 20
33.695960
 30
0.0
 10
362.998590
 20
39.968710
 30
0.0
  0
SPLINE
  5
339
100
AcDbEntity
  8
Layer_1
 62
5
100
AcDbSpline
 70
8
 71
3
 72
8
 73
4
 74
0
 40
0
 40
0
 40
0
 40
0
 40
1
 40
1
 40
1
 40
1
 10
362.998590
 20
39.968710
 30
0.0
 10
357.378960
 20
46.241790
 30
0.0
 10
365.522100
 20
58.238740
 30
0.0
 10
362.002550
 20
63.653930
 30
0.0
  0
SPLINE
  5
33a
100
AcDbEntity
  8
Layer_1
 62
5
100
AcDbSpline
 70
8
 71
3
 72
8
 73
4
 74
0
 40
0
 40
0
 40
0
 40
0
 40
1
 40
1
 40
1
 40
1
 10
362.002550
 20
63.653930
 30
0.0
 10
358.482830
 20
69.069230
 30
0.0
 10
357.720580
 20
85.537670
 30
0.0
 10
347.863180
 20
80.134010
 30
0.0
  0
SPLINE
  5
33b
100
AcDbEntity
  8
Layer_1
 62
5
100
AcDbSpline
 70
8
 71
3
 72
8
 73
4
 74
0
 40
0
 40
0
 40
0
 40
0
 40
1
 40
1
 40
1
 40
1
 10
347.863180
 20
80.134010
 30
0.0
 10
346.169210
 20
79.205660
 30
0.0
 10
344.657520
 20
78.137760
 30
0.0
 10
343.286520
 20
77.008800
 30
0.0
  0
SPLINE
  5
33c
100
AcDbEntity
  8
Layer_1
 62
5
100
AcDbSpline
 70
8
 71
3
 72
8
 73
4
 74
0
 40
0
 40
0
 40
0
 40
0
 40
1
 40
1
 40
1
 40
1
 10
337.238210
 20
71.024220
 30
0.0
 10
334.128230
 20
67.608060
 30
0.0
 10
331.696440
 20
64.908820
 30
0.0
 10
328.737750
 20
65.255610
 30
0.0
  0
SPLINE
  5
33d
100
AcDbEntity
  8
Layer_1
 62
5
100
AcDbSpline
 70
8
 71
3
 72
8
 73
4
 74
0
 40
0
 40
0
 40
0
 40
0
 40
1
 40
1
 40
1
 40
1
 10
322.706050
 20
65.408450
 30
0.0
 10
317.191780
 20
65.259930
 30
0.0
 10
311.120520
 20
64.601980
 30
0.0
 10
311.120520
 20
64.601980
 30
0.0
  0
SPLINE
  5
33e
100
AcDbEntity
  8
Layer_1
 62
5
100
AcDbSpline
 70
8
 71
3
 72
8
 73
4
 74
0
 40
0
 40
0
 40
0
 40
0
 40
1
 40
1
 40
1
 40
1
 10
378.362710
 20
25.211130
 30
0.0
 10
378.362710
 20
25.211130
 30
0.0
 10
386.889850
 20
34.954390
 30
0.0
 10
393.185480
 20
40.571360
 30
0.0
  0
SPLINE
  5
33f
100
AcDbEntity
  8
Layer_1
 62
5
100
AcDbSpline
 70
8
 71
3
 72
8
 73
4
 74
0
 40
0
 40
0
 40
0
 40
0
 40
1
 40
1
 40
1
 40
1
 10
393.185480
 20
40.571360
 30
0.0
 10
399.481070
 20
46.188480
 30
0.0
 10
411.421820
 20
38.019850
 30
0.0
 10
416.849710
 20
41.535760
 30
0.0
  0
SPLINE
  5
340
100
AcDbEntity
  8
Layer_1
 62
5
100
AcDbSpline
 70
8
 71
3
 72
8
 73
4
 74
0
 40
0
 40
0
 40
0
 40
0
 40
1
 40
1
 40
1
 40
1
 10
416.849710
 20
41.535760
 30
0.0
 10
422.277680
 20
45.051770
 30
0.0
 10
438.732160
 20
45.791950
 30
0.0
 10
433.386540
 20
55.667730
 30
0.0
  0
SPLINE
  5
341
100
AcDbEntity
  8
Layer_1
 62
5
100
AcDbSpline
 70
8
 71
3
 72
8
 73
4
 74
0
 40
0
 40
0
 40
0
 40
0
 40
1
 40
1
 40
1
 40
1
 10
433.386540
 20
55.667730
 30
0.0
 10
430.830370
 20
60.389870
 30
0.0
 10
427.009940
 20
62.701220
 30
0.0
 10
424.156920
 20
66.487620
 30
0.0
  0
SPLINE
  5
342
100
AcDbEntity
  8
Layer_1
 62
5
100
AcDbSpline
 70
8
 71
3
 72
8
 73
4
 74
0
 40
0
 40
0
 40
0
 40
0
 40
1
 40
1
 40
1
 40
1
 10
418.625620
 20
74.834700
 30
0.0
 10
419.306720
 20
80.406030
 30
0.0
 10
418.065970
 20
92.472050
 30
0.0
 10
418.065970
 20
92.472050
 30
0.0
  0
SPLINE
  5
343
100
AcDbEntity
  8
Layer_1
 62
5
100
AcDbSpline
 70
8
 71
3
 72
8
 73
4
 74
0
 40
0
 40
0
 40
0
 40
0
 40
1
 40
1
 40
1
 40
1
 10
358.094280
 20
118.525040
 30
0.0
 10
353.925420
 20
126.279500
 30
0.0
 10
350.599900
 20
131.994650
 30
0.0
 10
350.599900
 20
131.994650
 30
0.0
  0
LINE
  5
344
100
AcDbEntity
  8
Layer_1
 62
5
100
AcDbLine
 10
350.599900
 20
131.994650
 30
0.0
 11
350.599900
 21
131.994650
 31
0.0
  0
LINE
  5
345
100
AcDbEntity
  8
Layer_1
 62
5
100
AcDbLine
 10
311.120810
 20
64.601830
 30
0.0
 11
337.401190
 21
97.813640
 31
0.0
  0
SPLINE
  5
346
100
AcDbEntity
  8
Layer_1
 62
5
100
AcDbSpline
 70
8
 71
3
 72
8
 73
4
 74
0
 40
0
 40
0
 40
0
 40
0
 40
1
 40
1
 40
1
 40
1
 10
337.401190
 20
97.813640
 30
0.0
 10
337.401190
 20
97.813640
 30
0.0
 10
361.790900
 20
103.274060
 30
0.0
 10
364.239080
 20
94.760460
 30
0.0
  0
SPLINE
  5
347
100
AcDbEntity
  8
Layer_1
 62
5
100
AcDbSpline
 70
8
 71
3
 72
8
 73
4
 74
0
 40
0
 40
0
 40
0
 40
0
 40
1
 40
1
 40
1
 40
1
 10
364.239080
 20
94.760460
 30
0.0
 10
366.687190
 20
86.246770
 30
0.0
 10
372.299500
 20
69.172630
 30
0.0
 10
374.358570
 20
78.399390
 30
0.0
  0
SPLINE
  5
348
100
AcDbEntity
  8
Layer_1
 62
5
100
AcDbSpline
 70
8
 71
3
 72
8
 73
4
 74
0
 40
0
 40
0
 40
0
 40
0
 40
1
 40
1
 40
1
 40
1
 10
374.358570
 20
78.399390
 30
0.0
 10
375.255730
 20
82.419490
 30
0.0
 10
368.381720
 20
98.070830
 30
0.0
 10
363.136140
 20
108.856760
 30
0.0
  0
LINE
  5
349
100
AcDbEntity
  8
Layer_1
 62
5
100
AcDbLine
 10
417.841810
 20
92.603950
 30
0.0
 11
384.717640
 21
118.848170
 31
0.0
  0
SPLINE
  5
34a
100
AcDbEntity
  8
Layer_1
 62
5
100
AcDbSpline
 70
8
 71
3
 72
8
 73
4
 74
0
 40
0
 40
0
 40
0
 40
0
 40
1
 40
1
 40
1
 40
1
 10
384.717640
 20
118.848170
 30
0.0
 10
384.717640
 20
118.848170
 30
0.0
 10
379.310860
 20
143.254100
 30
0.0
 10
387.819920
 20
145.721620
 30
0.0
  0
SPLINE
  5
34b
100
AcDbEntity
  8
Layer_1
 62
5
100
AcDbSpline
 70
8
 71
3
 72
8
 73
4
 74
0
 40
0
 40
0
 40
0
 40
0
 40
1
 40
1
 40
1
 40
1
 10
387.819920
 20
145.721620
 30
0.0
 10
396.329110
 20
148.188940
 30
0.0
 10
413.395560
 20
153.840750
 30
0.0
 10
404.182890
 20
155.884160
 30
0.0
  0
SPLINE
  5
34c
100
AcDbEntity
  8
Layer_1
 62
5
100
AcDbSpline
 70
8
 71
3
 72
8
 73
4
 74
0
 40
0
 40
0
 40
0
 40
0
 40
1
 40
1
 40
1
 40
1
 10
404.182890
 20
155.884160
 30
0.0
 10
400.202940
 20
156.766940
 30
0.0
 10
387.159850
 20
150.671080
 30
0.0
 10
378.970840
 20
147.215470
 30
0.0
  0
SPLINE
  5
34d
100
AcDbEntity
  8
Layer_1
 62
5
100
AcDbSpline
 70
8
 71
3
 72
8
 73
4
 74
0
 40
0
 40
0
 40
0
 40
0
 40
1
 40
1
 40
1
 40
1
 10
370.702530
 20
143.041900
 30
0.0
 10
369.455490
 20
142.393290
 30
0.0
 10
368.207590
 20
141.780620
 30
0.0
 10
367.015810
 20
141.146970
 30
0.0
  0
SPLINE
  5
34e
100
AcDbEntity
  8
Layer_1
 62
5
100
AcDbSpline
 70
8
 71
3
 72
8
 73
4
 74
0
 40
0
 40
0
 40
0
 40
0
 40
1
 40
1
 40
1
 40
1
 10
358.966480
 20
136.731560
 30
0.0
 10
353.934960
 20
133.944000
 30
0.0
 10
350.599870
 20
131.994690
 30
0.0
 10
350.599870
 20
131.994690
 30
0.0
  0
LINE
  5
34f
100
AcDbEntity
  8
Layer_1
 62
5
100
AcDbLine
 10
350.599870
 20
131.994690
 30
0.0
 11
350.599870
 21
131.994690
 31
0.0
  0
SPLINE
  5
350
100
AcDbEntity
  8
Layer_1
 62
5
100
AcDbSpline
 70
8
 71
3
 72
8
 73
4
 74
0
 40
0
 40
0
 40
0
 40
0
 40
1
 40
1
 40
1
 40
1
 10
357.901090
 20
118.499330
 30
0.0
 10
357.606770
 20
117.997010
 30
0.0
 10
350.177900
 20
115.197700
 30
0.0
 10
350.679120
 20
114.904060
 30
0.0
  0
SPLINE
  5
351
100
AcDbEntity
  8
Layer_1
 62
5
100
AcDbSpline
 70
8
 71
3
 72
8
 73
4
 74
0
 40
0
 40
0
 40
0
 40
0
 40
1
 40
1
 40
1
 40
1
 10
350.679120
 20
114.904060
 30
0.0
 10
351.180630
 20
114.610290
 30
0.0
 10
355.696430
 20
105.083510
 30
0.0
 10
355.696430
 20
105.083510
 30
0.0
  0
LINE
  5
352
100
AcDbEntity
  8
Layer_1
 62
5
100
AcDbLine
 10
355.696430
 20
105.083510
 30
0.0
 11
363.572190
 21
109.105300
 31
0.0
  0
LINE
  5
353
100
AcDbEntity
  8
Layer_1
 62
5
100
AcDbLine
 10
363.572190
 20
109.105300
 30
0.0
 11
363.572190
 21
109.105300
 31
0.0
  0
LINE
  5
354
100
AcDbEntity
  8
Layer_1
 62
5
100
AcDbLine
 10
358.094310
 20
118.525100
 30
0.0
 11
359.672430
 21
115.534470
 31
0.0
  0
LINE
  5
355
100
AcDbEntity
  8
Layer_1
 62
5
100
AcDbLine
 10
361.558040
 20
111.847370
 30
0.0
 11
363.136210
 21
108.856850
 31
0.0
  0
SPLINE
  5
356
100
AcDbEntity
  8
Layer_1
 62
5
100
AcDbSpline
 70
8
 71
3
 72
8
 73
4
 74
0
 40
0
 40
0
 40
0
 40
0
 40
1
 40
1
 40
1
 40
1
 10
379.125550
 20
147.449250
 30
0.0
 10
378.948180
 20
147.553190
 30
0.0
 10
367.540430
 20
150.991960
 30
0.0
 10
365.969480
 20
150.910430
 30
0.0
  0
SPLINE
  5
357
100
AcDbEntity
  8
Layer_1
 62
5
100
AcDbSpline
 70
8
 71
3
 72
8
 73
4
 74
0
 40
0
 40
0
 40
0
 40
0
 40
1
 40
1
 40
1
 40
1
 10
365.969480
 20
150.910430
 30
0.0
 10
364.398700
 20
150.829030
 30
0.0
 10
358.655280
 20
136.638000
 30
0.0
 10
358.655280
 20
136.638000
 30
0.0
  0
LINE
  5
358
100
AcDbEntity
  8
Layer_1
 62
5
100
AcDbLine
 10
358.655280
 20
136.638000
 30
0.0
 11
358.655280
 21
136.638000
 31
0.0
  0
LINE
  5
359
100
AcDbEntity
  8
Layer_1
 62
5
100
AcDbLine
 10
358.655280
 20
136.638000
 30
0.0
 11
358.655280
 21
136.638000
 31
0.0
  0
SPLINE
  5
35a
100
AcDbEntity
  8
Layer_1
 62
5
100
AcDbSpline
 70
8
 71
3
 72
8
 73
4
 74
0
 40
0
 40
0
 40
0
 40
0
 40
1
 40
1
 40
1
 40
1
 10
347.922890
 20
186.966710
 30
0.0
 10
355.550150
 20
188.082850
 30
0.0
 10
363.740940
 20
180.411830
 30
0.0
 10
363.557300
 20
177.653410
 30
0.0
  0
SPLINE
  5
35b
100
AcDbEntity
  8
Layer_1
 62
5
100
AcDbSpline
 70
8
 71
3
 72
8
 73
4
 74
0
 40
0
 40
0
 40
0
 40
0
 40
1
 40
1
 40
1
 40
1
 10
363.557300
 20
177.653410
 30
0.0
 10
363.373550
 20
174.894880
 30
0.0
 10
363.470800
 20
171.272840
 30
0.0
 10
360.420410
 20
166.904900
 30
0.0
  0
SPLINE
  5
35c
100
AcDbEntity
  8
Layer_1
 62
5
100
AcDbSpline
 70
8
 71
3
 72
8
 73
4
 74
0
 40
0
 40
0
 40
0
 40
0
 40
1
 40
1
 40
1
 40
1
 10
360.420410
 20
166.904900
 30
0.0
 10
357.718640
 20
163.549650
 30
0.0
 10
347.480080
 20
163.432660
 30
0.0
 10
347.480080
 20
163.432660
 30
0.0
  0
SPLINE
  5
35d
100
AcDbEntity
  8
Layer_1
 62
5
100
AcDbSpline
 70
8
 71
3
 72
8
 73
4
 74
0
 40
0
 40
0
 40
0
 40
0
 40
1
 40
1
 40
1
 40
1
 10
406.208740
 20
253.786455
 30
0.0
 10
405.912130
 20
254.130958
 30
0.0
 10
401.970700
 20
258.249884
 30
0.0
 10
401.215030
 20
259.051124
 30
0.0
  0
SPLINE
  5
35e
100
AcDbEntity
  8
Layer_1
 62
5
100
AcDbSpline
 70
8
 71
3
 72
8
 73
4
 74
0
 40
0
 40
0
 40
0
 40
0
 40
1
 40
1
 40
1
 40
1
 10
401.215030
 20
259.051124
 30
0.0
 10
400.459700
 20
259.852791
 30
0.0
 10
396.526770
 20
262.138475
 30
0.0
 10
393.253190
 20
260.709167
 30
0.0
  0
SPLINE
  5
35f
100
AcDbEntity
  8
Layer_1
 62
5
100
AcDbSpline
 70
8
 71
3
 72
8
 73
4
 74
0
 40
0
 40
0
 40
0
 40
0
 40
1
 40
1
 40
1
 40
1
 10
393.253190
 20
260.709167
 30
0.0
 10
389.979270
 20
259.280473
 30
0.0
 10
382.700880
 20
254.275164
 30
0.0
 10
382.700880
 20
254.275164
 30
0.0
  0
LINE
  5
360
100
AcDbEntity
  8
Layer_1
 62
5
100
AcDbLine
 10
382.700880
 20
254.275164
 30
0.0
 11
382.700880
 21
254.275164
 31
0.0
  0
LINE
  5
361
100
AcDbEntity
  8
Layer_1
 62
5
100
AcDbLine
 10
382.700880
 20
254.275164
 30
0.0
 11
382.700880
 21
254.275164
 31
0.0
  0
LINE
  5
362
100
AcDbEntity
  8
Layer_1
 62
5
100
AcDbLine
 10
382.700880
 20
254.275164
 30
0.0
 11
382.700880
 21
254.275164
 31
0.0
  0
SPLINE
  5
363
100
AcDbEntity
  8
Layer_1
 62
5
100
AcDbSpline
 70
8
 71
3
 72
8
 73
4
 74
0
 40
0
 40
0
 40
0
 40
0
 40
1
 40
1
 40
1
 40
1
 10
410.492060
 20
191.136130
 30
0.0
 10
410.492060
 20
191.136130
 30
0.0
 10
398.248080
 20
187.009680
 30
0.0
 10
389.996160
 20
185.326480
 30
0.0
  0
SPLINE
  5
364
100
AcDbEntity
  8
Layer_1
 62
5
100
AcDbSpline
 70
8
 71
3
 72
8
 73
4
 74
0
 40
0
 40
0
 40
0
 40
0
 40
1
 40
1
 40
1
 40
1
 10
389.996160
 20
185.326480
 30
0.0
 10
381.744020
 20
183.643530
 30
0.0
 10
375.500770
 20
196.730010
 30
0.0
 10
369.049420
 20
196.426600
 30
0.0
  0
SPLINE
  5
365
100
AcDbEntity
  8
Layer_1
 62
5
100
AcDbSpline
 70
8
 71
3
 72
8
 73
4
 74
0
 40
0
 40
0
 40
0
 40
0
 40
1
 40
1
 40
1
 40
1
 10
369.049420
 20
196.426600
 30
0.0
 10
362.597930
 20
196.122990
 30
0.0
 10
347.998310
 20
203.780781
 30
0.0
 10
347.685040
 20
192.543830
 30
0.0
  0
SPLINE
  5
366
100
AcDbEntity
  8
Layer_1
 62
5
100
AcDbSpline
 70
8
 71
3
 72
8
 73
4
 74
0
 40
0
 40
0
 40
0
 40
0
 40
1
 40
1
 40
1
 40
1
 10
347.685040
 20
192.543830
 30
0.0
 10
347.630940
 20
190.612810
 30
0.0
 10
347.789400
 20
188.768630
 30
0.0
 10
348.071560
 20
187.015420
 30
0.0
  0
SPLINE
  5
367
100
AcDbEntity
  8
Layer_1
 62
5
100
AcDbSpline
 70
8
 71
3
 72
8
 73
4
 74
0
 40
0
 40
0
 40
0
 40
0
 40
1
 40
1
 40
1
 40
1
 10
350.183070
 20
178.772910
 30
0.0
 10
351.561430
 20
174.363370
 30
0.0
 10
352.663350
 20
170.901420
 30
0.0
 10
350.870060
 20
168.522710
 30
0.0
  0
SPLINE
  5
368
100
AcDbEntity
  8
Layer_1
 62
5
100
AcDbSpline
 70
8
 71
3
 72
8
 73
4
 74
0
 40
0
 40
0
 40
0
 40
0
 40
1
 40
1
 40
1
 40
1
 10
347.692370
 20
163.393810
 30
0.0
 10
345.036190
 20
158.558950
 30
0.0
 10
342.538500
 20
152.986470
 30
0.0
 10
342.538500
 20
152.986470
 30
0.0
  0
SPLINE
  5
369
100
AcDbEntity
  8
Layer_1
 62
5
100
AcDbSpline
 70
8
 71
3
 72
8
 73
4
 74
0
 40
0
 40
0
 40
0
 40
0
 40
1
 40
1
 40
1
 40
1
 10
410.492320
 20
191.136280
 30
0.0
 10
410.492320
 20
191.136280
 30
0.0
 10
406.388250
 20
203.416181
 30
0.0
 10
404.718860
 20
211.686583
 30
0.0
  0
SPLINE
  5
36a
100
AcDbEntity
  8
Layer_1
 62
5
100
AcDbSpline
 70
8
 71
3
 72
8
 73
4
 74
0
 40
0
 40
0
 40
0
 40
0
 40
1
 40
1
 40
1
 40
1
 10
404.718860
 20
211.686583
 30
0.0
 10
403.049380
 20
219.956972
 30
0.0
 10
416.129500
 20
226.138863
 30
0.0
 10
415.835630
 20
232.599357
 30
0.0
  0
SPLINE
  5
36b
100
AcDbEntity
  8
Layer_1
 62
5
100
AcDbSpline
 70
8
 71
3
 72
8
 73
4
 74
0
 40
0
 40
0
 40
0
 40
0
 40
1
 40
1
 40
1
 40
1
 10
415.835630
 20
232.599357
 30
0.0
 10
415.541630
 20
239.059886
 30
0.0
 10
423.211280
 20
253.636305
 30
0.0
 10
411.987830
 20
254.009031
 30
0.0
  0
SPLINE
  5
36c
100
AcDbEntity
  8
Layer_1
 62
5
100
AcDbSpline
 70
8
 71
3
 72
8
 73
4
 74
0
 40
0
 40
0
 40
0
 40
0
 40
1
 40
1
 40
1
 40
1
 10
411.987830
 20
254.009031
 30
0.0
 10
406.621140
 20
254.187206
 30
0.0
 10
402.697040
 20
252.056587
 30
0.0
 10
397.988170
 20
251.505945
 30
0.0
  0
SPLINE
  5
36d
100
AcDbEntity
  8
Layer_1
 62
5
100
AcDbSpline
 70
8
 71
3
 72
8
 73
4
 74
0
 40
0
 40
0
 40
0
 40
0
 40
1
 40
1
 40
1
 40
1
 10
387.990340
 20
250.946285
 30
0.0
 10
383.525270
 20
254.347600
 30
0.0
 10
372.484140
 20
259.369217
 30
0.0
 10
372.484140
 20
259.369217
 30
0.0
  0
SPLINE
  5
36e
100
AcDbEntity
  8
Layer_1
 62
5
100
AcDbSpline
 70
8
 71
3
 72
8
 73
4
 74
0
 40
0
 40
0
 40
0
 40
0
 40
1
 40
1
 40
1
 40
1
 10
319.713920
 20
220.760143
 30
0.0
 10
310.915700
 20
221.077386
 30
0.0
 10
304.303540
 20
221.092693
 30
0.0
 10
304.303540
 20
221.092693
 30
0.0
  0
LINE
  5
36f
100
AcDbEntity
  8
Layer_1
 62
5
100
AcDbLine
 10
304.303540
 20
221.092693
 30
0.0
 11
304.303540
 21
221.092693
 31
0.0
  0
LINE
  5
370
100
AcDbEntity
  8
Layer_1
 62
5
100
AcDbLine
 10
342.538760
 20
152.986640
 30
0.0
 11
327.142200
 21
192.440760
 31
0.0
  0
SPLINE
  5
371
100
AcDbEntity
  8
Layer_1
 62
5
100
AcDbSpline
 70
8
 71
3
 72
8
 73
4
 74
0
 40
0
 40
0
 40
0
 40
0
 40
1
 40
1
 40
1
 40
1
 10
327.142200
 20
192.440760
 30
0.0
 10
327.142200
 20
192.440760
 30
0.0
 10
334.744540
 20
216.249924
 30
0.0
 10
343.329250
 20
214.064130
 30
0.0
  0
SPLINE
  5
372
100
AcDbEntity
  8
Layer_1
 62
5
100
AcDbSpline
 70
8
 71
3
 72
8
 73
4
 74
0
 40
0
 40
0
 40
0
 40
0
 40
1
 40
1
 40
1
 40
1
 10
343.329250
 20
214.064130
 30
0.0
 10
351.913760
 20
211.878172
 30
0.0
 10
369.485320
 20
208.100867
 30
0.0
 10
362.560990
 20
214.537325
 30
0.0
  0
SPLINE
  5
373
100
AcDbEntity
  8
Layer_1
 62
5
100
AcDbSpline
 70
8
 71
3
 72
8
 73
4
 74
0
 40
0
 40
0
 40
0
 40
0
 40
1
 40
1
 40
1
 40
1
 10
362.560990
 20
214.537325
 30
0.0
 10
359.544120
 20
217.341548
 30
0.0
 10
342.563650
 20
219.311505
 30
0.0
 10
330.605100
 20
220.230040
 30
0.0
  0
LINE
  5
374
100
AcDbEntity
  8
Layer_1
 62
5
100
AcDbLine
 10
372.257100
 20
259.242352
 30
0.0
 11
332.878490
 21
243.903332
 31
0.0
  0
SPLINE
  5
375
100
AcDbEntity
  8
Layer_1
 62
5
100
AcDbSpline
 70
8
 71
3
 72
8
 73
4
 74
0
 40
0
 40
0
 40
0
 40
0
 40
1
 40
1
 40
1
 40
1
 10
332.878490
 20
243.903332
 30
0.0
 10
332.878490
 20
243.903332
 30
0.0
 10
309.082410
 20
251.560078
 30
0.0
 10
311.249200
 20
260.150642
 30
0.0
  0
SPLINE
  5
376
100
AcDbEntity
  8
Layer_1
 62
5
100
AcDbSpline
 70
8
 71
3
 72
8
 73
4
 74
0
 40
0
 40
0
 40
0
 40
0
 40
1
 40
1
 40
1
 40
1
 10
311.249200
 20
260.150642
 30
0.0
 10
313.416210
 20
268.741219
 30
0.0
 10
317.155520
 20
286.326011
 30
0.0
 10
310.739850
 20
279.405887
 30
0.0
  0
SPLINE
  5
377
100
AcDbEntity
  8
Layer_1
 62
5
100
AcDbSpline
 70
8
 71
3
 72
8
 73
4
 74
0
 40
0
 40
0
 40
0
 40
0
 40
1
 40
1
 40
1
 40
1
 10
310.739850
 20
279.405887
 30
0.0
 10
307.968200
 20
276.416362
 30
0.0
 10
306.643770
 20
262.080123
 30
0.0
 10
305.491470
 20
253.266884
 30
0.0
  0
SPLINE
  5
378
100
AcDbEntity
  8
Layer_1
 62
5
100
AcDbSpline
 70
8
 71
3
 72
8
 73
4
 74
0
 40
0
 40
0
 40
0
 40
0
 40
1
 40
1
 40
1
 40
1
 10
304.918860
 20
244.022646
 30
0.0
 10
304.849060
 20
242.618703
 30
0.0
 10
304.747720
 20
241.232262
 30
0.0
 10
304.692870
 20
239.883551
 30
0.0
  0
SPLINE
  5
379
100
AcDbEntity
  8
Layer_1
 62
5
100
AcDbSpline
 70
8
 71
3
 72
8
 73
4
 74
0
 40
0
 40
0
 40
0
 40
0
 40
1
 40
1
 40
1
 40
1
 10
304.439640
 20
230.706193
 30
0.0
 10
304.305080
 20
224.955748
 30
0.0
 10
304.303580
 20
221.092692
 30
0.0
 10
304.303580
 20
221.092692
 30
0.0
  0
LINE
  5
37a
100
AcDbEntity
  8
Layer_1
 62
5
100
AcDbLine
 10
304.303580
 20
221.092692
 30
0.0
 11
304.303580
 21
221.092692
 31
0.0
  0
SPLINE
  5
37b
100
AcDbEntity
  8
Layer_1
 62
5
100
AcDbSpline
 70
8
 71
3
 72
8
 73
4
 74
0
 40
0
 40
0
 40
0
 40
0
 40
1
 40
1
 40
1
 40
1
 10
319.638680
 20
220.580309
 30
0.0
 10
319.923640
 20
220.072630
 30
0.0
 10
318.588730
 20
212.247014
 30
0.0
 10
319.095270
 20
212.531372
 30
0.0
  0
SPLINE
  5
37c
100
AcDbEntity
  8
Layer_1
 62
5
100
AcDbSpline
 70
8
 71
3
 72
8
 73
4
 74
0
 40
0
 40
0
 40
0
 40
0
 40
1
 40
1
 40
1
 40
1
 10
319.095270
 20
212.531372
 30
0.0
 10
319.601970
 20
212.815864
 30
0.0
 10
330.105320
 20
211.903073
 30
0.0
 10
330.105320
 20
211.903073
 30
0.0
  0
LINE
  5
37d
100
AcDbEntity
  8
Layer_1
 62
5
100
AcDbLine
 10
330.105320
 20
211.903073
 30
0.0
 11
330.610730
 21
220.731836
 31
0.0
  0
LINE
  5
37e
100
AcDbEntity
  8
Layer_1
 62
5
100
AcDbLine
 10
330.610730
 20
220.731836
 30
0.0
 11
330.610730
 21
220.731836
 31
0.0
  0
LINE
  5
37f
100
AcDbEntity
  8
Layer_1
 62
5
100
AcDbLine
 10
319.713960
 20
220.760196
 30
0.0
 11
323.092260
 21
220.612235
 31
0.0
  0
LINE
  5
380
100
AcDbEntity
  8
Layer_1
 62
5
100
AcDbLine
 10
327.226980
 20
220.377908
 30
0.0
 11
330.605130
 21
220.229953
 31
0.0
  0
SPLINE
  5
381
100
AcDbEntity
  8
Layer_1
 62
5
100
AcDbSpline
 70
8
 71
3
 72
8
 73
4
 74
0
 40
0
 40
0
 40
0
 40
0
 40
1
 40
1
 40
1
 40
1
 10
305.367810
 20
253.518380
 30
0.0
 10
305.188520
 20
253.417759
 30
0.0
 10
296.459980
 20
245.307528
 30
0.0
 10
295.737230
 20
243.910351
 30
0.0
  0
SPLINE
  5
382
100
AcDbEntity
  8
Layer_1
 62
5
100
AcDbSpline
 70
8
 71
3
 72
8
 73
4
 74
0
 40
0
 40
0
 40
0
 40
0
 40
1
 40
1
 40
1
 40
1
 10
295.737230
 20
243.910351
 30
0.0
 10
295.014370
 20
242.513357
 30
0.0
 10
304.363090
 20
230.390212
 30
0.0
 10
304.363090
 20
230.390212
 30
0.0
  0
LINE
  5
383
100
AcDbEntity
  8
Layer_1
 62
5
100
AcDbLine
 10
304.363090
 20
230.390212
 30
0.0
 11
304.363090
 21
230.390212
 31
0.0
  0
LINE
  5
384
100
AcDbEntity
  8
Layer_1
 62
5
100
AcDbLine
 10
304.363090
 20
230.390212
 30
0.0
 11
304.363090
 21
230.390212
 31
0.0
  0
SPLINE
  5
385
100
AcDbEntity
  8
Layer_1
 62
5
100
AcDbSpline
 70
8
 71
3
 72
8
 73
4
 74
0
 40
0
 40
0
 40
0
 40
0
 40
1
 40
1
 40
1
 40
1
 10
243.975280
 20
140.182810
 30
0.0
 10
248.736750
 20
134.120530
 30
0.0
 10
246.154960
 20
123.199670
 30
0.0
 10
243.670470
 20
121.987180
 30
0.0
  0
SPLINE
  5
386
100
AcDbEntity
  8
Layer_1
 62
5
100
AcDbSpline
 70
8
 71
3
 72
8
 73
4
 74
0
 40
0
 40
0
 40
0
 40
0
 40
1
 40
1
 40
1
 40
1
 10
243.670470
 20
121.987180
 30
0.0
 10
241.185780
 20
120.774690
 30
0.0
 10
238.091860
 20
118.888970
 30
0.0
 10
232.785390
 20
119.363150
 30
0.0
  0
SPLINE
  5
387
100
AcDbEntity
  8
Layer_1
 62
5
100
AcDbSpline
 70
8
 71
3
 72
8
 73
4
 74
0
 40
0
 40
0
 40
0
 40
0
 40
1
 40
1
 40
1
 40
1
 10
232.785390
 20
119.363150
 30
0.0
 10
228.530700
 20
120.038620
 30
0.0
 10
223.337430
 20
128.863080
 30
0.0
 10
223.337430
 20
128.863080
 30
0.0
  0
SPLINE
  5
388
100
AcDbEntity
  8
Layer_1
 62
5
100
AcDbSpline
 70
8
 71
3
 72
8
 73
4
 74
0
 40
0
 40
0
 40
0
 40
0
 40
1
 40
1
 40
1
 40
1
 10
330.932500
 20
122.845950
 30
0.0
 10
331.083360
 20
123.273760
 30
0.0
 10
332.697150
 20
128.742390
 30
0.0
 10
333.016610
 20
129.796490
 30
0.0
  0
SPLINE
  5
389
100
AcDbEntity
  8
Layer_1
 62
5
100
AcDbSpline
 70
8
 71
3
 72
8
 73
4
 74
0
 40
0
 40
0
 40
0
 40
0
 40
1
 40
1
 40
1
 40
1
 10
333.016610
 20
129.796490
 30
0.0
 10
333.336370
 20
130.850320
 30
0.0
 10
333.363450
 20
135.399250
 30
0.0
 10
330.495490
 20
137.528590
 30
0.0
  0
SPLINE
  5
38a
100
AcDbEntity
  8
Layer_1
 62
5
100
AcDbSpline
 70
8
 71
3
 72
8
 73
4
 74
0
 40
0
 40
0
 40
0
 40
0
 40
1
 40
1
 40
1
 40
1
 10
330.495490
 20
137.528590
 30
0.0
 10
327.627680
 20
139.658380
 30
0.0
 10
319.665310
 20
143.482840
 30
0.0
 10
319.665310
 20
143.482840
 30
0.0
  0
LINE
  5
38b
100
AcDbEntity
  8
Layer_1
 62
5
100
AcDbLine
 10
319.665310
 20
143.482840
 30
0.0
 11
319.665310
 21
143.482840
 31
0.0
  0
LINE
  5
38c
100
AcDbEntity
  8
Layer_1
 62
5
100
AcDbLine
 10
319.665310
 20
143.482840
 30
0.0
 11
319.665310
 21
143.482840
 31
0.0
  0
LINE
  5
38d
100
AcDbEntity
  8
Layer_1
 62
5
100
AcDbLine
 10
319.665310
 20
143.482840
 30
0.0
 11
319.665310
 21
143.482840
 31
0.0
  0
SPLINE
  5
38e
100
AcDbEntity
  8
Layer_1
 62
5
100
AcDbSpline
 70
8
 71
3
 72
8
 73
4
 74
0
 40
0
 40
0
 40
0
 40
0
 40
1
 40
1
 40
1
 40
1
 10
278.708440
 20
87.972190
 30
0.0
 10
278.708440
 20
87.972190
 30
0.0
 10
269.039360
 20
96.542610
 30
0.0
 10
263.475340
 20
102.864720
 30
0.0
  0
SPLINE
  5
38f
100
AcDbEntity
  8
Layer_1
 62
5
100
AcDbSpline
 70
8
 71
3
 72
8
 73
4
 74
0
 40
0
 40
0
 40
0
 40
0
 40
1
 40
1
 40
1
 40
1
 10
263.475340
 20
102.864720
 30
0.0
 10
257.911260
 20
109.186910
 30
0.0
 10
266.160060
 20
121.111590
 30
0.0
 10
262.688360
 20
126.557670
 30
0.0
  0
SPLINE
  5
390
100
AcDbEntity
  8
Layer_1
 62
5
100
AcDbSpline
 70
8
 71
3
 72
8
 73
4
 74
0
 40
0
 40
0
 40
0
 40
0
 40
1
 40
1
 40
1
 40
1
 10
262.688360
 20
126.557670
 30
0.0
 10
259.216560
 20
132.003820
 30
0.0
 10
258.599740
 20
148.478370
 30
0.0
 10
248.694950
 20
143.161930
 30
0.0
  0
SPLINE
  5
391
100
AcDbEntity
  8
Layer_1
 62
5
100
AcDbSpline
 70
8
 71
3
 72
8
 73
4
 74
0
 40
0
 40
0
 40
0
 40
0
 40
1
 40
1
 40
1
 40
1
 10
248.694950
 20
143.161930
 30
0.0
 10
246.992850
 20
142.248560
 30
0.0
 10
245.471690
 20
141.193870
 30
0.0
 10
244.090830
 20
140.077270
 30
0.0
  0
SPLINE
  5
392
100
AcDbEntity
  8
Layer_1
 62
5
100
AcDbSpline
 70
8
 71
3
 72
8
 73
4
 74
0
 40
0
 40
0
 40
0
 40
0
 40
1
 40
1
 40
1
 40
1
 10
237.990020
 20
134.146240
 30
0.0
 10
234.849930
 20
130.757480
 30
0.0
 10
232.394430
 20
128.079800
 30
0.0
 10
229.438950
 20
128.452740
 30
0.0
  0
SPLINE
  5
393
100
AcDbEntity
  8
Layer_1
 62
5
100
AcDbSpline
 70
8
 71
3
 72
8
 73
4
 74
0
 40
0
 40
0
 40
0
 40
0
 40
1
 40
1
 40
1
 40
1
 10
223.408890
 20
128.658880
 30
0.0
 10
217.893420
 20
128.558830
 30
0.0
 10
211.816580
 20
127.954620
 30
0.0
 10
211.816580
 20
127.954620
 30
0.0
  0
SPLINE
  5
394
100
AcDbEntity
  8
Layer_1
 62
5
100
AcDbSpline
 70
8
 71
3
 72
8
 73
4
 74
0
 40
0
 40
0
 40
0
 40
0
 40
1
 40
1
 40
1
 40
1
 10
278.708720
 20
87.972030
 30
0.0
 10
278.708720
 20
87.972030
 30
0.0
 10
287.321430
 20
97.639590
 30
0.0
 10
293.666450
 20
103.200750
 30
0.0
  0
SPLINE
  5
395
100
AcDbEntity
  8
Layer_1
 62
5
100
AcDbSpline
 70
8
 71
3
 72
8
 73
4
 74
0
 40
0
 40
0
 40
0
 40
0
 40
1
 40
1
 40
1
 40
1
 10
293.666450
 20
103.200750
 30
0.0
 10
300.011340
 20
108.762340
 30
0.0
 10
311.879580
 20
100.488680
 30
0.0
 10
317.338180
 20
103.956400
 30
0.0
  0
SPLINE
  5
396
100
AcDbEntity
  8
Layer_1
 62
5
100
AcDbSpline
 70
8
 71
3
 72
8
 73
4
 74
0
 40
0
 40
0
 40
0
 40
0
 40
1
 40
1
 40
1
 40
1
 10
317.338180
 20
103.956400
 30
0.0
 10
322.797000
 20
107.424460
 30
0.0
 10
339.257430
 20
108.019540
 30
0.0
 10
333.999080
 20
117.942030
 30
0.0
  0
SPLINE
  5
397
100
AcDbEntity
  8
Layer_1
 62
5
100
AcDbSpline
 70
8
 71
3
 72
8
 73
4
 74
0
 40
0
 40
0
 40
0
 40
0
 40
1
 40
1
 40
1
 40
1
 10
333.999080
 20
117.942030
 30
0.0
 10
331.484750
 20
122.686600
 30
0.0
 10
327.684860
 20
125.031430
 30
0.0
 10
324.865250
 20
128.843040
 30
0.0
  0
SPLINE
  5
398
100
AcDbEntity
  8
Layer_1
 62
5
100
AcDbSpline
 70
8
 71
3
 72
8
 73
4
 74
0
 40
0
 40
0
 40
0
 40
0
 40
1
 40
1
 40
1
 40
1
 10
319.407840
 20
137.238460
 30
0.0
 10
320.138130
 20
142.803640
 30
0.0
 10
319.003730
 20
154.880110
 30
0.0
 10
319.003730
 20
154.880110
 30
0.0
  0
SPLINE
  5
399
100
AcDbEntity
  8
Layer_1
 62
5
100
AcDbSpline
 70
8
 71
3
 72
8
 73
4
 74
0
 40
0
 40
0
 40
0
 40
0
 40
1
 40
1
 40
1
 40
1
 10
259.264370
 20
181.461210
 30
0.0
 10
255.163930
 20
189.252020
 30
0.0
 10
251.889010
 20
194.996390
 30
0.0
 10
251.889010
 20
194.996390
 30
0.0
  0
LINE
  5
39a
100
AcDbEntity
  8
Layer_1
 62
5
100
AcDbLine
 10
251.889010
 20
194.996390
 30
0.0
 11
251.889010
 21
194.996390
 31
0.0
  0
LINE
  5
39b
100
AcDbEntity
  8
Layer_1
 62
5
100
AcDbLine
 10
211.816890
 20
127.954490
 30
0.0
 11
238.389240
 21
160.933140
 31
0.0
  0
SPLINE
  5
39c
100
AcDbEntity
  8
Layer_1
 62
5
100
AcDbSpline
 70
8
 71
3
 72
8
 73
4
 74
0
 40
0
 40
0
 40
0
 40
0
 40
1
 40
1
 40
1
 40
1
 10
238.389240
 20
160.933140
 30
0.0
 10
238.389240
 20
160.933140
 30
0.0
 10
262.826180
 20
166.178210
 30
0.0
 10
265.199230
 20
157.643270
 30
0.0
  0
SPLINE
  5
39d
100
AcDbEntity
  8
Layer_1
 62
5
100
AcDbSpline
 70
8
 71
3
 72
8
 73
4
 74
0
 40
0
 40
0
 40
0
 40
0
 40
1
 40
1
 40
1
 40
1
 10
265.199230
 20
157.643270
 30
0.0
 10
267.572050
 20
149.108370
 30
0.0
 10
273.033530
 20
131.985380
 30
0.0
 10
275.174050
 20
141.193670
 30
0.0
  0
SPLINE
  5
39e
100
AcDbEntity
  8
Layer_1
 62
5
100
AcDbSpline
 70
8
 71
3
 72
8
 73
4
 74
0
 40
0
 40
0
 40
0
 40
0
 40
1
 40
1
 40
1
 40
1
 10
275.174050
 20
141.193670
 30
0.0
 10
276.106540
 20
145.205500
 30
0.0
 10
269.370970
 20
160.917070
 30
0.0
 10
264.220800
 20
171.748710
 30
0.0
  0
LINE
  5
39f
100
AcDbEntity
  8
Layer_1
 62
5
100
AcDbLine
 10
318.780860
 20
155.013960
 30
0.0
 11
285.889570
 21
181.549480
 31
0.0
  0
SPLINE
  5
3a0
100
AcDbEntity
  8
Layer_1
 62
5
100
AcDbSpline
 70
8
 71
3
 72
8
 73
4
 74
0
 40
0
 40
0
 40
0
 40
0
 40
1
 40
1
 40
1
 40
1
 10
285.889570
 20
181.549480
 30
0.0
 10
285.889570
 20
181.549480
 30
0.0
 10
280.698250
 20
206.002036
 30
0.0
 10
289.228760
 20
208.394404
 30
0.0
  0
SPLINE
  5
3a1
100
AcDbEntity
  8
Layer_1
 62
5
100
AcDbSpline
 70
8
 71
3
 72
8
 73
4
 74
0
 40
0
 40
0
 40
0
 40
0
 40
1
 40
1
 40
1
 40
1
 10
289.228760
 20
208.394404
 30
0.0
 10
297.759380
 20
210.786549
 30
0.0
 10
314.875000
 20
216.287716
 30
0.0
 10
305.680800
 20
218.412246
 30
0.0
  0
SPLINE
  5
3a2
100
AcDbEntity
  8
Layer_1
 62
5
100
AcDbSpline
 70
8
 71
3
 72
8
 73
4
 74
0
 40
0
 40
0
 40
0
 40
0
 40
1
 40
1
 40
1
 40
1
 10
305.680800
 20
218.412246
 30
0.0
 10
301.708710
 20
219.329946
 30
0.0
 10
288.612390
 20
213.349474
 30
0.0
 10
280.393160
 20
209.966165
 30
0.0
  0
SPLINE
  5
3a3
100
AcDbEntity
  8
Layer_1
 62
5
100
AcDbSpline
 70
8
 71
3
 72
8
 73
4
 74
0
 40
0
 40
0
 40
0
 40
0
 40
1
 40
1
 40
1
 40
1
 10
272.088330
 20
205.865799
 30
0.0
 10
270.835770
 20
205.228072
 30
0.0
 10
269.582630
 20
204.626505
 30
0.0
 10
268.384970
 20
204.003428
 30
0.0
  0
SPLINE
  5
3a4
100
AcDbEntity
  8
Layer_1
 62
5
100
AcDbSpline
 70
8
 71
3
 72
8
 73
4
 74
0
 40
0
 40
0
 40
0
 40
0
 40
1
 40
1
 40
1
 40
1
 10
260.296980
 20
199.659212
 30
0.0
 10
255.241280
 20
196.916160
 30
0.0
 10
251.888980
 20
194.996460
 30
0.0
 10
251.888980
 20
194.996460
 30
0.0
  0
LINE
  5
3a5
100
AcDbEntity
  8
Layer_1
 62
5
100
AcDbLine
 10
251.888980
 20
194.996460
 30
0.0
 11
251.888980
 21
194.996460
 31
0.0
  0
SPLINE
  5
3a6
100
AcDbEntity
  8
Layer_1
 62
5
100
AcDbSpline
 70
8
 71
3
 72
8
 73
4
 74
0
 40
0
 40
0
 40
0
 40
0
 40
1
 40
1
 40
1
 40
1
 10
259.070900
 20
181.437140
 30
0.0
 10
258.772160
 20
180.937430
 30
0.0
 10
251.319010
 20
178.203810
 30
0.0
 10
251.817530
 20
177.905860
 30
0.0
  0
SPLINE
  5
3a7
100
AcDbEntity
  8
Layer_1
 62
5
100
AcDbSpline
 70
8
 71
3
 72
8
 73
4
 74
0
 40
0
 40
0
 40
0
 40
0
 40
1
 40
1
 40
1
 40
1
 10
251.817530
 20
177.905860
 30
0.0
 10
252.316410
 20
177.607670
 30
0.0
 10
256.747950
 20
168.041340
 30
0.0
 10
256.747950
 20
168.041340
 30
0.0
  0
LINE
  5
3a8
100
AcDbEntity
  8
Layer_1
 62
5
100
AcDbLine
 10
256.747950
 20
168.041340
 30
0.0
 11
264.658860
 21
171.993500
 31
0.0
  0
LINE
  5
3a9
100
AcDbEntity
  8
Layer_1
 62
5
100
AcDbLine
 10
264.658860
 20
171.993500
 30
0.0
 11
264.658860
 21
171.993500
 31
0.0
  0
LINE
  5
3aa
100
AcDbEntity
  8
Layer_1
 62
5
100
AcDbLine
 10
259.264380
 20
181.461330
 30
0.0
 11
260.815980
 21
178.456810
 31
0.0
  0
LINE
  5
3ab
100
AcDbEntity
  8
Layer_1
 62
5
100
AcDbLine
 10
262.669120
 20
174.753190
 30
0.0
 11
264.220760
 21
171.748810
 31
0.0
  0
SPLINE
  5
3ac
100
AcDbEntity
  8
Layer_1
 62
5
100
AcDbSpline
 70
8
 71
3
 72
8
 73
4
 74
0
 40
0
 40
0
 40
0
 40
0
 40
1
 40
1
 40
1
 40
1
 10
280.549950
 20
210.198685
 30
0.0
 10
280.373360
 20
210.304162
 30
0.0
 10
268.996340
 20
213.843480
 30
0.0
 10
267.424800
 20
213.775768
 30
0.0
  0
SPLINE
  5
3ad
100
AcDbEntity
  8
Layer_1
 62
5
100
AcDbSpline
 70
8
 71
3
 72
8
 73
4
 74
0
 40
0
 40
0
 40
0
 40
0
 40
1
 40
1
 40
1
 40
1
 10
267.424800
 20
213.775768
 30
0.0
 10
265.853330
 20
213.708158
 30
0.0
 10
259.984970
 20
199.568445
 30
0.0
 10
259.984970
 20
199.568445
 30
0.0
  0
LINE
  5
3ae
100
AcDbEntity
  8
Layer_1
 62
5
100
AcDbLine
 10
259.984970
 20
199.568445
 30
0.0
 11
259.984970
 21
199.568445
 31
0.0
  0
LINE
  5
3af
100
AcDbEntity
  8
Layer_1
 62
5
100
AcDbLine
 10
259.984970
 20
199.568445
 30
0.0
 11
259.984970
 21
199.568445
 31
0.0
  0
SPLINE
  5
3b0
100
AcDbEntity
  8
Layer_1
 62
5
100
AcDbSpline
 70
8
 71
3
 72
8
 73
4
 74
0
 40
0
 40
0
 40
0
 40
0
 40
1
 40
1
 40
1
 40
1
 10
246.097590
 20
235.764365
 30
0.0
 10
240.477670
 20
241.040689
 30
0.0
 10
241.385570
 20
252.225826
 30
0.0
 10
243.659270
 20
253.798531
 30
0.0
  0
SPLINE
  5
3b1
100
AcDbEntity
  8
Layer_1
 62
5
100
AcDbSpline
 70
8
 71
3
 72
8
 73
4
 74
0
 40
0
 40
0
 40
0
 40
0
 40
1
 40
1
 40
1
 40
1
 10
243.659270
 20
253.798531
 30
0.0
 10
245.932940
 20
255.371319
 30
0.0
 10
248.707670
 20
257.701332
 30
0.0
 10
254.025120
 20
258.031520
 30
0.0
  0
SPLINE
  5
3b2
100
AcDbEntity
  8
Layer_1
 62
5
100
AcDbSpline
 70
8
 71
3
 72
8
 73
4
 74
0
 40
0
 40
0
 40
0
 40
0
 40
1
 40
1
 40
1
 40
1
 10
254.025120
 20
258.031520
 30
0.0
 10
258.332930
 20
258.004420
 30
0.0
 10
264.795770
 20
250.062467
 30
0.0
 10
264.795770
 20
250.062467
 30
0.0
  0
SPLINE
  5
3b3
100
AcDbEntity
  8
Layer_1
 62
5
100
AcDbSpline
 70
8
 71
3
 72
8
 73
4
 74
0
 40
0
 40
0
 40
0
 40
0
 40
1
 40
1
 40
1
 40
1
 10
157.521370
 20
239.810571
 30
0.0
 10
157.436270
 20
239.364005
 30
0.0
 10
156.664550
 20
233.715611
 30
0.0
 10
156.507530
 20
232.625376
 30
0.0
  0
SPLINE
  5
3b4
100
AcDbEntity
  8
Layer_1
 62
5
100
AcDbSpline
 70
8
 71
3
 72
8
 73
4
 74
0
 40
0
 40
0
 40
0
 40
0
 40
1
 40
1
 40
1
 40
1
 10
156.507530
 20
232.625376
 30
0.0
 10
156.350180
 20
231.535391
 30
0.0
 10
157.008240
 20
227.034275
 30
0.0
 10
160.164120
 20
225.361042
 30
0.0
  0
SPLINE
  5
3b5
100
AcDbEntity
  8
Layer_1
 62
5
100
AcDbSpline
 70
8
 71
3
 72
8
 73
4
 74
0
 40
0
 40
0
 40
0
 40
0
 40
1
 40
1
 40
1
 40
1
 10
160.164120
 20
225.361042
 30
0.0
 10
163.319820
 20
223.687357
 30
0.0
 10
171.767370
 20
221.105369
 30
0.0
 10
171.767370
 20
221.105369
 30
0.0
  0
LINE
  5
3b6
100
AcDbEntity
  8
Layer_1
 62
5
100
AcDbLine
 10
171.767370
 20
221.105369
 30
0.0
 11
171.767370
 21
221.105369
 31
0.0
  0
LINE
  5
3b7
100
AcDbEntity
  8
Layer_1
 62
5
100
AcDbLine
 10
171.767370
 20
221.105369
 30
0.0
 11
171.767370
 21
221.105369
 31
0.0
  0
LINE
  5
3b8
100
AcDbEntity
  8
Layer_1
 62
5
100
AcDbLine
 10
171.767370
 20
221.105369
 30
0.0
 11
171.767370
 21
221.105369
 31
0.0
  0
SPLINE
  5
3b9
100
AcDbEntity
  8
Layer_1
 62
5
100
AcDbSpline
 70
8
 71
3
 72
8
 73
4
 74
0
 40
0
 40
0
 40
0
 40
0
 40
1
 40
1
 40
1
 40
1
 10
203.899050
 20
282.150136
 30
0.0
 10
203.899050
 20
282.150136
 30
0.0
 10
214.748340
 20
275.133303
 30
0.0
 10
221.200880
 20
269.720878
 30
0.0
  0
SPLINE
  5
3ba
100
AcDbEntity
  8
Layer_1
 62
5
100
AcDbSpline
 70
8
 71
3
 72
8
 73
4
 74
0
 40
0
 40
0
 40
0
 40
0
 40
1
 40
1
 40
1
 40
1
 10
221.200880
 20
269.720878
 30
0.0
 10
227.653470
 20
264.308555
 30
0.0
 10
221.294280
 20
251.277783
 30
0.0
 10
225.546390
 20
246.416649
 30
0.0
  0
SPLINE
  5
3bb
100
AcDbEntity
  8
Layer_1
 62
5
100
AcDbSpline
 70
8
 71
3
 72
8
 73
4
 74
0
 40
0
 40
0
 40
0
 40
0
 40
1
 40
1
 40
1
 40
1
 10
225.546390
 20
246.416649
 30
0.0
 10
229.798630
 20
241.555354
 30
0.0
 10
232.888940
 20
225.361376
 30
0.0
 10
241.880210
 20
232.108599
 30
0.0
  0
SPLINE
  5
3bc
100
AcDbEntity
  8
Layer_1
 62
5
100
AcDbSpline
 70
8
 71
3
 72
8
 73
4
 74
0
 40
0
 40
0
 40
0
 40
0
 40
1
 40
1
 40
1
 40
1
 10
241.880210
 20
232.108599
 30
0.0
 10
243.425550
 20
233.267918
 30
0.0
 10
244.770490
 20
234.539509
 30
0.0
 10
245.967490
 20
235.851280
 30
0.0
  0
SPLINE
  5
3bd
100
AcDbEntity
  8
Layer_1
 62
5
100
AcDbSpline
 70
8
 71
3
 72
8
 73
4
 74
0
 40
0
 40
0
 40
0
 40
0
 40
1
 40
1
 40
1
 40
1
 10
251.105620
 20
242.633360
 30
0.0
 10
253.699670
 20
246.456292
 30
0.0
 10
255.724090
 20
249.473114
 30
0.0
 10
258.701980
 20
249.549554
 30
0.0
  0
SPLINE
  5
3be
100
AcDbEntity
  8
Layer_1
 62
5
100
AcDbSpline
 70
8
 71
3
 72
8
 73
4
 74
0
 40
0
 40
0
 40
0
 40
0
 40
1
 40
1
 40
1
 40
1
 10
264.694280
 20
250.253606
 30
0.0
 10
270.131980
 20
251.182889
 30
0.0
 10
276.048420
 20
252.695389
 30
0.0
 10
276.048420
 20
252.695389
 30
0.0
  0
SPLINE
  5
3bf
100
AcDbEntity
  8
Layer_1
 62
5
100
AcDbSpline
 70
8
 71
3
 72
8
 73
4
 74
0
 40
0
 40
0
 40
0
 40
0
 40
1
 40
1
 40
1
 40
1
 10
203.898780
 20
282.150253
 30
0.0
 10
203.898780
 20
282.150253
 30
0.0
 10
196.839840
 20
271.296008
 30
0.0
 10
191.404600
 20
264.842836
 30
0.0
  0
SPLINE
  5
3c0
100
AcDbEntity
  8
Layer_1
 62
5
100
AcDbSpline
 70
8
 71
3
 72
8
 73
4
 74
0
 40
0
 40
0
 40
0
 40
0
 40
1
 40
1
 40
1
 40
1
 10
191.404600
 20
264.842836
 30
0.0
 10
185.969370
 20
258.389442
 30
0.0
 10
172.990730
 20
264.781656
 30
0.0
 10
168.116390
 20
260.531607
 30
0.0
  0
SPLINE
  5
3c1
100
AcDbEntity
  8
Layer_1
 62
5
100
AcDbSpline
 70
8
 71
3
 72
8
 73
4
 74
0
 40
0
 40
0
 40
0
 40
0
 40
1
 40
1
 40
1
 40
1
 10
168.116390
 20
260.531607
 30
0.0
 10
163.242010
 20
256.281168
 30
0.0
 10
147.058920
 20
253.214379
 30
0.0
 10
153.751240
 20
244.196808
 30
0.0
  0
SPLINE
  5
3c2
100
AcDbEntity
  8
Layer_1
 62
5
100
AcDbSpline
 70
8
 71
3
 72
8
 73
4
 74
0
 40
0
 40
0
 40
0
 40
0
 40
1
 40
1
 40
1
 40
1
 10
153.751240
 20
244.196808
 30
0.0
 10
156.951350
 20
239.884825
 30
0.0
 10
161.061020
 20
238.138912
 30
0.0
 10
164.422300
 20
234.795343
 30
0.0
  0
SPLINE
  5
3c3
100
AcDbEntity
  8
Layer_1
 62
5
100
AcDbSpline
 70
8
 71
3
 72
8
 73
4
 74
0
 40
0
 40
0
 40
0
 40
0
 40
1
 40
1
 40
1
 40
1
 10
171.081690
 20
227.317322
 30
0.0
 10
171.197680
 20
221.705617
 30
0.0
 10
174.137480
 20
209.937633
 30
0.0
 10
174.137480
 20
209.937633
 30
0.0
  0
SPLINE
  5
3c4
100
AcDbEntity
  8
Layer_1
 62
5
100
AcDbSpline
 70
8
 71
3
 72
8
 73
4
 74
0
 40
0
 40
0
 40
0
 40
0
 40
1
 40
1
 40
1
 40
1
 10
237.198140
 20
192.654590
 30
0.0
 10
242.424670
 20
185.569960
 30
0.0
 10
246.527350
 20
180.384290
 30
0.0
 10
246.527350
 20
180.384290
 30
0.0
  0
LINE
  5
3c5
100
AcDbEntity
  8
Layer_1
 62
5
100
AcDbLine
 10
246.527350
 20
180.384290
 30
0.0
 11
246.527350
 21
180.384290
 31
0.0
  0
LINE
  5
3c6
100
AcDbEntity
  8
Layer_1
 62
5
100
AcDbLine
 10
276.048250
 20
252.695478
 30
0.0
 11
254.744210
 21
216.091820
 31
0.0
  0
SPLINE
  5
3c7
100
AcDbEntity
  8
Layer_1
 62
5
100
AcDbSpline
 70
8
 71
3
 72
8
 73
4
 74
0
 40
0
 40
0
 40
0
 40
0
 40
1
 40
1
 40
1
 40
1
 10
254.744210
 20
216.091820
 30
0.0
 10
254.744210
 20
216.091820
 30
0.0
 10
231.375640
 20
207.227097
 30
0.0
 10
227.744580
 20
215.307372
 30
0.0
  0
SPLINE
  5
3c8
100
AcDbEntity
  8
Layer_1
 62
5
100
AcDbSpline
 70
8
 71
3
 72
8
 73
4
 74
0
 40
0
 40
0
 40
0
 40
0
 40
1
 40
1
 40
1
 40
1
 10
227.744580
 20
215.307372
 30
0.0
 10
224.113810
 20
223.387638
 30
0.0
 10
216.136420
 20
239.493093
 30
0.0
 10
215.406790
 20
230.067578
 30
0.0
  0
SPLINE
  5
3c9
100
AcDbEntity
  8
Layer_1
 62
5
100
AcDbSpline
 70
8
 71
3
 72
8
 73
4
 74
0
 40
0
 40
0
 40
0
 40
0
 40
1
 40
1
 40
1
 40
1
 10
215.406790
 20
230.067578
 30
0.0
 10
215.088980
 20
225.960984
 30
0.0
 10
224.113330
 20
211.442773
 30
0.0
 10
230.835880
 20
201.510163
 30
0.0
  0
LINE
  5
3ca
100
AcDbEntity
  8
Layer_1
 62
5
100
AcDbLine
 10
174.377930
 20
209.838945
 30
0.0
 11
210.889710
 21
188.558450
 31
0.0
  0
SPLINE
  5
3cb
100
AcDbEntity
  8
Layer_1
 62
5
100
AcDbSpline
 70
8
 71
3
 72
8
 73
4
 74
0
 40
0
 40
0
 40
0
 40
0
 40
1
 40
1
 40
1
 40
1
 10
210.889710
 20
188.558450
 30
0.0
 10
210.889710
 20
188.558450
 30
0.0
 10
219.703650
 20
165.166300
 30
0.0
 10
211.630520
 20
161.516840
 30
0.0
  0
SPLINE
  5
3cc
100
AcDbEntity
  8
Layer_1
 62
5
100
AcDbSpline
 70
8
 71
3
 72
8
 73
4
 74
0
 40
0
 40
0
 40
0
 40
0
 40
1
 40
1
 40
1
 40
1
 10
211.630520
 20
161.516840
 30
0.0
 10
203.557430
 20
157.867440
 30
0.0
 10
187.465190
 20
149.852050
 30
0.0
 10
196.874540
 20
149.136040
 30
0.0
  0
SPLINE
  5
3cd
100
AcDbEntity
  8
Layer_1
 62
5
100
AcDbSpline
 70
8
 71
3
 72
8
 73
4
 74
0
 40
0
 40
0
 40
0
 40
0
 40
1
 40
1
 40
1
 40
1
 10
196.874540
 20
149.136040
 30
0.0
 10
200.939410
 20
148.826830
 30
0.0
 10
212.985990
 20
156.711130
 30
0.0
 10
220.602050
 20
161.293350
 30
0.0
  0
SPLINE
  5
3ce
100
AcDbEntity
  8
Layer_1
 62
5
100
AcDbSpline
 70
8
 71
3
 72
8
 73
4
 74
0
 40
0
 40
0
 40
0
 40
0
 40
1
 40
1
 40
1
 40
1
 10
228.194830
 20
166.597420
 30
0.0
 10
229.337170
 20
167.416410
 30
0.0
 10
230.485460
 20
168.199820
 30
0.0
 10
231.575640
 20
168.996110
 30
0.0
  0
SPLINE
  5
3cf
100
AcDbEntity
  8
Layer_1
 62
5
100
AcDbSpline
 70
8
 71
3
 72
8
 73
4
 74
0
 40
0
 40
0
 40
0
 40
0
 40
1
 40
1
 40
1
 40
1
 10
238.917210
 20
174.508660
 30
0.0
 10
243.502350
 20
177.981640
 30
0.0
 10
246.527380
 20
180.384240
 30
0.0
 10
246.527380
 20
180.384240
 30
0.0
  0
LINE
  5
3d0
100
AcDbEntity
  8
Layer_1
 62
5
100
AcDbLine
 10
246.527380
 20
180.384240
 30
0.0
 11
246.527380
 21
180.384240
 31
0.0
  0
SPLINE
  5
3d1
100
AcDbEntity
  8
Layer_1
 62
5
100
AcDbSpline
 70
8
 71
3
 72
8
 73
4
 74
0
 40
0
 40
0
 40
0
 40
0
 40
1
 40
1
 40
1
 40
1
 10
237.385770
 20
192.707690
 30
0.0
 10
237.605820
 20
193.246600
 30
0.0
 10
244.562410
 20
197.071267
 30
0.0
 10
244.024580
 20
197.290847
 30
0.0
  0
SPLINE
  5
3d2
100
AcDbEntity
  8
Layer_1
 62
5
100
AcDbSpline
 70
8
 71
3
 72
8
 73
4
 74
0
 40
0
 40
0
 40
0
 40
0
 40
1
 40
1
 40
1
 40
1
 10
244.024580
 20
197.290847
 30
0.0
 10
243.486570
 20
197.510477
 30
0.0
 10
237.665250
 20
206.300426
 30
0.0
 10
237.665250
 20
206.300426
 30
0.0
  0
LINE
  5
3d3
100
AcDbEntity
  8
Layer_1
 62
5
100
AcDbLine
 10
237.665250
 20
206.300426
 30
0.0
 11
230.439520
 21
201.202236
 31
0.0
  0
LINE
  5
3d4
100
AcDbEntity
  8
Layer_1
 62
5
100
AcDbLine
 10
230.439520
 20
201.202236
 30
0.0
 11
230.439520
 21
201.202236
 31
0.0
  0
LINE
  5
3d5
100
AcDbEntity
  8
Layer_1
 62
5
100
AcDbLine
 10
237.198200
 20
192.654620
 30
0.0
 11
235.211850
 21
195.391320
 31
0.0
  0
LINE
  5
3d6
100
AcDbEntity
  8
Layer_1
 62
5
100
AcDbLine
 10
232.822310
 20
198.773678
 30
0.0
 11
230.835970
 21
201.510193
 31
0.0
  0
SPLINE
  5
3d7
100
AcDbEntity
  8
Layer_1
 62
5
100
AcDbSpline
 70
8
 71
3
 72
8
 73
4
 74
0
 40
0
 40
0
 40
0
 40
0
 40
1
 40
1
 40
1
 40
1
 10
220.482160
 20
161.040010
 30
0.0
 10
220.672490
 20
160.962310
 30
0.0
 10
232.452820
 20
159.176290
 30
0.0
 10
233.996240
 20
159.479840
 30
0.0
  0
SPLINE
  5
3d8
100
AcDbEntity
  8
Layer_1
 62
5
100
AcDbSpline
 70
8
 71
3
 72
8
 73
4
 74
0
 40
0
 40
0
 40
0
 40
0
 40
1
 40
1
 40
1
 40
1
 10
233.996240
 20
159.479840
 30
0.0
 10
235.539640
 20
159.783320
 30
0.0
 10
239.212180
 20
174.645380
 30
0.0
 10
239.212180
 20
174.645380
 30
0.0
  0
LINE
  5
3d9
100
AcDbEntity
  8
Layer_1
 62
5
100
AcDbLine
 10
239.212180
 20
174.645380
 30
0.0
 11
239.212180
 21
174.645380
 31
0.0
  0
LINE
  5
3da
100
AcDbEntity
  8
Layer_1
 62
5
100
AcDbLine
 10
239.212180
 20
174.645380
 30
0.0
 11
239.212180
 21
174.645380
 31
0.0
  0
ENDSEC
  0
SECTION
  2
OBJECTS
  0
DICTIONARY
  5
C
330
0
100
AcDbDictionary
  3
ACAD_GROUP
350
D
  3
ACAD_MLINESTYLE
350
17
  0
DICTIONARY
  5
D
330
C
100
AcDbDictionary
  0
DICTIONARY
  5
1A
330
C
100
AcDbDictionary
  0
DICTIONARY
  5
17
330
C
100
AcDbDictionary
  3
STANDARD
350
18
  0
DICTIONARY
  5
19
330
C
100
AcDbDictionary
  0
ENDSEC
  0
EOF
