  0
SECTION
  2
HEADER
  9
$ACADVER
  1
AC1018
  9
$ACADMAINTVER
 70
     0
  9
$DWGCODEPAGE
  3
ANSI_1252
  9
$INSBASE
 10
0.0
 20
0.0
 30
0.0
  9
$EXTMIN
 10
-1338.0
 20
-24.0
 30
0.0
  9
$EXTMAX
 10
-1050.0
 20
168.0
 30
0.0
  9
$LIMMIN
 10
0.0
 20
0.0
  9
$LIMMAX
 10
12.0
 20
9.0
  9
$ORTHOMODE
 70
     0
  9
$REGENMODE
 70
     1
  9
$FILLMODE
 70
     1
  9
$QTEXTMODE
 70
     0
  9
$MIRRTEXT
 70
     1
  9
$LTSCALE
 40
1.0
  9
$ATTMODE
 70
     1
  9
$TEXTSIZE
 40
0.2
  9
$TRACEWID
 40
0.05
  9
$TEXTSTYLE
  7
Standard
  9
$CLAYER
  8
0
  9
$CELTYPE
  6
ByLayer
  9
$CECOLOR
 62
   256
  9
$CELTSCALE
 40
1.0
  9
$DISPSILH
 70
     0
  9
$DIMSCALE
 40
1.0
  9
$DIMASZ
 40
0.18
  9
$DIMEXO
 40
0.0625
  9
$DIMDLI
 40
0.38
  9
$DIMRND
 40
0.0
  9
$DIMDLE
 40
0.0
  9
$DIMEXE
 40
0.18
  9
$DIMTP
 40
0.0
  9
$DIMTM
 40
0.0
  9
$DIMTXT
 40
0.18
  9
$DIMCEN
 40
0.09
  9
$DIMTSZ
 40
0.0
  9
$DIMTOL
 70
     0
  9
$DIMLIM
 70
     0
  9
$DIMTIH
 70
     1
  9
$DIMTOH
 70
     1
  9
$DIMSE1
 70
     0
  9
$DIMSE2
 70
     0
  9
$DIMTAD
 70
     0
  9
$DIMZIN
 70
     0
  9
$DIMBLK
  1

  9
$DIMASO
 70
     1
  9
$DIMSHO
 70
     1
  9
$DIMPOST
  1

  9
$DIMAPOST
  1

  9
$DIMALT
 70
     0
  9
$DIMALTD
 70
     2
  9
$DIMALTF
 40
25.4
  9
$DIMLFAC
 40
1.0
  9
$DIMTOFL
 70
     0
  9
$DIMTVP
 40
0.0
  9
$DIMTIX
 70
     0
  9
$DIMSOXD
 70
     0
  9
$DIMSAH
 70
     0
  9
$DIMBLK1
  1

  9
$DIMBLK2
  1

  9
$DIMSTYLE
  2
Standard
  9
$DIMCLRD
 70
     0
  9
$DIMCLRE
 70
     0
  9
$DIMCLRT
 70
     0
  9
$DIMTFAC
 40
1.0
  9
$DIMGAP
 40
0.09
  9
$DIMJUST
 70
     0
  9
$DIMSD1
 70
     0
  9
$DIMSD2
 70
     0
  9
$DIMTOLJ
 70
     1
  9
$DIMTZIN
 70
     0
  9
$DIMALTZ
 70
     0
  9
$DIMALTTZ
 70
     0
  9
$DIMUPT
 70
     0
  9
$DIMDEC
 70
     4
  9
$DIMTDEC
 70
     4
  9
$DIMALTU
 70
     2
  9
$DIMALTTD
 70
     2
  9
$DIMTXSTY
  7
Standard
  9
$DIMAUNIT
 70
     0
  9
$DIMADEC
 70
     0
  9
$DIMALTRND
 40
0.0
  9
$DIMAZIN
 70
     0
  9
$DIMDSEP
 70
    46
  9
$DIMATFIT
 70
     3
  9
$DIMFRAC
 70
     0
  9
$DIMLDRBLK
  1

  9
$DIMLUNIT
 70
     2
  9
$DIMLWD
 70
    -2
  9
$DIMLWE
 70
    -2
  9
$DIMTMOVE
 70
     2
  9
$LUNITS
 70
     2
  9
$LUPREC
 70
     3
  9
$SKETCHINC
 40
0.1
  9
$FILLETRAD
 40
0.5
  9
$AUNITS
 70
     0
  9
$AUPREC
 70
     0
  9
$MENU
  1
.
  9
$ELEVATION
 40
0.0
  9
$PELEVATION
 40
0.0
  9
$THICKNESS
 40
0.0
  9
$LIMCHECK
 70
     0
  9
$CHAMFERA
 40
0.0
  9
$CHAMFERB
 40
0.0
  9
$CHAMFERC
 40
0.0
  9
$CHAMFERD
 40
0.0
  9
$SKPOLY
 70
     0
  9
$TDCREATE
 40
2458853.606122049
  9
$TDUCREATE
 40
2458853.814455382
  9
$TDUPDATE
 40
2458853.60613941
  9
$TDUUPDATE
 40
2458853.814472743
  9
$TDINDWG
 40
0.0000000116
  9
$TDUSRTIMER
 40
0.0000000116
  9
$USRTIMER
 70
     1
  9
$ANGBASE
 50
0.0
  9
$ANGDIR
 70
     0
  9
$PDMODE
 70
     0
  9
$PDSIZE
 40
0.0
  9
$PLINEWID
 40
0.0
  9
$SPLFRAME
 70
     0
  9
$SPLINETYPE
 70
     6
  9
$SPLINESEGS
 70
     8
  9
$HANDSEED
  5
2F2
  9
$SURFTAB1
 70
     6
  9
$SURFTAB2
 70
     6
  9
$SURFTYPE
 70
     6
  9
$SURFU
 70
     6
  9
$SURFV
 70
     6
  9
$UCSBASE
  2

  9
$UCSNAME
  2

  9
$UCSORG
 10
0.0
 20
0.0
 30
0.0
  9
$UCSXDIR
 10
1.0
 20
0.0
 30
0.0
  9
$UCSYDIR
 10
0.0
 20
1.0
 30
0.0
  9
$UCSORTHOREF
  2

  9
$UCSORTHOVIEW
 70
     0
  9
$UCSORGTOP
 10
0.0
 20
0.0
 30
0.0
  9
$UCSORGBOTTOM
 10
0.0
 20
0.0
 30
0.0
  9
$UCSORGLEFT
 10
0.0
 20
0.0
 30
0.0
  9
$UCSORGRIGHT
 10
0.0
 20
0.0
 30
0.0
  9
$UCSORGFRONT
 10
0.0
 20
0.0
 30
0.0
  9
$UCSORGBACK
 10
0.0
 20
0.0
 30
0.0
  9
$PUCSBASE
  2

  9
$PUCSNAME
  2

  9
$PUCSORG
 10
0.0
 20
0.0
 30
0.0
  9
$PUCSXDIR
 10
1.0
 20
0.0
 30
0.0
  9
$PUCSYDIR
 10
0.0
 20
1.0
 30
0.0
  9
$PUCSORTHOREF
  2

  9
$PUCSORTHOVIEW
 70
     0
  9
$PUCSORGTOP
 10
0.0
 20
0.0
 30
0.0
  9
$PUCSORGBOTTOM
 10
0.0
 20
0.0
 30
0.0
  9
$PUCSORGLEFT
 10
0.0
 20
0.0
 30
0.0
  9
$PUCSORGRIGHT
 10
0.0
 20
0.0
 30
0.0
  9
$PUCSORGFRONT
 10
0.0
 20
0.0
 30
0.0
  9
$PUCSORGBACK
 10
0.0
 20
0.0
 30
0.0
  9
$USERI1
 70
     0
  9
$USERI2
 70
     0
  9
$USERI3
 70
     0
  9
$USERI4
 70
     0
  9
$USERI5
 70
     0
  9
$USERR1
 40
0.0
  9
$USERR2
 40
0.0
  9
$USERR3
 40
0.0
  9
$USERR4
 40
0.0
  9
$USERR5
 40
0.0
  9
$WORLDVIEW
 70
     1
  9
$SHADEDGE
 70
     3
  9
$SHADEDIF
 70
    70
  9
$TILEMODE
 70
     1
  9
$MAXACTVP
 70
    64
  9
$PINSBASE
 10
0.0
 20
0.0
 30
0.0
  9
$PLIMCHECK
 70
     0
  9
$PEXTMIN
 10
1.000000000000000E+20
 20
1.000000000000000E+20
 30
1.000000000000000E+20
  9
$PEXTMAX
 10
-1.000000000000000E+20
 20
-1.000000000000000E+20
 30
-1.000000000000000E+20
  9
$PLIMMIN
 10
0.0
 20
0.0
  9
$PLIMMAX
 10
12.0
 20
9.0
  9
$UNITMODE
 70
     0
  9
$VISRETAIN
 70
     1
  9
$PLINEGEN
 70
     0
  9
$PSLTSCALE
 70
     1
  9
$TREEDEPTH
 70
  3020
  9
$CMLSTYLE
  2
Standard
  9
$CMLJUST
 70
     0
  9
$CMLSCALE
 40
1.0
  9
$PROXYGRAPHICS
 70
     1
  9
$MEASUREMENT
 70
     0
  9
$CELWEIGHT
370
    -1
  9
$ENDCAPS
280
     0
  9
$JOINSTYLE
280
     0
  9
$LWDISPLAY
290
     0
  9
$INSUNITS
 70
     4
  9
$HYPERLINKBASE
  1

  9
$STYLESHEET
  1

  9
$XEDIT
290
     1
  9
$CEPSNTYPE
380
     0
  9
$PSTYLEMODE
290
     1
  9
$FINGERPRINTGUID
  2
{F595B2CD-FF65-422B-BB74-ADB7F1044632}
  9
$VERSIONGUID
  2
{FAEB1C32-E019-11D5-929B-00C0DF256EC4}
  9
$EXTNAMES
290
     1
  9
$PSVPSCALE
 40
0.0
  9
$OLESTARTUP
290
     0
  9
$SORTENTS
280
   127
  9
$INDEXCTL
280
     0
  9
$HIDETEXT
280
     1
  9
$XCLIPFRAME
290
     0
  9
$HALOGAP
280
     0
  9
$OBSCOLOR
 70
   257
  9
$OBSLTYPE
280
     0
  9
$INTERSECTIONDISPLAY
280
     0
  9
$INTERSECTIONCOLOR
 70
   257
  9
$DIMASSOC
280
     2
  9
$PROJECTNAME
  1

  0
ENDSEC
  0
SECTION
  2
CLASSES
  0
CLASS
  1
ACDBDICTIONARYWDFLT
  2
AcDbDictionaryWithDefault
  3
ObjectDBX Classes
 90
        0
 91
        4
280
     0
281
     0
  0
CLASS
  1
VISUALSTYLE
  2
AcDbVisualStyle
  3
ObjectDBX Classes
 90
     4095
 91
        4
280
     0
281
     0
  0
CLASS
  1
MATERIAL
  2
AcDbMaterial
  3
ObjectDBX Classes
 90
     1153
 91
        4
280
     0
281
     0
  0
CLASS
  1
SCALE
  2
AcDbScale
  3
ObjectDBX Classes
 90
     1153
 91
        4
280
     0
281
     0
  0
CLASS
  1
SUN
  2
AcDbSun
  3
SCENEOE
 90
     1153
 91
        4
280
     0
281
     0
  0
CLASS
  1
DICTIONARYVAR
  2
AcDbDictionaryVar
  3
ObjectDBX Classes
 90
        0
 91
        4
280
     0
281
     0
  0
ENDSEC
  0
SECTION
  2
TABLES
  0
TABLE
  2
VPORT
  5
8
330
0
100
AcDbSymbolTable
 70
     1
  0
VPORT
  5
29
330
8
100
AcDbSymbolTableRecord
100
AcDbViewportTableRecord
  2
*Active
 70
     0
 10
0.0
 20
0.0
 11
1.0
 21
1.0
 12
-1194.0
 22
72.0
 13
0.0
 23
0.0
 14
0.5
 24
0.5
 15
0.5
 25
0.5
 16
0.0
 26
0.0
 36
1.0
 17
0.0
 27
0.0
 37
0.0
 40
195.84
 41
1.5
 42
50.0
 43
0.0
 44
0.0
 50
0.0
 51
0.0
 71
     0
 72
   100
 73
     1
 74
     3
 75
     0
 76
     0
 77
     0
 78
     0
281
     0
 65
     1
110
0.0
120
0.0
130
0.0
111
1.0
121
0.0
131
0.0
112
0.0
122
1.0
132
0.0
 79
     0
146
0.0
  0
ENDTAB
  0
TABLE
  2
LTYPE
  5
5
330
0
100
AcDbSymbolTable
 70
     1
  0
LTYPE
  5
14
330
5
100
AcDbSymbolTableRecord
100
AcDbLinetypeTableRecord
  2
ByBlock
 70
     0
  3

 72
    65
 73
     0
 40
0.0
  0
LTYPE
  5
15
330
5
100
AcDbSymbolTableRecord
100
AcDbLinetypeTableRecord
  2
ByLayer
 70
     0
  3

 72
    65
 73
     0
 40
0.0
  0
LTYPE
  5
16
330
5
100
AcDbSymbolTableRecord
100
AcDbLinetypeTableRecord
  2
Continuous
 70
     0
  3
Solid line
 72
    65
 73
     0
 40
0.0
  0
ENDTAB
  0
TABLE
  2
LAYER
  5
2
330
0
100
AcDbSymbolTable
 70
     2
  0
LAYER
  5
10
330
2
100
AcDbSymbolTableRecord
100
AcDbLayerTableRecord
  2
0
 70
     0
 62
     7
  6
Continuous
370
    -3
390
F
  0
LAYER
  5
6A
330
2
100
AcDbSymbolTableRecord
100
AcDbLayerTableRecord
  2
Make2D$visible$lines
 70
     0
 62
    18
420
        0
  6
Continuous
370
    -3
390
F
  0
ENDTAB
  0
TABLE
  2
STYLE
  5
3
330
0
100
AcDbSymbolTable
 70
     1
  0
STYLE
  5
11
330
3
100
AcDbSymbolTableRecord
100
AcDbTextStyleTableRecord
  2
Standard
 70
     0
 40
0.0
 41
1.0
 50
0.0
 71
     0
 42
0.2
  3
txt
  4

  0
ENDTAB
  0
TABLE
  2
VIEW
  5
6
330
0
100
AcDbSymbolTable
 70
     0
  0
ENDTAB
  0
TABLE
  2
UCS
  5
7
330
0
100
AcDbSymbolTable
 70
     0
  0
ENDTAB
  0
TABLE
  2
APPID
  5
9
330
0
100
AcDbSymbolTable
 70
     1
  0
APPID
  5
12
330
9
100
AcDbSymbolTableRecord
100
AcDbRegAppTableRecord
  2
ACAD
 70
     0
  0
ENDTAB
  0
TABLE
  2
DIMSTYLE
  5
A
330
0
100
AcDbSymbolTable
 70
     1
100
AcDbDimStyleTable
  0
DIMSTYLE
105
27
330
A
100
AcDbSymbolTableRecord
100
AcDbDimStyleTableRecord
  2
Standard
 70
     0
178
     0
340
11
  0
ENDTAB
  0
TABLE
  2
BLOCK_RECORD
  5
1
330
0
100
AcDbSymbolTable
 70
     1
  0
BLOCK_RECORD
  5
1F
330
1
100
AcDbSymbolTableRecord
100
AcDbBlockTableRecord
  2
*Model_Space
340
22
  0
BLOCK_RECORD
  5
1B
330
1
100
AcDbSymbolTableRecord
100
AcDbBlockTableRecord
  2
*Paper_Space
340
1E
  0
BLOCK_RECORD
  5
23
330
1
100
AcDbSymbolTableRecord
100
AcDbBlockTableRecord
  2
*Paper_Space0
340
26
  0
ENDTAB
  0
ENDSEC
  0
SECTION
  2
BLOCKS
  0
BLOCK
  5
20
330
1F
100
AcDbEntity
  8
0
100
AcDbBlockBegin
  2
*Model_Space
 70
     0
 10
0.0
 20
0.0
 30
0.0
  3
*Model_Space
  1
*Model_Space
  0
ENDBLK
  5
21
330
1F
100
AcDbEntity
  8
0
100
AcDbBlockEnd
  0
BLOCK
  5
1C
330
1B
100
AcDbEntity
 67
     1
  8
0
100
AcDbBlockBegin
  2
*Paper_Space
 70
     0
 10
0.0
 20
0.0
 30
0.0
  3
*Paper_Space
  1
*Paper_Space
  0
ENDBLK
  5
1D
330
1B
100
AcDbEntity
 67
     1
  8
0
100
AcDbBlockEnd
  0
BLOCK
  5
24
330
23
100
AcDbEntity
  8
0
100
AcDbBlockBegin
  2
*Paper_Space0
 70
     0
 10
0.0
 20
0.0
 30
0.0
  3
*Paper_Space0
  1
*Paper_Space0
  0
ENDBLK
  5
25
330
23
100
AcDbEntity
  8
0
100
AcDbBlockEnd
  0
ENDSEC
  0
SECTION
  2
ENTITIES
  0
SPLINE
  5
6B
330
1F
100
AcDbEntity
  8
Make2D$visible$lines
100
AcDbSpline
210
0.0
220
0.0
230
1.0
 70
    24
 71
     2
 72
     6
 73
     3
 74
     0
 42
0.000000001
 43
0.0000000001
 40
0.0
 40
0.0
 40
0.0
 40
48.0
 40
48.0
 40
48.0
 10
-1290.0
 20
-24.0
 30
0.0
 10
-1314.0
 20
-24.0
 30
0.0
 10
-1338.0
 20
-24.0
 30
0.0
  0
SPLINE
  5
6C
330
1F
100
AcDbEntity
  8
Make2D$visible$lines
100
AcDbSpline
210
0.0
220
0.0
230
1.0
 70
    24
 71
     2
 72
     6
 73
     3
 74
     0
 42
0.000000001
 43
0.0000000001
 40
0.0
 40
0.0
 40
0.0
 40
48.0
 40
48.0
 40
48.0
 10
-1242.0
 20
-24.0
 30
0.0
 10
-1266.0
 20
-24.0
 30
0.0
 10
-1290.0
 20
-24.0
 30
0.0
  0
SPLINE
  5
6D
330
1F
100
AcDbEntity
  8
Make2D$visible$lines
100
AcDbSpline
210
0.0
220
0.0
230
1.0
 70
    24
 71
     2
 72
     6
 73
     3
 74
     0
 42
0.000000001
 43
0.0000000001
 40
0.0
 40
0.0
 40
0.0
 40
48.0
 40
48.0
 40
48.0
 10
-1194.0
 20
-24.0
 30
0.0
 10
-1218.0
 20
-24.0
 30
0.0
 10
-1242.0
 20
-24.0
 30
0.0
  0
SPLINE
  5
6E
330
1F
100
AcDbEntity
  8
Make2D$visible$lines
100
AcDbSpline
210
0.0
220
0.0
230
1.0
 70
    24
 71
     2
 72
     6
 73
     3
 74
     0
 42
0.000000001
 43
0.0000000001
 40
0.0
 40
0.0
 40
0.0
 40
48.0
 40
48.0
 40
48.0
 10
-1146.0
 20
-24.0
 30
0.0
 10
-1170.0
 20
-24.0
 30
0.0
 10
-1194.0
 20
-24.0
 30
0.0
  0
SPLINE
  5
6F
330
1F
100
AcDbEntity
  8
Make2D$visible$lines
100
AcDbSpline
210
0.0
220
0.0
230
1.0
 70
    24
 71
     2
 72
     6
 73
     3
 74
     0
 42
0.000000001
 43
0.0000000001
 40
0.0
 40
0.0
 40
0.0
 40
48.0
 40
48.0
 40
48.0
 10
-1098.0
 20
-24.0
 30
0.0
 10
-1122.0
 20
-24.0
 30
0.0
 10
-1146.0
 20
-24.0
 30
0.0
  0
SPLINE
  5
70
330
1F
100
AcDbEntity
  8
Make2D$visible$lines
100
AcDbSpline
210
0.0
220
0.0
230
1.0
 70
    24
 71
     2
 72
     6
 73
     3
 74
     0
 42
0.000000001
 43
0.0000000001
 40
0.0
 40
0.0
 40
0.0
 40
48.0
 40
48.0
 40
48.0
 10
-1050.0
 20
-24.0
 30
0.0
 10
-1074.0
 20
-24.0
 30
0.0
 10
-1098.0
 20
-24.0
 30
0.0
  0
SPLINE
  5
71
330
1F
100
AcDbEntity
  8
Make2D$visible$lines
100
AcDbSpline
210
0.0
220
0.0
230
1.0
 70
    24
 71
     2
 72
     6
 73
     3
 74
     0
 42
0.000000001
 43
0.0000000001
 40
0.0
 40
0.0
 40
0.0
 40
30.74360535051681
 40
30.74360535051681
 40
30.74360535051681
 10
-1308.0
 20
-17.27919127274657
 30
0.0
 10
-1323.0
 20
-20.63959563637328
 30
0.0
 10
-1338.0
 20
-24.0
 30
0.0
  0
SPLINE
  5
72
330
1F
100
AcDbEntity
  8
Make2D$visible$lines
100
AcDbSpline
210
0.0
220
0.0
230
1.0
 70
    24
 71
     2
 72
     6
 73
     3
 74
     0
 42
0.000000001
 43
0.0000000001
 40
0.0
 40
0.0
 40
0.0
 40
30.74360535051681
 40
30.74360535051681
 40
30.74360535051681
 10
-1260.0
 20
-17.27919127274657
 30
0.0
 10
-1275.0
 20
-20.63959563637328
 30
0.0
 10
-1290.0
 20
-24.0
 30
0.0
  0
SPLINE
  5
73
330
1F
100
AcDbEntity
  8
Make2D$visible$lines
100
AcDbSpline
210
0.0
220
0.0
230
1.0
 70
    24
 71
     2
 72
     6
 73
     3
 74
     0
 42
0.000000001
 43
0.0000000001
 40
0.0
 40
0.0
 40
0.0
 40
30.74360535051681
 40
30.74360535051681
 40
30.74360535051681
 10
-1212.0
 20
-17.27919127274657
 30
0.0
 10
-1227.0
 20
-20.63959563637328
 30
0.0
 10
-1242.0
 20
-24.0
 30
0.0
  0
SPLINE
  5
74
330
1F
100
AcDbEntity
  8
Make2D$visible$lines
100
AcDbSpline
210
0.0
220
0.0
230
1.0
 70
    24
 71
     2
 72
     6
 73
     3
 74
     0
 42
0.000000001
 43
0.0000000001
 40
0.0
 40
0.0
 40
0.0
 40
30.74360535051681
 40
30.74360535051681
 40
30.74360535051681
 10
-1164.0
 20
-17.27919127274657
 30
0.0
 10
-1179.0
 20
-20.63959563637328
 30
0.0
 10
-1194.0
 20
-24.0
 30
0.0
  0
SPLINE
  5
75
330
1F
100
AcDbEntity
  8
Make2D$visible$lines
100
AcDbSpline
210
0.0
220
0.0
230
1.0
 70
    24
 71
     2
 72
     6
 73
     3
 74
     0
 42
0.000000001
 43
0.0000000001
 40
0.0
 40
0.0
 40
0.0
 40
30.74360535051681
 40
30.74360535051681
 40
30.74360535051681
 10
-1116.0
 20
-17.27919127274657
 30
0.0
 10
-1131.0
 20
-20.63959563637328
 30
0.0
 10
-1146.0
 20
-24.0
 30
0.0
  0
SPLINE
  5
76
330
1F
100
AcDbEntity
  8
Make2D$visible$lines
100
AcDbSpline
210
0.0
220
0.0
230
1.0
 70
    24
 71
     2
 72
     6
 73
     3
 74
     0
 42
0.000000001
 43
0.0000000001
 40
0.0
 40
0.0
 40
0.0
 40
30.74360535051681
 40
30.74360535051681
 40
30.74360535051681
 10
-1068.0
 20
-17.27919127274657
 30
0.0
 10
-1083.0
 20
-20.63959563637328
 30
0.0
 10
-1098.0
 20
-24.0
 30
0.0
  0
SPLINE
  5
77
330
1F
100
AcDbEntity
  8
Make2D$visible$lines
100
AcDbSpline
210
0.0
220
0.0
230
1.0
 70
    24
 71
     2
 72
     6
 73
     3
 74
     0
 42
0.000000001
 43
0.0000000001
 40
0.0
 40
0.0
 40
0.0
 40
30.74360535051681
 40
30.74360535051681
 40
30.74360535051681
 10
-1308.0
 20
30.72080872725343
 30
0.0
 10
-1323.0
 20
27.36040436362672
 30
0.0
 10
-1338.0
 20
24.0
 30
0.0
  0
SPLINE
  5
78
330
1F
100
AcDbEntity
  8
Make2D$visible$lines
100
AcDbSpline
210
0.0
220
0.0
230
1.0
 70
    24
 71
     2
 72
     6
 73
     3
 74
     0
 42
0.000000001
 43
0.0000000001
 40
0.0
 40
0.0
 40
0.0
 40
30.74360535051681
 40
30.74360535051681
 40
30.74360535051681
 10
-1260.0
 20
30.72080872725343
 30
0.0
 10
-1275.0
 20
27.36040436362672
 30
0.0
 10
-1290.0
 20
24.0
 30
0.0
  0
SPLINE
  5
79
330
1F
100
AcDbEntity
  8
Make2D$visible$lines
100
AcDbSpline
210
0.0
220
0.0
230
1.0
 70
    24
 71
     2
 72
     6
 73
     3
 74
     0
 42
0.000000001
 43
0.0000000001
 40
0.0
 40
0.0
 40
0.0
 40
30.74360535051681
 40
30.74360535051681
 40
30.74360535051681
 10
-1212.0
 20
30.72080872725343
 30
0.0
 10
-1227.0
 20
27.36040436362672
 30
0.0
 10
-1242.0
 20
24.0
 30
0.0
  0
SPLINE
  5
7A
330
1F
100
AcDbEntity
  8
Make2D$visible$lines
100
AcDbSpline
210
0.0
220
0.0
230
1.0
 70
    24
 71
     2
 72
     6
 73
     3
 74
     0
 42
0.000000001
 43
0.0000000001
 40
0.0
 40
0.0
 40
0.0
 40
30.74360535051681
 40
30.74360535051681
 40
30.74360535051681
 10
-1164.0
 20
30.72080872725343
 30
0.0
 10
-1179.0
 20
27.36040436362672
 30
0.0
 10
-1194.0
 20
24.0
 30
0.0
  0
SPLINE
  5
7B
330
1F
100
AcDbEntity
  8
Make2D$visible$lines
100
AcDbSpline
210
0.0
220
0.0
230
1.0
 70
    24
 71
     2
 72
     6
 73
     3
 74
     0
 42
0.000000001
 43
0.0000000001
 40
0.0
 40
0.0
 40
0.0
 40
30.74360535051681
 40
30.74360535051681
 40
30.74360535051681
 10
-1116.0
 20
30.72080872725343
 30
0.0
 10
-1131.0
 20
27.36040436362672
 30
0.0
 10
-1146.0
 20
24.0
 30
0.0
  0
SPLINE
  5
7C
330
1F
100
AcDbEntity
  8
Make2D$visible$lines
100
AcDbSpline
210
0.0
220
0.0
230
1.0
 70
    24
 71
     2
 72
     6
 73
     3
 74
     0
 42
0.000000001
 43
0.0000000001
 40
0.0
 40
0.0
 40
0.0
 40
30.74360535051681
 40
30.74360535051681
 40
30.74360535051681
 10
-1068.0
 20
30.72080872725343
 30
0.0
 10
-1083.0
 20
27.36040436362672
 30
0.0
 10
-1098.0
 20
24.0
 30
0.0
  0
SPLINE
  5
7D
330
1F
100
AcDbEntity
  8
Make2D$visible$lines
100
AcDbSpline
210
0.0
220
0.0
230
1.0
 70
    24
 71
     2
 72
     6
 73
     3
 74
     0
 42
0.000000001
 43
0.0000000001
 40
0.0
 40
0.0
 40
0.0
 40
30.74360535051681
 40
30.74360535051681
 40
30.74360535051681
 10
-1308.0
 20
78.72080872725343
 30
0.0
 10
-1323.0
 20
75.36040436362671
 30
0.0
 10
-1338.0
 20
72.0
 30
0.0
  0
SPLINE
  5
7E
330
1F
100
AcDbEntity
  8
Make2D$visible$lines
100
AcDbSpline
210
0.0
220
0.0
230
1.0
 70
    24
 71
     2
 72
     6
 73
     3
 74
     0
 42
0.000000001
 43
0.0000000001
 40
0.0
 40
0.0
 40
0.0
 40
30.74360535051681
 40
30.74360535051681
 40
30.74360535051681
 10
-1260.0
 20
78.72080872725343
 30
0.0
 10
-1275.0
 20
75.36040436362671
 30
0.0
 10
-1290.0
 20
72.0
 30
0.0
  0
SPLINE
  5
7F
330
1F
100
AcDbEntity
  8
Make2D$visible$lines
100
AcDbSpline
210
0.0
220
0.0
230
1.0
 70
    24
 71
     2
 72
     6
 73
     3
 74
     0
 42
0.000000001
 43
0.0000000001
 40
0.0
 40
0.0
 40
0.0
 40
30.74360535051681
 40
30.74360535051681
 40
30.74360535051681
 10
-1212.0
 20
78.72080872725343
 30
0.0
 10
-1227.0
 20
75.36040436362671
 30
0.0
 10
-1242.0
 20
72.0
 30
0.0
  0
SPLINE
  5
80
330
1F
100
AcDbEntity
  8
Make2D$visible$lines
100
AcDbSpline
210
0.0
220
0.0
230
1.0
 70
    24
 71
     2
 72
     6
 73
     3
 74
     0
 42
0.000000001
 43
0.0000000001
 40
0.0
 40
0.0
 40
0.0
 40
30.74360535051681
 40
30.74360535051681
 40
30.74360535051681
 10
-1164.0
 20
78.72080872725343
 30
0.0
 10
-1179.0
 20
75.36040436362671
 30
0.0
 10
-1194.0
 20
72.0
 30
0.0
  0
SPLINE
  5
81
330
1F
100
AcDbEntity
  8
Make2D$visible$lines
100
AcDbSpline
210
0.0
220
0.0
230
1.0
 70
    24
 71
     2
 72
     6
 73
     3
 74
     0
 42
0.000000001
 43
0.0000000001
 40
0.0
 40
0.0
 40
0.0
 40
30.74360535051681
 40
30.74360535051681
 40
30.74360535051681
 10
-1116.0
 20
78.72080872725343
 30
0.0
 10
-1131.0
 20
75.36040436362671
 30
0.0
 10
-1146.0
 20
72.0
 30
0.0
  0
SPLINE
  5
82
330
1F
100
AcDbEntity
  8
Make2D$visible$lines
100
AcDbSpline
210
0.0
220
0.0
230
1.0
 70
    24
 71
     2
 72
     6
 73
     3
 74
     0
 42
0.000000001
 43
0.0000000001
 40
0.0
 40
0.0
 40
0.0
 40
30.74360535051681
 40
30.74360535051681
 40
30.74360535051681
 10
-1068.0
 20
78.72080872725343
 30
0.0
 10
-1083.0
 20
75.36040436362671
 30
0.0
 10
-1098.0
 20
72.0
 30
0.0
  0
SPLINE
  5
83
330
1F
100
AcDbEntity
  8
Make2D$visible$lines
100
AcDbSpline
210
0.0
220
0.0
230
1.0
 70
    24
 71
     2
 72
     6
 73
     3
 74
     0
 42
0.000000001
 43
0.0000000001
 40
0.0
 40
0.0
 40
0.0
 40
30.74360535051681
 40
30.74360535051681
 40
30.74360535051681
 10
-1308.0
 20
126.7208087272534
 30
0.0
 10
-1323.0
 20
123.3604043636267
 30
0.0
 10
-1338.0
 20
120.0
 30
0.0
  0
SPLINE
  5
84
330
1F
100
AcDbEntity
  8
Make2D$visible$lines
100
AcDbSpline
210
0.0
220
0.0
230
1.0
 70
    24
 71
     2
 72
     6
 73
     3
 74
     0
 42
0.000000001
 43
0.0000000001
 40
0.0
 40
0.0
 40
0.0
 40
30.74360535051681
 40
30.74360535051681
 40
30.74360535051681
 10
-1260.0
 20
126.7208087272534
 30
0.0
 10
-1275.0
 20
123.3604043636267
 30
0.0
 10
-1290.0
 20
120.0
 30
0.0
  0
SPLINE
  5
85
330
1F
100
AcDbEntity
  8
Make2D$visible$lines
100
AcDbSpline
210
0.0
220
0.0
230
1.0
 70
    24
 71
     2
 72
     6
 73
     3
 74
     0
 42
0.000000001
 43
0.0000000001
 40
0.0
 40
0.0
 40
0.0
 40
30.74360535051681
 40
30.74360535051681
 40
30.74360535051681
 10
-1212.0
 20
126.7208087272534
 30
0.0
 10
-1227.0
 20
123.3604043636267
 30
0.0
 10
-1242.0
 20
120.0
 30
0.0
  0
SPLINE
  5
86
330
1F
100
AcDbEntity
  8
Make2D$visible$lines
100
AcDbSpline
210
0.0
220
0.0
230
1.0
 70
    24
 71
     2
 72
     6
 73
     3
 74
     0
 42
0.000000001
 43
0.0000000001
 40
0.0
 40
0.0
 40
0.0
 40
30.74360535051681
 40
30.74360535051681
 40
30.74360535051681
 10
-1164.0
 20
126.7208087272534
 30
0.0
 10
-1179.0
 20
123.3604043636267
 30
0.0
 10
-1194.0
 20
120.0
 30
0.0
  0
SPLINE
  5
87
330
1F
100
AcDbEntity
  8
Make2D$visible$lines
100
AcDbSpline
210
0.0
220
0.0
230
1.0
 70
    24
 71
     2
 72
     6
 73
     3
 74
     0
 42
0.000000001
 43
0.0000000001
 40
0.0
 40
0.0
 40
0.0
 40
30.74360535051681
 40
30.74360535051681
 40
30.74360535051681
 10
-1116.0
 20
126.7208087272534
 30
0.0
 10
-1131.0
 20
123.3604043636267
 30
0.0
 10
-1146.0
 20
120.0
 30
0.0
  0
SPLINE
  5
88
330
1F
100
AcDbEntity
  8
Make2D$visible$lines
100
AcDbSpline
210
0.0
220
0.0
230
1.0
 70
    24
 71
     2
 72
     6
 73
     3
 74
     0
 42
0.000000001
 43
0.0000000001
 40
0.0
 40
0.0
 40
0.0
 40
30.74360535051681
 40
30.74360535051681
 40
30.74360535051681
 10
-1068.0
 20
126.7208087272534
 30
0.0
 10
-1083.0
 20
123.3604043636267
 30
0.0
 10
-1098.0
 20
120.0
 30
0.0
  0
SPLINE
  5
89
330
1F
100
AcDbEntity
  8
Make2D$visible$lines
100
AcDbSpline
210
0.0
220
0.0
230
1.0
 70
    24
 71
     2
 72
     6
 73
     3
 74
     0
 42
0.000000001
 43
0.0000000001
 40
0.0
 40
0.0
 40
0.0
 40
22.37009429014362
 40
22.37009429014362
 40
22.37009429014362
 10
-1308.0
 20
-17.27919127274657
 30
0.0
 10
-1314.0
 20
-7.839631980201229
 30
0.0
 10
-1320.0
 20
1.599927312344107
 30
0.0
  0
SPLINE
  5
8A
330
1F
100
AcDbEntity
  8
Make2D$visible$lines
100
AcDbSpline
210
0.0
220
0.0
230
1.0
 70
    24
 71
     2
 72
     6
 73
     3
 74
     0
 42
0.000000001
 43
0.0000000001
 40
0.0
 40
0.0
 40
0.0
 40
22.37009429014362
 40
22.37009429014362
 40
22.37009429014362
 10
-1260.0
 20
-17.27919127274657
 30
0.0
 10
-1266.0
 20
-7.839631980201229
 30
0.0
 10
-1272.0
 20
1.599927312344107
 30
0.0
  0
SPLINE
  5
8B
330
1F
100
AcDbEntity
  8
Make2D$visible$lines
100
AcDbSpline
210
0.0
220
0.0
230
1.0
 70
    24
 71
     2
 72
     6
 73
     3
 74
     0
 42
0.000000001
 43
0.0000000001
 40
0.0
 40
0.0
 40
0.0
 40
22.37009429014362
 40
22.37009429014362
 40
22.37009429014362
 10
-1212.0
 20
-17.27919127274657
 30
0.0
 10
-1218.0
 20
-7.839631980201229
 30
0.0
 10
-1224.0
 20
1.599927312344107
 30
0.0
  0
SPLINE
  5
8C
330
1F
100
AcDbEntity
  8
Make2D$visible$lines
100
AcDbSpline
210
0.0
220
0.0
230
1.0
 70
    24
 71
     2
 72
     6
 73
     3
 74
     0
 42
0.000000001
 43
0.0000000001
 40
0.0
 40
0.0
 40
0.0
 40
22.37009429014362
 40
22.37009429014362
 40
22.37009429014362
 10
-1164.0
 20
-17.27919127274657
 30
0.0
 10
-1170.0
 20
-7.839631980201229
 30
0.0
 10
-1176.0
 20
1.599927312344107
 30
0.0
  0
SPLINE
  5
8D
330
1F
100
AcDbEntity
  8
Make2D$visible$lines
100
AcDbSpline
210
0.0
220
0.0
230
1.0
 70
    24
 71
     2
 72
     6
 73
     3
 74
     0
 42
0.000000001
 43
0.0000000001
 40
0.0
 40
0.0
 40
0.0
 40
22.37009429014362
 40
22.37009429014362
 40
22.37009429014362
 10
-1116.0
 20
-17.27919127274657
 30
0.0
 10
-1122.0
 20
-7.839631980201229
 30
0.0
 10
-1128.0
 20
1.599927312344107
 30
0.0
  0
SPLINE
  5
8E
330
1F
100
AcDbEntity
  8
Make2D$visible$lines
100
AcDbSpline
210
0.0
220
0.0
230
1.0
 70
    24
 71
     2
 72
     6
 73
     3
 74
     0
 42
0.000000001
 43
0.0000000001
 40
0.0
 40
0.0
 40
0.0
 40
22.37009429014362
 40
22.37009429014362
 40
22.37009429014362
 10
-1068.0
 20
-17.27919127274657
 30
0.0
 10
-1074.0
 20
-7.839631980201229
 30
0.0
 10
-1080.0
 20
1.599927312344107
 30
0.0
  0
SPLINE
  5
8F
330
1F
100
AcDbEntity
  8
Make2D$visible$lines
100
AcDbSpline
210
0.0
220
0.0
230
1.0
 70
    24
 71
     2
 72
     6
 73
     3
 74
     0
 42
0.000000001
 43
0.0000000001
 40
0.0
 40
0.0
 40
0.0
 40
22.37009429014362
 40
22.37009429014362
 40
22.37009429014362
 10
-1308.0
 20
30.72080872725343
 30
0.0
 10
-1314.0
 20
40.16036801979877
 30
0.0
 10
-1320.0
 20
49.59992731234411
 30
0.0
  0
SPLINE
  5
90
330
1F
100
AcDbEntity
  8
Make2D$visible$lines
100
AcDbSpline
210
0.0
220
0.0
230
1.0
 70
    24
 71
     2
 72
     6
 73
     3
 74
     0
 42
0.000000001
 43
0.0000000001
 40
0.0
 40
0.0
 40
0.0
 40
22.37009429014362
 40
22.37009429014362
 40
22.37009429014362
 10
-1260.0
 20
30.72080872725343
 30
0.0
 10
-1266.0
 20
40.16036801979877
 30
0.0
 10
-1272.0
 20
49.59992731234411
 30
0.0
  0
SPLINE
  5
91
330
1F
100
AcDbEntity
  8
Make2D$visible$lines
100
AcDbSpline
210
0.0
220
0.0
230
1.0
 70
    24
 71
     2
 72
     6
 73
     3
 74
     0
 42
0.000000001
 43
0.0000000001
 40
0.0
 40
0.0
 40
0.0
 40
22.37009429014362
 40
22.37009429014362
 40
22.37009429014362
 10
-1212.0
 20
30.72080872725343
 30
0.0
 10
-1218.0
 20
40.16036801979877
 30
0.0
 10
-1224.0
 20
49.59992731234411
 30
0.0
  0
SPLINE
  5
92
330
1F
100
AcDbEntity
  8
Make2D$visible$lines
100
AcDbSpline
210
0.0
220
0.0
230
1.0
 70
    24
 71
     2
 72
     6
 73
     3
 74
     0
 42
0.000000001
 43
0.0000000001
 40
0.0
 40
0.0
 40
0.0
 40
22.37009429014362
 40
22.37009429014362
 40
22.37009429014362
 10
-1164.0
 20
30.72080872725343
 30
0.0
 10
-1170.0
 20
40.16036801979877
 30
0.0
 10
-1176.0
 20
49.59992731234411
 30
0.0
  0
SPLINE
  5
93
330
1F
100
AcDbEntity
  8
Make2D$visible$lines
100
AcDbSpline
210
0.0
220
0.0
230
1.0
 70
    24
 71
     2
 72
     6
 73
     3
 74
     0
 42
0.000000001
 43
0.0000000001
 40
0.0
 40
0.0
 40
0.0
 40
22.37009429014362
 40
22.37009429014362
 40
22.37009429014362
 10
-1116.0
 20
30.72080872725343
 30
0.0
 10
-1122.0
 20
40.16036801979877
 30
0.0
 10
-1128.0
 20
49.59992731234411
 30
0.0
  0
SPLINE
  5
94
330
1F
100
AcDbEntity
  8
Make2D$visible$lines
100
AcDbSpline
210
0.0
220
0.0
230
1.0
 70
    24
 71
     2
 72
     6
 73
     3
 74
     0
 42
0.000000001
 43
0.0000000001
 40
0.0
 40
0.0
 40
0.0
 40
22.37009429014362
 40
22.37009429014362
 40
22.37009429014362
 10
-1068.0
 20
30.72080872725343
 30
0.0
 10
-1074.0
 20
40.16036801979877
 30
0.0
 10
-1080.0
 20
49.59992731234411
 30
0.0
  0
SPLINE
  5
95
330
1F
100
AcDbEntity
  8
Make2D$visible$lines
100
AcDbSpline
210
0.0
220
0.0
230
1.0
 70
    24
 71
     2
 72
     6
 73
     3
 74
     0
 42
0.000000001
 43
0.0000000001
 40
0.0
 40
0.0
 40
0.0
 40
22.37009429014362
 40
22.37009429014362
 40
22.37009429014362
 10
-1308.0
 20
78.72080872725343
 30
0.0
 10
-1314.0
 20
88.16036801979877
 30
0.0
 10
-1320.0
 20
97.59992731234411
 30
0.0
  0
SPLINE
  5
96
330
1F
100
AcDbEntity
  8
Make2D$visible$lines
100
AcDbSpline
210
0.0
220
0.0
230
1.0
 70
    24
 71
     2
 72
     6
 73
     3
 74
     0
 42
0.000000001
 43
0.0000000001
 40
0.0
 40
0.0
 40
0.0
 40
22.37009429014362
 40
22.37009429014362
 40
22.37009429014362
 10
-1260.0
 20
78.72080872725343
 30
0.0
 10
-1266.0
 20
88.16036801979877
 30
0.0
 10
-1272.0
 20
97.59992731234411
 30
0.0
  0
SPLINE
  5
97
330
1F
100
AcDbEntity
  8
Make2D$visible$lines
100
AcDbSpline
210
0.0
220
0.0
230
1.0
 70
    24
 71
     2
 72
     6
 73
     3
 74
     0
 42
0.000000001
 43
0.0000000001
 40
0.0
 40
0.0
 40
0.0
 40
22.37009429014362
 40
22.37009429014362
 40
22.37009429014362
 10
-1212.0
 20
78.72080872725343
 30
0.0
 10
-1218.0
 20
88.16036801979877
 30
0.0
 10
-1224.0
 20
97.59992731234411
 30
0.0
  0
SPLINE
  5
98
330
1F
100
AcDbEntity
  8
Make2D$visible$lines
100
AcDbSpline
210
0.0
220
0.0
230
1.0
 70
    24
 71
     2
 72
     6
 73
     3
 74
     0
 42
0.000000001
 43
0.0000000001
 40
0.0
 40
0.0
 40
0.0
 40
22.37009429014362
 40
22.37009429014362
 40
22.37009429014362
 10
-1164.0
 20
78.72080872725343
 30
0.0
 10
-1170.0
 20
88.16036801979877
 30
0.0
 10
-1176.0
 20
97.59992731234411
 30
0.0
  0
SPLINE
  5
99
330
1F
100
AcDbEntity
  8
Make2D$visible$lines
100
AcDbSpline
210
0.0
220
0.0
230
1.0
 70
    24
 71
     2
 72
     6
 73
     3
 74
     0
 42
0.000000001
 43
0.0000000001
 40
0.0
 40
0.0
 40
0.0
 40
22.37009429014362
 40
22.37009429014362
 40
22.37009429014362
 10
-1116.0
 20
78.72080872725343
 30
0.0
 10
-1122.0
 20
88.16036801979877
 30
0.0
 10
-1128.0
 20
97.59992731234411
 30
0.0
  0
SPLINE
  5
9A
330
1F
100
AcDbEntity
  8
Make2D$visible$lines
100
AcDbSpline
210
0.0
220
0.0
230
1.0
 70
    24
 71
     2
 72
     6
 73
     3
 74
     0
 42
0.000000001
 43
0.0000000001
 40
0.0
 40
0.0
 40
0.0
 40
22.37009429014362
 40
22.37009429014362
 40
22.37009429014362
 10
-1068.0
 20
78.72080872725343
 30
0.0
 10
-1074.0
 20
88.16036801979877
 30
0.0
 10
-1080.0
 20
97.59992731234411
 30
0.0
  0
SPLINE
  5
9B
330
1F
100
AcDbEntity
  8
Make2D$visible$lines
100
AcDbSpline
210
0.0
220
0.0
230
1.0
 70
    24
 71
     2
 72
     6
 73
     3
 74
     0
 42
0.000000001
 43
0.0000000001
 40
0.0
 40
0.0
 40
0.0
 40
22.37009429014362
 40
22.37009429014362
 40
22.37009429014362
 10
-1308.0
 20
126.7208087272534
 30
0.0
 10
-1314.0
 20
136.1603680197988
 30
0.0
 10
-1320.0
 20
145.5999273123441
 30
0.0
  0
SPLINE
  5
9C
330
1F
100
AcDbEntity
  8
Make2D$visible$lines
100
AcDbSpline
210
0.0
220
0.0
230
1.0
 70
    24
 71
     2
 72
     6
 73
     3
 74
     0
 42
0.000000001
 43
0.0000000001
 40
0.0
 40
0.0
 40
0.0
 40
22.37009429014362
 40
22.37009429014362
 40
22.37009429014362
 10
-1260.0
 20
126.7208087272534
 30
0.0
 10
-1266.0
 20
136.1603680197988
 30
0.0
 10
-1272.0
 20
145.5999273123441
 30
0.0
  0
SPLINE
  5
9D
330
1F
100
AcDbEntity
  8
Make2D$visible$lines
100
AcDbSpline
210
0.0
220
0.0
230
1.0
 70
    24
 71
     2
 72
     6
 73
     3
 74
     0
 42
0.000000001
 43
0.0000000001
 40
0.0
 40
0.0
 40
0.0
 40
22.37009429014362
 40
22.37009429014362
 40
22.37009429014362
 10
-1212.0
 20
126.7208087272534
 30
0.0
 10
-1218.0
 20
136.1603680197988
 30
0.0
 10
-1224.0
 20
145.5999273123441
 30
0.0
  0
SPLINE
  5
9E
330
1F
100
AcDbEntity
  8
Make2D$visible$lines
100
AcDbSpline
210
0.0
220
0.0
230
1.0
 70
    24
 71
     2
 72
     6
 73
     3
 74
     0
 42
0.000000001
 43
0.0000000001
 40
0.0
 40
0.0
 40
0.0
 40
22.37009429014362
 40
22.37009429014362
 40
22.37009429014362
 10
-1164.0
 20
126.7208087272534
 30
0.0
 10
-1170.0
 20
136.1603680197988
 30
0.0
 10
-1176.0
 20
145.5999273123441
 30
0.0
  0
SPLINE
  5
9F
330
1F
100
AcDbEntity
  8
Make2D$visible$lines
100
AcDbSpline
210
0.0
220
0.0
230
1.0
 70
    24
 71
     2
 72
     6
 73
     3
 74
     0
 42
0.000000001
 43
0.0000000001
 40
0.0
 40
0.0
 40
0.0
 40
22.37009429014362
 40
22.37009429014362
 40
22.37009429014362
 10
-1116.0
 20
126.7208087272534
 30
0.0
 10
-1122.0
 20
136.1603680197988
 30
0.0
 10
-1128.0
 20
145.5999273123441
 30
0.0
  0
SPLINE
  5
A0
330
1F
100
AcDbEntity
  8
Make2D$visible$lines
100
AcDbSpline
210
0.0
220
0.0
230
1.0
 70
    24
 71
     2
 72
     6
 73
     3
 74
     0
 42
0.000000001
 43
0.0000000001
 40
0.0
 40
0.0
 40
0.0
 40
22.37009429014362
 40
22.37009429014362
 40
22.37009429014362
 10
-1068.0
 20
126.7208087272534
 30
0.0
 10
-1074.0
 20
136.1603680197988
 30
0.0
 10
-1080.0
 20
145.5999273123441
 30
0.0
  0
SPLINE
  5
A1
330
1F
100
AcDbEntity
  8
Make2D$visible$lines
100
AcDbSpline
210
0.0
220
0.0
230
1.0
 70
    24
 71
     2
 72
     6
 73
     3
 74
     0
 42
0.000000001
 43
0.0000000001
 40
0.0
 40
0.0
 40
0.0
 40
18.81070801941839
 40
18.81070801941839
 40
18.81070801941839
 10
-1308.0
 20
-17.27919127274657
 30
0.0
 10
-1304.282733357975
 20
-8.639595636373283
 30
0.0
 10
-1300.56546671595
 20
0.0
 30
0.0
  0
SPLINE
  5
A2
330
1F
100
AcDbEntity
  8
Make2D$visible$lines
100
AcDbSpline
210
0.0
220
0.0
230
1.0
 70
    24
 71
     2
 72
     6
 73
     3
 74
     0
 42
0.000000001
 43
0.0000000001
 40
0.0
 40
0.0
 40
0.0
 40
18.81070801941839
 40
18.81070801941839
 40
18.81070801941839
 10
-1260.0
 20
-17.27919127274657
 30
0.0
 10
-1256.282733357975
 20
-8.639595636373283
 30
0.0
 10
-1252.56546671595
 20
0.0
 30
0.0
  0
SPLINE
  5
A3
330
1F
100
AcDbEntity
  8
Make2D$visible$lines
100
AcDbSpline
210
0.0
220
0.0
230
1.0
 70
    24
 71
     2
 72
     6
 73
     3
 74
     0
 42
0.000000001
 43
0.0000000001
 40
0.0
 40
0.0
 40
0.0
 40
18.81070801941839
 40
18.81070801941839
 40
18.81070801941839
 10
-1212.0
 20
-17.27919127274657
 30
0.0
 10
-1208.282733357975
 20
-8.639595636373283
 30
0.0
 10
-1204.56546671595
 20
0.0
 30
0.0
  0
SPLINE
  5
A4
330
1F
100
AcDbEntity
  8
Make2D$visible$lines
100
AcDbSpline
210
0.0
220
0.0
230
1.0
 70
    24
 71
     2
 72
     6
 73
     3
 74
     0
 42
0.000000001
 43
0.0000000001
 40
0.0
 40
0.0
 40
0.0
 40
18.81070801941839
 40
18.81070801941839
 40
18.81070801941839
 10
-1164.0
 20
-17.27919127274657
 30
0.0
 10
-1160.282733357975
 20
-8.639595636373283
 30
0.0
 10
-1156.56546671595
 20
0.0
 30
0.0
  0
SPLINE
  5
A5
330
1F
100
AcDbEntity
  8
Make2D$visible$lines
100
AcDbSpline
210
0.0
220
0.0
230
1.0
 70
    24
 71
     2
 72
     6
 73
     3
 74
     0
 42
0.000000001
 43
0.0000000001
 40
0.0
 40
0.0
 40
0.0
 40
18.81070801941839
 40
18.81070801941839
 40
18.81070801941839
 10
-1116.0
 20
-17.27919127274657
 30
0.0
 10
-1112.282733357975
 20
-8.639595636373283
 30
0.0
 10
-1108.56546671595
 20
0.0
 30
0.0
  0
SPLINE
  5
A6
330
1F
100
AcDbEntity
  8
Make2D$visible$lines
100
AcDbSpline
210
0.0
220
0.0
230
1.0
 70
    24
 71
     2
 72
     6
 73
     3
 74
     0
 42
0.000000001
 43
0.0000000001
 40
0.0
 40
0.0
 40
0.0
 40
18.81070801941839
 40
18.81070801941839
 40
18.81070801941839
 10
-1068.0
 20
-17.27919127274657
 30
0.0
 10
-1064.282733357975
 20
-8.639595636373283
 30
0.0
 10
-1060.56546671595
 20
0.0
 30
0.0
  0
SPLINE
  5
A7
330
1F
100
AcDbEntity
  8
Make2D$visible$lines
100
AcDbSpline
210
0.0
220
0.0
230
1.0
 70
    24
 71
     2
 72
     6
 73
     3
 74
     0
 42
0.000000001
 43
0.0000000001
 40
0.0
 40
0.0
 40
0.0
 40
18.81070801941839
 40
18.81070801941839
 40
18.81070801941839
 10
-1308.0
 20
30.72080872725343
 30
0.0
 10
-1304.282733357975
 20
39.36040436362671
 30
0.0
 10
-1300.56546671595
 20
48.0
 30
0.0
  0
SPLINE
  5
A8
330
1F
100
AcDbEntity
  8
Make2D$visible$lines
100
AcDbSpline
210
0.0
220
0.0
230
1.0
 70
    24
 71
     2
 72
     6
 73
     3
 74
     0
 42
0.000000001
 43
0.0000000001
 40
0.0
 40
0.0
 40
0.0
 40
18.81070801941839
 40
18.81070801941839
 40
18.81070801941839
 10
-1260.0
 20
30.72080872725343
 30
0.0
 10
-1256.282733357975
 20
39.36040436362671
 30
0.0
 10
-1252.56546671595
 20
48.0
 30
0.0
  0
SPLINE
  5
A9
330
1F
100
AcDbEntity
  8
Make2D$visible$lines
100
AcDbSpline
210
0.0
220
0.0
230
1.0
 70
    24
 71
     2
 72
     6
 73
     3
 74
     0
 42
0.000000001
 43
0.0000000001
 40
0.0
 40
0.0
 40
0.0
 40
18.81070801941839
 40
18.81070801941839
 40
18.81070801941839
 10
-1212.0
 20
30.72080872725343
 30
0.0
 10
-1208.282733357975
 20
39.36040436362671
 30
0.0
 10
-1204.56546671595
 20
48.0
 30
0.0
  0
SPLINE
  5
AA
330
1F
100
AcDbEntity
  8
Make2D$visible$lines
100
AcDbSpline
210
0.0
220
0.0
230
1.0
 70
    24
 71
     2
 72
     6
 73
     3
 74
     0
 42
0.000000001
 43
0.0000000001
 40
0.0
 40
0.0
 40
0.0
 40
18.81070801941839
 40
18.81070801941839
 40
18.81070801941839
 10
-1164.0
 20
30.72080872725343
 30
0.0
 10
-1160.282733357975
 20
39.36040436362671
 30
0.0
 10
-1156.56546671595
 20
48.0
 30
0.0
  0
SPLINE
  5
AB
330
1F
100
AcDbEntity
  8
Make2D$visible$lines
100
AcDbSpline
210
0.0
220
0.0
230
1.0
 70
    24
 71
     2
 72
     6
 73
     3
 74
     0
 42
0.000000001
 43
0.0000000001
 40
0.0
 40
0.0
 40
0.0
 40
18.81070801941839
 40
18.81070801941839
 40
18.81070801941839
 10
-1116.0
 20
30.72080872725343
 30
0.0
 10
-1112.282733357975
 20
39.36040436362671
 30
0.0
 10
-1108.56546671595
 20
48.0
 30
0.0
  0
SPLINE
  5
AC
330
1F
100
AcDbEntity
  8
Make2D$visible$lines
100
AcDbSpline
210
0.0
220
0.0
230
1.0
 70
    24
 71
     2
 72
     6
 73
     3
 74
     0
 42
0.000000001
 43
0.0000000001
 40
0.0
 40
0.0
 40
0.0
 40
18.81070801941839
 40
18.81070801941839
 40
18.81070801941839
 10
-1068.0
 20
30.72080872725343
 30
0.0
 10
-1064.282733357975
 20
39.36040436362671
 30
0.0
 10
-1060.56546671595
 20
48.0
 30
0.0
  0
SPLINE
  5
AD
330
1F
100
AcDbEntity
  8
Make2D$visible$lines
100
AcDbSpline
210
0.0
220
0.0
230
1.0
 70
    24
 71
     2
 72
     6
 73
     3
 74
     0
 42
0.000000001
 43
0.0000000001
 40
0.0
 40
0.0
 40
0.0
 40
18.81070801941839
 40
18.81070801941839
 40
18.81070801941839
 10
-1308.0
 20
78.72080872725343
 30
0.0
 10
-1304.282733357975
 20
87.36040436362671
 30
0.0
 10
-1300.56546671595
 20
96.0
 30
0.0
  0
SPLINE
  5
AE
330
1F
100
AcDbEntity
  8
Make2D$visible$lines
100
AcDbSpline
210
0.0
220
0.0
230
1.0
 70
    24
 71
     2
 72
     6
 73
     3
 74
     0
 42
0.000000001
 43
0.0000000001
 40
0.0
 40
0.0
 40
0.0
 40
18.81070801941839
 40
18.81070801941839
 40
18.81070801941839
 10
-1260.0
 20
78.72080872725343
 30
0.0
 10
-1256.282733357975
 20
87.36040436362671
 30
0.0
 10
-1252.56546671595
 20
96.0
 30
0.0
  0
SPLINE
  5
AF
330
1F
100
AcDbEntity
  8
Make2D$visible$lines
100
AcDbSpline
210
0.0
220
0.0
230
1.0
 70
    24
 71
     2
 72
     6
 73
     3
 74
     0
 42
0.000000001
 43
0.0000000001
 40
0.0
 40
0.0
 40
0.0
 40
18.81070801941839
 40
18.81070801941839
 40
18.81070801941839
 10
-1212.0
 20
78.72080872725343
 30
0.0
 10
-1208.282733357975
 20
87.36040436362671
 30
0.0
 10
-1204.56546671595
 20
96.0
 30
0.0
  0
SPLINE
  5
B0
330
1F
100
AcDbEntity
  8
Make2D$visible$lines
100
AcDbSpline
210
0.0
220
0.0
230
1.0
 70
    24
 71
     2
 72
     6
 73
     3
 74
     0
 42
0.000000001
 43
0.0000000001
 40
0.0
 40
0.0
 40
0.0
 40
18.81070801941839
 40
18.81070801941839
 40
18.81070801941839
 10
-1164.0
 20
78.72080872725343
 30
0.0
 10
-1160.282733357975
 20
87.36040436362671
 30
0.0
 10
-1156.56546671595
 20
96.0
 30
0.0
  0
SPLINE
  5
B1
330
1F
100
AcDbEntity
  8
Make2D$visible$lines
100
AcDbSpline
210
0.0
220
0.0
230
1.0
 70
    24
 71
     2
 72
     6
 73
     3
 74
     0
 42
0.000000001
 43
0.0000000001
 40
0.0
 40
0.0
 40
0.0
 40
18.81070801941839
 40
18.81070801941839
 40
18.81070801941839
 10
-1116.0
 20
78.72080872725343
 30
0.0
 10
-1112.282733357975
 20
87.36040436362671
 30
0.0
 10
-1108.56546671595
 20
96.0
 30
0.0
  0
SPLINE
  5
B2
330
1F
100
AcDbEntity
  8
Make2D$visible$lines
100
AcDbSpline
210
0.0
220
0.0
230
1.0
 70
    24
 71
     2
 72
     6
 73
     3
 74
     0
 42
0.000000001
 43
0.0000000001
 40
0.0
 40
0.0
 40
0.0
 40
18.81070801941839
 40
18.81070801941839
 40
18.81070801941839
 10
-1068.0
 20
78.72080872725343
 30
0.0
 10
-1064.282733357975
 20
87.36040436362671
 30
0.0
 10
-1060.56546671595
 20
96.0
 30
0.0
  0
SPLINE
  5
B3
330
1F
100
AcDbEntity
  8
Make2D$visible$lines
100
AcDbSpline
210
0.0
220
0.0
230
1.0
 70
    24
 71
     2
 72
     6
 73
     3
 74
     0
 42
0.000000001
 43
0.0000000001
 40
0.0
 40
0.0
 40
0.0
 40
18.81070801941839
 40
18.81070801941839
 40
18.81070801941839
 10
-1308.0
 20
126.7208087272534
 30
0.0
 10
-1304.282733357975
 20
135.3604043636267
 30
0.0
 10
-1300.56546671595
 20
144.0
 30
0.0
  0
SPLINE
  5
B4
330
1F
100
AcDbEntity
  8
Make2D$visible$lines
100
AcDbSpline
210
0.0
220
0.0
230
1.0
 70
    24
 71
     2
 72
     6
 73
     3
 74
     0
 42
0.000000001
 43
0.0000000001
 40
0.0
 40
0.0
 40
0.0
 40
18.81070801941839
 40
18.81070801941839
 40
18.81070801941839
 10
-1260.0
 20
126.7208087272534
 30
0.0
 10
-1256.282733357975
 20
135.3604043636267
 30
0.0
 10
-1252.56546671595
 20
144.0
 30
0.0
  0
SPLINE
  5
B5
330
1F
100
AcDbEntity
  8
Make2D$visible$lines
100
AcDbSpline
210
0.0
220
0.0
230
1.0
 70
    24
 71
     2
 72
     6
 73
     3
 74
     0
 42
0.000000001
 43
0.0000000001
 40
0.0
 40
0.0
 40
0.0
 40
18.81070801941839
 40
18.81070801941839
 40
18.81070801941839
 10
-1212.0
 20
126.7208087272534
 30
0.0
 10
-1208.282733357975
 20
135.3604043636267
 30
0.0
 10
-1204.56546671595
 20
144.0
 30
0.0
  0
SPLINE
  5
B6
330
1F
100
AcDbEntity
  8
Make2D$visible$lines
100
AcDbSpline
210
0.0
220
0.0
230
1.0
 70
    24
 71
     2
 72
     6
 73
     3
 74
     0
 42
0.000000001
 43
0.0000000001
 40
0.0
 40
0.0
 40
0.0
 40
18.81070801941839
 40
18.81070801941839
 40
18.81070801941839
 10
-1164.0
 20
126.7208087272534
 30
0.0
 10
-1160.282733357975
 20
135.3604043636267
 30
0.0
 10
-1156.56546671595
 20
144.0
 30
0.0
  0
SPLINE
  5
B7
330
1F
100
AcDbEntity
  8
Make2D$visible$lines
100
AcDbSpline
210
0.0
220
0.0
230
1.0
 70
    24
 71
     2
 72
     6
 73
     3
 74
     0
 42
0.000000001
 43
0.0000000001
 40
0.0
 40
0.0
 40
0.0
 40
18.81070801941839
 40
18.81070801941839
 40
18.81070801941839
 10
-1116.0
 20
126.7208087272534
 30
0.0
 10
-1112.282733357975
 20
135.3604043636267
 30
0.0
 10
-1108.56546671595
 20
144.0
 30
0.0
  0
SPLINE
  5
B8
330
1F
100
AcDbEntity
  8
Make2D$visible$lines
100
AcDbSpline
210
0.0
220
0.0
230
1.0
 70
    24
 71
     2
 72
     6
 73
     3
 74
     0
 42
0.000000001
 43
0.0000000001
 40
0.0
 40
0.0
 40
0.0
 40
18.81070801941839
 40
18.81070801941839
 40
18.81070801941839
 10
-1068.0
 20
126.7208087272534
 30
0.0
 10
-1064.282733357975
 20
135.3604043636267
 30
0.0
 10
-1060.56546671595
 20
144.0
 30
0.0
  0
SPLINE
  5
B9
330
1F
100
AcDbEntity
  8
Make2D$visible$lines
100
AcDbSpline
210
0.0
220
0.0
230
1.0
 70
    24
 71
     2
 72
     6
 73
     3
 74
     0
 42
0.000000001
 43
0.0000000001
 40
0.0
 40
0.0
 40
0.0
 40
19.2137781279041
 40
19.2137781279041
 40
19.2137781279041
 10
-1308.0
 20
-17.27919127274657
 30
0.0
 10
-1299.0
 20
-20.63959563637328
 30
0.0
 10
-1290.0
 20
-24.0
 30
0.0
  0
SPLINE
  5
BA
330
1F
100
AcDbEntity
  8
Make2D$visible$lines
100
AcDbSpline
210
0.0
220
0.0
230
1.0
 70
    24
 71
     2
 72
     6
 73
     3
 74
     0
 42
0.000000001
 43
0.0000000001
 40
0.0
 40
0.0
 40
0.0
 40
19.2137781279041
 40
19.2137781279041
 40
19.2137781279041
 10
-1260.0
 20
-17.27919127274657
 30
0.0
 10
-1251.0
 20
-20.63959563637328
 30
0.0
 10
-1242.0
 20
-24.0
 30
0.0
  0
SPLINE
  5
BB
330
1F
100
AcDbEntity
  8
Make2D$visible$lines
100
AcDbSpline
210
0.0
220
0.0
230
1.0
 70
    24
 71
     2
 72
     6
 73
     3
 74
     0
 42
0.000000001
 43
0.0000000001
 40
0.0
 40
0.0
 40
0.0
 40
19.2137781279041
 40
19.2137781279041
 40
19.2137781279041
 10
-1212.0
 20
-17.27919127274657
 30
0.0
 10
-1203.0
 20
-20.63959563637328
 30
0.0
 10
-1194.0
 20
-24.0
 30
0.0
  0
SPLINE
  5
BC
330
1F
100
AcDbEntity
  8
Make2D$visible$lines
100
AcDbSpline
210
0.0
220
0.0
230
1.0
 70
    24
 71
     2
 72
     6
 73
     3
 74
     0
 42
0.000000001
 43
0.0000000001
 40
0.0
 40
0.0
 40
0.0
 40
19.2137781279041
 40
19.2137781279041
 40
19.2137781279041
 10
-1164.0
 20
-17.27919127274657
 30
0.0
 10
-1155.0
 20
-20.63959563637328
 30
0.0
 10
-1146.0
 20
-24.0
 30
0.0
  0
SPLINE
  5
BD
330
1F
100
AcDbEntity
  8
Make2D$visible$lines
100
AcDbSpline
210
0.0
220
0.0
230
1.0
 70
    24
 71
     2
 72
     6
 73
     3
 74
     0
 42
0.000000001
 43
0.0000000001
 40
0.0
 40
0.0
 40
0.0
 40
19.2137781279041
 40
19.2137781279041
 40
19.2137781279041
 10
-1116.0
 20
-17.27919127274657
 30
0.0
 10
-1107.0
 20
-20.63959563637328
 30
0.0
 10
-1098.0
 20
-24.0
 30
0.0
  0
SPLINE
  5
BE
330
1F
100
AcDbEntity
  8
Make2D$visible$lines
100
AcDbSpline
210
0.0
220
0.0
230
1.0
 70
    24
 71
     2
 72
     6
 73
     3
 74
     0
 42
0.000000001
 43
0.0000000001
 40
0.0
 40
0.0
 40
0.0
 40
19.2137781279041
 40
19.2137781279041
 40
19.2137781279041
 10
-1068.0
 20
-17.27919127274657
 30
0.0
 10
-1059.0
 20
-20.63959563637328
 30
0.0
 10
-1050.0
 20
-24.0
 30
0.0
  0
SPLINE
  5
BF
330
1F
100
AcDbEntity
  8
Make2D$visible$lines
100
AcDbSpline
210
0.0
220
0.0
230
1.0
 70
    24
 71
     2
 72
     6
 73
     3
 74
     0
 42
0.000000001
 43
0.0000000001
 40
0.0
 40
0.0
 40
0.0
 40
19.2137781279041
 40
19.2137781279041
 40
19.2137781279041
 10
-1308.0
 20
30.72080872725343
 30
0.0
 10
-1299.0
 20
27.36040436362672
 30
0.0
 10
-1290.0
 20
24.0
 30
0.0
  0
SPLINE
  5
C0
330
1F
100
AcDbEntity
  8
Make2D$visible$lines
100
AcDbSpline
210
0.0
220
0.0
230
1.0
 70
    24
 71
     2
 72
     6
 73
     3
 74
     0
 42
0.000000001
 43
0.0000000001
 40
0.0
 40
0.0
 40
0.0
 40
19.2137781279041
 40
19.2137781279041
 40
19.2137781279041
 10
-1260.0
 20
30.72080872725343
 30
0.0
 10
-1251.0
 20
27.36040436362672
 30
0.0
 10
-1242.0
 20
24.0
 30
0.0
  0
SPLINE
  5
C1
330
1F
100
AcDbEntity
  8
Make2D$visible$lines
100
AcDbSpline
210
0.0
220
0.0
230
1.0
 70
    24
 71
     2
 72
     6
 73
     3
 74
     0
 42
0.000000001
 43
0.0000000001
 40
0.0
 40
0.0
 40
0.0
 40
19.2137781279041
 40
19.2137781279041
 40
19.2137781279041
 10
-1212.0
 20
30.72080872725343
 30
0.0
 10
-1203.0
 20
27.36040436362672
 30
0.0
 10
-1194.0
 20
24.0
 30
0.0
  0
SPLINE
  5
C2
330
1F
100
AcDbEntity
  8
Make2D$visible$lines
100
AcDbSpline
210
0.0
220
0.0
230
1.0
 70
    24
 71
     2
 72
     6
 73
     3
 74
     0
 42
0.000000001
 43
0.0000000001
 40
0.0
 40
0.0
 40
0.0
 40
19.2137781279041
 40
19.2137781279041
 40
19.2137781279041
 10
-1164.0
 20
30.72080872725343
 30
0.0
 10
-1155.0
 20
27.36040436362672
 30
0.0
 10
-1146.0
 20
24.0
 30
0.0
  0
SPLINE
  5
C3
330
1F
100
AcDbEntity
  8
Make2D$visible$lines
100
AcDbSpline
210
0.0
220
0.0
230
1.0
 70
    24
 71
     2
 72
     6
 73
     3
 74
     0
 42
0.000000001
 43
0.0000000001
 40
0.0
 40
0.0
 40
0.0
 40
19.2137781279041
 40
19.2137781279041
 40
19.2137781279041
 10
-1116.0
 20
30.72080872725343
 30
0.0
 10
-1107.0
 20
27.36040436362672
 30
0.0
 10
-1098.0
 20
24.0
 30
0.0
  0
SPLINE
  5
C4
330
1F
100
AcDbEntity
  8
Make2D$visible$lines
100
AcDbSpline
210
0.0
220
0.0
230
1.0
 70
    24
 71
     2
 72
     6
 73
     3
 74
     0
 42
0.000000001
 43
0.0000000001
 40
0.0
 40
0.0
 40
0.0
 40
19.2137781279041
 40
19.2137781279041
 40
19.2137781279041
 10
-1068.0
 20
30.72080872725343
 30
0.0
 10
-1059.0
 20
27.36040436362672
 30
0.0
 10
-1050.0
 20
24.0
 30
0.0
  0
SPLINE
  5
C5
330
1F
100
AcDbEntity
  8
Make2D$visible$lines
100
AcDbSpline
210
0.0
220
0.0
230
1.0
 70
    24
 71
     2
 72
     6
 73
     3
 74
     0
 42
0.000000001
 43
0.0000000001
 40
0.0
 40
0.0
 40
0.0
 40
19.2137781279041
 40
19.2137781279041
 40
19.2137781279041
 10
-1308.0
 20
78.72080872725343
 30
0.0
 10
-1299.0
 20
75.36040436362671
 30
0.0
 10
-1290.0
 20
72.0
 30
0.0
  0
SPLINE
  5
C6
330
1F
100
AcDbEntity
  8
Make2D$visible$lines
100
AcDbSpline
210
0.0
220
0.0
230
1.0
 70
    24
 71
     2
 72
     6
 73
     3
 74
     0
 42
0.000000001
 43
0.0000000001
 40
0.0
 40
0.0
 40
0.0
 40
19.2137781279041
 40
19.2137781279041
 40
19.2137781279041
 10
-1260.0
 20
78.72080872725343
 30
0.0
 10
-1251.0
 20
75.36040436362671
 30
0.0
 10
-1242.0
 20
72.0
 30
0.0
  0
SPLINE
  5
C7
330
1F
100
AcDbEntity
  8
Make2D$visible$lines
100
AcDbSpline
210
0.0
220
0.0
230
1.0
 70
    24
 71
     2
 72
     6
 73
     3
 74
     0
 42
0.000000001
 43
0.0000000001
 40
0.0
 40
0.0
 40
0.0
 40
19.2137781279041
 40
19.2137781279041
 40
19.2137781279041
 10
-1212.0
 20
78.72080872725343
 30
0.0
 10
-1203.0
 20
75.36040436362671
 30
0.0
 10
-1194.0
 20
72.0
 30
0.0
  0
SPLINE
  5
C8
330
1F
100
AcDbEntity
  8
Make2D$visible$lines
100
AcDbSpline
210
0.0
220
0.0
230
1.0
 70
    24
 71
     2
 72
     6
 73
     3
 74
     0
 42
0.000000001
 43
0.0000000001
 40
0.0
 40
0.0
 40
0.0
 40
19.2137781279041
 40
19.2137781279041
 40
19.2137781279041
 10
-1164.0
 20
78.72080872725343
 30
0.0
 10
-1155.0
 20
75.36040436362671
 30
0.0
 10
-1146.0
 20
72.0
 30
0.0
  0
SPLINE
  5
C9
330
1F
100
AcDbEntity
  8
Make2D$visible$lines
100
AcDbSpline
210
0.0
220
0.0
230
1.0
 70
    24
 71
     2
 72
     6
 73
     3
 74
     0
 42
0.000000001
 43
0.0000000001
 40
0.0
 40
0.0
 40
0.0
 40
19.2137781279041
 40
19.2137781279041
 40
19.2137781279041
 10
-1116.0
 20
78.72080872725343
 30
0.0
 10
-1107.0
 20
75.36040436362671
 30
0.0
 10
-1098.0
 20
72.0
 30
0.0
  0
SPLINE
  5
CA
330
1F
100
AcDbEntity
  8
Make2D$visible$lines
100
AcDbSpline
210
0.0
220
0.0
230
1.0
 70
    24
 71
     2
 72
     6
 73
     3
 74
     0
 42
0.000000001
 43
0.0000000001
 40
0.0
 40
0.0
 40
0.0
 40
19.2137781279041
 40
19.2137781279041
 40
19.2137781279041
 10
-1068.0
 20
78.72080872725343
 30
0.0
 10
-1059.0
 20
75.36040436362671
 30
0.0
 10
-1050.0
 20
72.0
 30
0.0
  0
SPLINE
  5
CB
330
1F
100
AcDbEntity
  8
Make2D$visible$lines
100
AcDbSpline
210
0.0
220
0.0
230
1.0
 70
    24
 71
     2
 72
     6
 73
     3
 74
     0
 42
0.000000001
 43
0.0000000001
 40
0.0
 40
0.0
 40
0.0
 40
19.2137781279041
 40
19.2137781279041
 40
19.2137781279041
 10
-1308.0
 20
126.7208087272534
 30
0.0
 10
-1299.0
 20
123.3604043636267
 30
0.0
 10
-1290.0
 20
120.0
 30
0.0
  0
SPLINE
  5
CC
330
1F
100
AcDbEntity
  8
Make2D$visible$lines
100
AcDbSpline
210
0.0
220
0.0
230
1.0
 70
    24
 71
     2
 72
     6
 73
     3
 74
     0
 42
0.000000001
 43
0.0000000001
 40
0.0
 40
0.0
 40
0.0
 40
19.2137781279041
 40
19.2137781279041
 40
19.2137781279041
 10
-1260.0
 20
126.7208087272534
 30
0.0
 10
-1251.0
 20
123.3604043636267
 30
0.0
 10
-1242.0
 20
120.0
 30
0.0
  0
SPLINE
  5
CD
330
1F
100
AcDbEntity
  8
Make2D$visible$lines
100
AcDbSpline
210
0.0
220
0.0
230
1.0
 70
    24
 71
     2
 72
     6
 73
     3
 74
     0
 42
0.000000001
 43
0.0000000001
 40
0.0
 40
0.0
 40
0.0
 40
19.2137781279041
 40
19.2137781279041
 40
19.2137781279041
 10
-1212.0
 20
126.7208087272534
 30
0.0
 10
-1203.0
 20
123.3604043636267
 30
0.0
 10
-1194.0
 20
120.0
 30
0.0
  0
SPLINE
  5
CE
330
1F
100
AcDbEntity
  8
Make2D$visible$lines
100
AcDbSpline
210
0.0
220
0.0
230
1.0
 70
    24
 71
     2
 72
     6
 73
     3
 74
     0
 42
0.000000001
 43
0.0000000001
 40
0.0
 40
0.0
 40
0.0
 40
19.2137781279041
 40
19.2137781279041
 40
19.2137781279041
 10
-1164.0
 20
126.7208087272534
 30
0.0
 10
-1155.0
 20
123.3604043636267
 30
0.0
 10
-1146.0
 20
120.0
 30
0.0
  0
SPLINE
  5
CF
330
1F
100
AcDbEntity
  8
Make2D$visible$lines
100
AcDbSpline
210
0.0
220
0.0
230
1.0
 70
    24
 71
     2
 72
     6
 73
     3
 74
     0
 42
0.000000001
 43
0.0000000001
 40
0.0
 40
0.0
 40
0.0
 40
19.2137781279041
 40
19.2137781279041
 40
19.2137781279041
 10
-1116.0
 20
126.7208087272534
 30
0.0
 10
-1107.0
 20
123.3604043636267
 30
0.0
 10
-1098.0
 20
120.0
 30
0.0
  0
SPLINE
  5
D0
330
1F
100
AcDbEntity
  8
Make2D$visible$lines
100
AcDbSpline
210
0.0
220
0.0
230
1.0
 70
    24
 71
     2
 72
     6
 73
     3
 74
     0
 42
0.000000001
 43
0.0000000001
 40
0.0
 40
0.0
 40
0.0
 40
19.2137781279041
 40
19.2137781279041
 40
19.2137781279041
 10
-1068.0
 20
126.7208087272534
 30
0.0
 10
-1059.0
 20
123.3604043636267
 30
0.0
 10
-1050.0
 20
120.0
 30
0.0
  0
SPLINE
  5
D1
330
1F
100
AcDbEntity
  8
Make2D$visible$lines
100
AcDbSpline
210
0.0
220
0.0
230
1.0
 70
    24
 71
     2
 72
     6
 73
     3
 74
     0
 42
0.000000001
 43
0.0000000001
 40
0.0
 40
0.0
 40
0.0
 40
28.90031624649648
 40
28.90031624649648
 40
28.90031624649648
 10
-1338.0
 20
-24.0
 30
0.0
 10
-1335.0
 20
-9.864687135161205
 30
0.0
 10
-1332.0
 20
4.27062572967759
 30
0.0
  0
SPLINE
  5
D2
330
1F
100
AcDbEntity
  8
Make2D$visible$lines
100
AcDbSpline
210
0.0
220
0.0
230
1.0
 70
    24
 71
     2
 72
     6
 73
     3
 74
     0
 42
0.000000001
 43
0.0000000001
 40
0.0
 40
0.0
 40
0.0
 40
28.90031624649648
 40
28.90031624649648
 40
28.90031624649648
 10
-1290.0
 20
-24.0
 30
0.0
 10
-1287.0
 20
-9.864687135161205
 30
0.0
 10
-1284.0
 20
4.27062572967759
 30
0.0
  0
SPLINE
  5
D3
330
1F
100
AcDbEntity
  8
Make2D$visible$lines
100
AcDbSpline
210
0.0
220
0.0
230
1.0
 70
    24
 71
     2
 72
     6
 73
     3
 74
     0
 42
0.000000001
 43
0.0000000001
 40
0.0
 40
0.0
 40
0.0
 40
28.90031624649648
 40
28.90031624649648
 40
28.90031624649648
 10
-1242.0
 20
-24.0
 30
0.0
 10
-1239.0
 20
-9.864687135161205
 30
0.0
 10
-1236.0
 20
4.27062572967759
 30
0.0
  0
SPLINE
  5
D4
330
1F
100
AcDbEntity
  8
Make2D$visible$lines
100
AcDbSpline
210
0.0
220
0.0
230
1.0
 70
    24
 71
     2
 72
     6
 73
     3
 74
     0
 42
0.000000001
 43
0.0000000001
 40
0.0
 40
0.0
 40
0.0
 40
28.90031624649648
 40
28.90031624649648
 40
28.90031624649648
 10
-1194.0
 20
-24.0
 30
0.0
 10
-1191.0
 20
-9.864687135161205
 30
0.0
 10
-1188.0
 20
4.27062572967759
 30
0.0
  0
SPLINE
  5
D5
330
1F
100
AcDbEntity
  8
Make2D$visible$lines
100
AcDbSpline
210
0.0
220
0.0
230
1.0
 70
    24
 71
     2
 72
     6
 73
     3
 74
     0
 42
0.000000001
 43
0.0000000001
 40
0.0
 40
0.0
 40
0.0
 40
28.90031624649648
 40
28.90031624649648
 40
28.90031624649648
 10
-1146.0
 20
-24.0
 30
0.0
 10
-1143.0
 20
-9.864687135161205
 30
0.0
 10
-1140.0
 20
4.27062572967759
 30
0.0
  0
SPLINE
  5
D6
330
1F
100
AcDbEntity
  8
Make2D$visible$lines
100
AcDbSpline
210
0.0
220
0.0
230
1.0
 70
    24
 71
     2
 72
     6
 73
     3
 74
     0
 42
0.000000001
 43
0.0000000001
 40
0.0
 40
0.0
 40
0.0
 40
28.90031624649648
 40
28.90031624649648
 40
28.90031624649648
 10
-1098.0
 20
-24.0
 30
0.0
 10
-1095.0
 20
-9.864687135161205
 30
0.0
 10
-1092.0
 20
4.27062572967759
 30
0.0
  0
SPLINE
  5
D7
330
1F
100
AcDbEntity
  8
Make2D$visible$lines
100
AcDbSpline
210
0.0
220
0.0
230
1.0
 70
    24
 71
     2
 72
     6
 73
     3
 74
     0
 42
0.000000001
 43
0.0000000001
 40
0.0
 40
0.0
 40
0.0
 40
28.90031624649648
 40
28.90031624649648
 40
28.90031624649648
 10
-1338.0
 20
24.0
 30
0.0
 10
-1335.0
 20
38.1353128648388
 30
0.0
 10
-1332.0
 20
52.27062572967759
 30
0.0
  0
SPLINE
  5
D8
330
1F
100
AcDbEntity
  8
Make2D$visible$lines
100
AcDbSpline
210
0.0
220
0.0
230
1.0
 70
    24
 71
     2
 72
     6
 73
     3
 74
     0
 42
0.000000001
 43
0.0000000001
 40
0.0
 40
0.0
 40
0.0
 40
28.90031624649648
 40
28.90031624649648
 40
28.90031624649648
 10
-1290.0
 20
24.0
 30
0.0
 10
-1287.0
 20
38.1353128648388
 30
0.0
 10
-1284.0
 20
52.27062572967759
 30
0.0
  0
SPLINE
  5
D9
330
1F
100
AcDbEntity
  8
Make2D$visible$lines
100
AcDbSpline
210
0.0
220
0.0
230
1.0
 70
    24
 71
     2
 72
     6
 73
     3
 74
     0
 42
0.000000001
 43
0.0000000001
 40
0.0
 40
0.0
 40
0.0
 40
28.90031624649648
 40
28.90031624649648
 40
28.90031624649648
 10
-1242.0
 20
24.0
 30
0.0
 10
-1239.0
 20
38.1353128648388
 30
0.0
 10
-1236.0
 20
52.27062572967759
 30
0.0
  0
SPLINE
  5
DA
330
1F
100
AcDbEntity
  8
Make2D$visible$lines
100
AcDbSpline
210
0.0
220
0.0
230
1.0
 70
    24
 71
     2
 72
     6
 73
     3
 74
     0
 42
0.000000001
 43
0.0000000001
 40
0.0
 40
0.0
 40
0.0
 40
28.90031624649648
 40
28.90031624649648
 40
28.90031624649648
 10
-1194.0
 20
24.0
 30
0.0
 10
-1191.0
 20
38.1353128648388
 30
0.0
 10
-1188.0
 20
52.27062572967759
 30
0.0
  0
SPLINE
  5
DB
330
1F
100
AcDbEntity
  8
Make2D$visible$lines
100
AcDbSpline
210
0.0
220
0.0
230
1.0
 70
    24
 71
     2
 72
     6
 73
     3
 74
     0
 42
0.000000001
 43
0.0000000001
 40
0.0
 40
0.0
 40
0.0
 40
28.90031624649648
 40
28.90031624649648
 40
28.90031624649648
 10
-1146.0
 20
24.0
 30
0.0
 10
-1143.0
 20
38.1353128648388
 30
0.0
 10
-1140.0
 20
52.27062572967759
 30
0.0
  0
SPLINE
  5
DC
330
1F
100
AcDbEntity
  8
Make2D$visible$lines
100
AcDbSpline
210
0.0
220
0.0
230
1.0
 70
    24
 71
     2
 72
     6
 73
     3
 74
     0
 42
0.000000001
 43
0.0000000001
 40
0.0
 40
0.0
 40
0.0
 40
28.90031624649648
 40
28.90031624649648
 40
28.90031624649648
 10
-1098.0
 20
24.0
 30
0.0
 10
-1095.0
 20
38.1353128648388
 30
0.0
 10
-1092.0
 20
52.27062572967759
 30
0.0
  0
SPLINE
  5
DD
330
1F
100
AcDbEntity
  8
Make2D$visible$lines
100
AcDbSpline
210
0.0
220
0.0
230
1.0
 70
    24
 71
     2
 72
     6
 73
     3
 74
     0
 42
0.000000001
 43
0.0000000001
 40
0.0
 40
0.0
 40
0.0
 40
28.90031624649648
 40
28.90031624649648
 40
28.90031624649648
 10
-1338.0
 20
72.0
 30
0.0
 10
-1335.0
 20
86.1353128648388
 30
0.0
 10
-1332.0
 20
100.2706257296776
 30
0.0
  0
SPLINE
  5
DE
330
1F
100
AcDbEntity
  8
Make2D$visible$lines
100
AcDbSpline
210
0.0
220
0.0
230
1.0
 70
    24
 71
     2
 72
     6
 73
     3
 74
     0
 42
0.000000001
 43
0.0000000001
 40
0.0
 40
0.0
 40
0.0
 40
28.90031624649648
 40
28.90031624649648
 40
28.90031624649648
 10
-1290.0
 20
72.0
 30
0.0
 10
-1287.0
 20
86.1353128648388
 30
0.0
 10
-1284.0
 20
100.2706257296776
 30
0.0
  0
SPLINE
  5
DF
330
1F
100
AcDbEntity
  8
Make2D$visible$lines
100
AcDbSpline
210
0.0
220
0.0
230
1.0
 70
    24
 71
     2
 72
     6
 73
     3
 74
     0
 42
0.000000001
 43
0.0000000001
 40
0.0
 40
0.0
 40
0.0
 40
28.90031624649648
 40
28.90031624649648
 40
28.90031624649648
 10
-1242.0
 20
72.0
 30
0.0
 10
-1239.0
 20
86.1353128648388
 30
0.0
 10
-1236.0
 20
100.2706257296776
 30
0.0
  0
SPLINE
  5
E0
330
1F
100
AcDbEntity
  8
Make2D$visible$lines
100
AcDbSpline
210
0.0
220
0.0
230
1.0
 70
    24
 71
     2
 72
     6
 73
     3
 74
     0
 42
0.000000001
 43
0.0000000001
 40
0.0
 40
0.0
 40
0.0
 40
28.90031624649648
 40
28.90031624649648
 40
28.90031624649648
 10
-1194.0
 20
72.0
 30
0.0
 10
-1191.0
 20
86.1353128648388
 30
0.0
 10
-1188.0
 20
100.2706257296776
 30
0.0
  0
SPLINE
  5
E1
330
1F
100
AcDbEntity
  8
Make2D$visible$lines
100
AcDbSpline
210
0.0
220
0.0
230
1.0
 70
    24
 71
     2
 72
     6
 73
     3
 74
     0
 42
0.000000001
 43
0.0000000001
 40
0.0
 40
0.0
 40
0.0
 40
28.90031624649648
 40
28.90031624649648
 40
28.90031624649648
 10
-1146.0
 20
72.0
 30
0.0
 10
-1143.0
 20
86.1353128648388
 30
0.0
 10
-1140.0
 20
100.2706257296776
 30
0.0
  0
SPLINE
  5
E2
330
1F
100
AcDbEntity
  8
Make2D$visible$lines
100
AcDbSpline
210
0.0
220
0.0
230
1.0
 70
    24
 71
     2
 72
     6
 73
     3
 74
     0
 42
0.000000001
 43
0.0000000001
 40
0.0
 40
0.0
 40
0.0
 40
28.90031624649648
 40
28.90031624649648
 40
28.90031624649648
 10
-1098.0
 20
72.0
 30
0.0
 10
-1095.0
 20
86.1353128648388
 30
0.0
 10
-1092.0
 20
100.2706257296776
 30
0.0
  0
SPLINE
  5
E3
330
1F
100
AcDbEntity
  8
Make2D$visible$lines
100
AcDbSpline
210
0.0
220
0.0
230
1.0
 70
    24
 71
     2
 72
     6
 73
     3
 74
     0
 42
0.000000001
 43
0.0000000001
 40
0.0
 40
0.0
 40
0.0
 40
28.90031624649648
 40
28.90031624649648
 40
28.90031624649648
 10
-1338.0
 20
120.0
 30
0.0
 10
-1335.0
 20
134.1353128648388
 30
0.0
 10
-1332.0
 20
148.2706257296776
 30
0.0
  0
SPLINE
  5
E4
330
1F
100
AcDbEntity
  8
Make2D$visible$lines
100
AcDbSpline
210
0.0
220
0.0
230
1.0
 70
    24
 71
     2
 72
     6
 73
     3
 74
     0
 42
0.000000001
 43
0.0000000001
 40
0.0
 40
0.0
 40
0.0
 40
28.90031624649648
 40
28.90031624649648
 40
28.90031624649648
 10
-1290.0
 20
120.0
 30
0.0
 10
-1287.0
 20
134.1353128648388
 30
0.0
 10
-1284.0
 20
148.2706257296776
 30
0.0
  0
SPLINE
  5
E5
330
1F
100
AcDbEntity
  8
Make2D$visible$lines
100
AcDbSpline
210
0.0
220
0.0
230
1.0
 70
    24
 71
     2
 72
     6
 73
     3
 74
     0
 42
0.000000001
 43
0.0000000001
 40
0.0
 40
0.0
 40
0.0
 40
28.90031624649648
 40
28.90031624649648
 40
28.90031624649648
 10
-1242.0
 20
120.0
 30
0.0
 10
-1239.0
 20
134.1353128648388
 30
0.0
 10
-1236.0
 20
148.2706257296776
 30
0.0
  0
SPLINE
  5
E6
330
1F
100
AcDbEntity
  8
Make2D$visible$lines
100
AcDbSpline
210
0.0
220
0.0
230
1.0
 70
    24
 71
     2
 72
     6
 73
     3
 74
     0
 42
0.000000001
 43
0.0000000001
 40
0.0
 40
0.0
 40
0.0
 40
28.90031624649648
 40
28.90031624649648
 40
28.90031624649648
 10
-1194.0
 20
120.0
 30
0.0
 10
-1191.0
 20
134.1353128648388
 30
0.0
 10
-1188.0
 20
148.2706257296776
 30
0.0
  0
SPLINE
  5
E7
330
1F
100
AcDbEntity
  8
Make2D$visible$lines
100
AcDbSpline
210
0.0
220
0.0
230
1.0
 70
    24
 71
     2
 72
     6
 73
     3
 74
     0
 42
0.000000001
 43
0.0000000001
 40
0.0
 40
0.0
 40
0.0
 40
28.90031624649648
 40
28.90031624649648
 40
28.90031624649648
 10
-1146.0
 20
120.0
 30
0.0
 10
-1143.0
 20
134.1353128648388
 30
0.0
 10
-1140.0
 20
148.2706257296776
 30
0.0
  0
SPLINE
  5
E8
330
1F
100
AcDbEntity
  8
Make2D$visible$lines
100
AcDbSpline
210
0.0
220
0.0
230
1.0
 70
    24
 71
     2
 72
     6
 73
     3
 74
     0
 42
0.000000001
 43
0.0000000001
 40
0.0
 40
0.0
 40
0.0
 40
28.90031624649648
 40
28.90031624649648
 40
28.90031624649648
 10
-1098.0
 20
120.0
 30
0.0
 10
-1095.0
 20
134.1353128648388
 30
0.0
 10
-1092.0
 20
148.2706257296776
 30
0.0
  0
SPLINE
  5
E9
330
1F
100
AcDbEntity
  8
Make2D$visible$lines
100
AcDbSpline
210
0.0
220
0.0
230
1.0
 70
    24
 71
     2
 72
     6
 73
     3
 74
     0
 42
0.000000001
 43
0.0000000001
 40
0.0
 40
0.0
 40
0.0
 40
31.29466852991579
 40
31.29466852991579
 40
31.29466852991579
 10
-1338.0
 20
-24.0
 30
0.0
 10
-1329.0
 20
-11.20003634382795
 30
0.0
 10
-1320.0
 20
1.599927312344107
 30
0.0
  0
SPLINE
  5
EA
330
1F
100
AcDbEntity
  8
Make2D$visible$lines
100
AcDbSpline
210
0.0
220
0.0
230
1.0
 70
    24
 71
     2
 72
     6
 73
     3
 74
     0
 42
0.000000001
 43
0.0000000001
 40
0.0
 40
0.0
 40
0.0
 40
31.29466852991579
 40
31.29466852991579
 40
31.29466852991579
 10
-1290.0
 20
-24.0
 30
0.0
 10
-1281.0
 20
-11.20003634382795
 30
0.0
 10
-1272.0
 20
1.599927312344107
 30
0.0
  0
SPLINE
  5
EB
330
1F
100
AcDbEntity
  8
Make2D$visible$lines
100
AcDbSpline
210
0.0
220
0.0
230
1.0
 70
    24
 71
     2
 72
     6
 73
     3
 74
     0
 42
0.000000001
 43
0.0000000001
 40
0.0
 40
0.0
 40
0.0
 40
31.29466852991579
 40
31.29466852991579
 40
31.29466852991579
 10
-1242.0
 20
-24.0
 30
0.0
 10
-1233.0
 20
-11.20003634382795
 30
0.0
 10
-1224.0
 20
1.599927312344107
 30
0.0
  0
SPLINE
  5
EC
330
1F
100
AcDbEntity
  8
Make2D$visible$lines
100
AcDbSpline
210
0.0
220
0.0
230
1.0
 70
    24
 71
     2
 72
     6
 73
     3
 74
     0
 42
0.000000001
 43
0.0000000001
 40
0.0
 40
0.0
 40
0.0
 40
31.29466852991579
 40
31.29466852991579
 40
31.29466852991579
 10
-1194.0
 20
-24.0
 30
0.0
 10
-1185.0
 20
-11.20003634382795
 30
0.0
 10
-1176.0
 20
1.599927312344107
 30
0.0
  0
SPLINE
  5
ED
330
1F
100
AcDbEntity
  8
Make2D$visible$lines
100
AcDbSpline
210
0.0
220
0.0
230
1.0
 70
    24
 71
     2
 72
     6
 73
     3
 74
     0
 42
0.000000001
 43
0.0000000001
 40
0.0
 40
0.0
 40
0.0
 40
31.29466852991579
 40
31.29466852991579
 40
31.29466852991579
 10
-1146.0
 20
-24.0
 30
0.0
 10
-1137.0
 20
-11.20003634382795
 30
0.0
 10
-1128.0
 20
1.599927312344107
 30
0.0
  0
SPLINE
  5
EE
330
1F
100
AcDbEntity
  8
Make2D$visible$lines
100
AcDbSpline
210
0.0
220
0.0
230
1.0
 70
    24
 71
     2
 72
     6
 73
     3
 74
     0
 42
0.000000001
 43
0.0000000001
 40
0.0
 40
0.0
 40
0.0
 40
31.29466852991579
 40
31.29466852991579
 40
31.29466852991579
 10
-1098.0
 20
-24.0
 30
0.0
 10
-1089.0
 20
-11.20003634382795
 30
0.0
 10
-1080.0
 20
1.599927312344107
 30
0.0
  0
SPLINE
  5
EF
330
1F
100
AcDbEntity
  8
Make2D$visible$lines
100
AcDbSpline
210
0.0
220
0.0
230
1.0
 70
    24
 71
     2
 72
     6
 73
     3
 74
     0
 42
0.000000001
 43
0.0000000001
 40
0.0
 40
0.0
 40
0.0
 40
31.29466852991579
 40
31.29466852991579
 40
31.29466852991579
 10
-1338.0
 20
24.0
 30
0.0
 10
-1329.0
 20
36.79996365617205
 30
0.0
 10
-1320.0
 20
49.59992731234411
 30
0.0
  0
SPLINE
  5
F0
330
1F
100
AcDbEntity
  8
Make2D$visible$lines
100
AcDbSpline
210
0.0
220
0.0
230
1.0
 70
    24
 71
     2
 72
     6
 73
     3
 74
     0
 42
0.000000001
 43
0.0000000001
 40
0.0
 40
0.0
 40
0.0
 40
31.29466852991579
 40
31.29466852991579
 40
31.29466852991579
 10
-1290.0
 20
24.0
 30
0.0
 10
-1281.0
 20
36.79996365617205
 30
0.0
 10
-1272.0
 20
49.59992731234411
 30
0.0
  0
SPLINE
  5
F1
330
1F
100
AcDbEntity
  8
Make2D$visible$lines
100
AcDbSpline
210
0.0
220
0.0
230
1.0
 70
    24
 71
     2
 72
     6
 73
     3
 74
     0
 42
0.000000001
 43
0.0000000001
 40
0.0
 40
0.0
 40
0.0
 40
31.29466852991579
 40
31.29466852991579
 40
31.29466852991579
 10
-1242.0
 20
24.0
 30
0.0
 10
-1233.0
 20
36.79996365617205
 30
0.0
 10
-1224.0
 20
49.59992731234411
 30
0.0
  0
SPLINE
  5
F2
330
1F
100
AcDbEntity
  8
Make2D$visible$lines
100
AcDbSpline
210
0.0
220
0.0
230
1.0
 70
    24
 71
     2
 72
     6
 73
     3
 74
     0
 42
0.000000001
 43
0.0000000001
 40
0.0
 40
0.0
 40
0.0
 40
31.29466852991579
 40
31.29466852991579
 40
31.29466852991579
 10
-1194.0
 20
24.0
 30
0.0
 10
-1185.0
 20
36.79996365617205
 30
0.0
 10
-1176.0
 20
49.59992731234411
 30
0.0
  0
SPLINE
  5
F3
330
1F
100
AcDbEntity
  8
Make2D$visible$lines
100
AcDbSpline
210
0.0
220
0.0
230
1.0
 70
    24
 71
     2
 72
     6
 73
     3
 74
     0
 42
0.000000001
 43
0.0000000001
 40
0.0
 40
0.0
 40
0.0
 40
31.29466852991579
 40
31.29466852991579
 40
31.29466852991579
 10
-1146.0
 20
24.0
 30
0.0
 10
-1137.0
 20
36.79996365617205
 30
0.0
 10
-1128.0
 20
49.59992731234411
 30
0.0
  0
SPLINE
  5
F4
330
1F
100
AcDbEntity
  8
Make2D$visible$lines
100
AcDbSpline
210
0.0
220
0.0
230
1.0
 70
    24
 71
     2
 72
     6
 73
     3
 74
     0
 42
0.000000001
 43
0.0000000001
 40
0.0
 40
0.0
 40
0.0
 40
31.29466852991579
 40
31.29466852991579
 40
31.29466852991579
 10
-1098.0
 20
24.0
 30
0.0
 10
-1089.0
 20
36.79996365617205
 30
0.0
 10
-1080.0
 20
49.59992731234411
 30
0.0
  0
SPLINE
  5
F5
330
1F
100
AcDbEntity
  8
Make2D$visible$lines
100
AcDbSpline
210
0.0
220
0.0
230
1.0
 70
    24
 71
     2
 72
     6
 73
     3
 74
     0
 42
0.000000001
 43
0.0000000001
 40
0.0
 40
0.0
 40
0.0
 40
31.29466852991579
 40
31.29466852991579
 40
31.29466852991579
 10
-1338.0
 20
72.0
 30
0.0
 10
-1329.0
 20
84.79996365617205
 30
0.0
 10
-1320.0
 20
97.59992731234411
 30
0.0
  0
SPLINE
  5
F6
330
1F
100
AcDbEntity
  8
Make2D$visible$lines
100
AcDbSpline
210
0.0
220
0.0
230
1.0
 70
    24
 71
     2
 72
     6
 73
     3
 74
     0
 42
0.000000001
 43
0.0000000001
 40
0.0
 40
0.0
 40
0.0
 40
31.29466852991579
 40
31.29466852991579
 40
31.29466852991579
 10
-1290.0
 20
72.0
 30
0.0
 10
-1281.0
 20
84.79996365617205
 30
0.0
 10
-1272.0
 20
97.59992731234411
 30
0.0
  0
SPLINE
  5
F7
330
1F
100
AcDbEntity
  8
Make2D$visible$lines
100
AcDbSpline
210
0.0
220
0.0
230
1.0
 70
    24
 71
     2
 72
     6
 73
     3
 74
     0
 42
0.000000001
 43
0.0000000001
 40
0.0
 40
0.0
 40
0.0
 40
31.29466852991579
 40
31.29466852991579
 40
31.29466852991579
 10
-1242.0
 20
72.0
 30
0.0
 10
-1233.0
 20
84.79996365617205
 30
0.0
 10
-1224.0
 20
97.59992731234411
 30
0.0
  0
SPLINE
  5
F8
330
1F
100
AcDbEntity
  8
Make2D$visible$lines
100
AcDbSpline
210
0.0
220
0.0
230
1.0
 70
    24
 71
     2
 72
     6
 73
     3
 74
     0
 42
0.000000001
 43
0.0000000001
 40
0.0
 40
0.0
 40
0.0
 40
31.29466852991579
 40
31.29466852991579
 40
31.29466852991579
 10
-1194.0
 20
72.0
 30
0.0
 10
-1185.0
 20
84.79996365617205
 30
0.0
 10
-1176.0
 20
97.59992731234411
 30
0.0
  0
SPLINE
  5
F9
330
1F
100
AcDbEntity
  8
Make2D$visible$lines
100
AcDbSpline
210
0.0
220
0.0
230
1.0
 70
    24
 71
     2
 72
     6
 73
     3
 74
     0
 42
0.000000001
 43
0.0000000001
 40
0.0
 40
0.0
 40
0.0
 40
31.29466852991579
 40
31.29466852991579
 40
31.29466852991579
 10
-1146.0
 20
72.0
 30
0.0
 10
-1137.0
 20
84.79996365617205
 30
0.0
 10
-1128.0
 20
97.59992731234411
 30
0.0
  0
SPLINE
  5
FA
330
1F
100
AcDbEntity
  8
Make2D$visible$lines
100
AcDbSpline
210
0.0
220
0.0
230
1.0
 70
    24
 71
     2
 72
     6
 73
     3
 74
     0
 42
0.000000001
 43
0.0000000001
 40
0.0
 40
0.0
 40
0.0
 40
31.29466852991579
 40
31.29466852991579
 40
31.29466852991579
 10
-1098.0
 20
72.0
 30
0.0
 10
-1089.0
 20
84.79996365617205
 30
0.0
 10
-1080.0
 20
97.59992731234411
 30
0.0
  0
SPLINE
  5
FB
330
1F
100
AcDbEntity
  8
Make2D$visible$lines
100
AcDbSpline
210
0.0
220
0.0
230
1.0
 70
    24
 71
     2
 72
     6
 73
     3
 74
     0
 42
0.000000001
 43
0.0000000001
 40
0.0
 40
0.0
 40
0.0
 40
31.29466852991579
 40
31.29466852991579
 40
31.29466852991579
 10
-1338.0
 20
120.0
 30
0.0
 10
-1329.0
 20
132.7999636561721
 30
0.0
 10
-1320.0
 20
145.5999273123441
 30
0.0
  0
SPLINE
  5
FC
330
1F
100
AcDbEntity
  8
Make2D$visible$lines
100
AcDbSpline
210
0.0
220
0.0
230
1.0
 70
    24
 71
     2
 72
     6
 73
     3
 74
     0
 42
0.000000001
 43
0.0000000001
 40
0.0
 40
0.0
 40
0.0
 40
31.29466852991579
 40
31.29466852991579
 40
31.29466852991579
 10
-1290.0
 20
120.0
 30
0.0
 10
-1281.0
 20
132.7999636561721
 30
0.0
 10
-1272.0
 20
145.5999273123441
 30
0.0
  0
SPLINE
  5
FD
330
1F
100
AcDbEntity
  8
Make2D$visible$lines
100
AcDbSpline
210
0.0
220
0.0
230
1.0
 70
    24
 71
     2
 72
     6
 73
     3
 74
     0
 42
0.000000001
 43
0.0000000001
 40
0.0
 40
0.0
 40
0.0
 40
31.29466852991579
 40
31.29466852991579
 40
31.29466852991579
 10
-1242.0
 20
120.0
 30
0.0
 10
-1233.0
 20
132.7999636561721
 30
0.0
 10
-1224.0
 20
145.5999273123441
 30
0.0
  0
SPLINE
  5
FE
330
1F
100
AcDbEntity
  8
Make2D$visible$lines
100
AcDbSpline
210
0.0
220
0.0
230
1.0
 70
    24
 71
     2
 72
     6
 73
     3
 74
     0
 42
0.000000001
 43
0.0000000001
 40
0.0
 40
0.0
 40
0.0
 40
31.29466852991579
 40
31.29466852991579
 40
31.29466852991579
 10
-1194.0
 20
120.0
 30
0.0
 10
-1185.0
 20
132.7999636561721
 30
0.0
 10
-1176.0
 20
145.5999273123441
 30
0.0
  0
SPLINE
  5
FF
330
1F
100
AcDbEntity
  8
Make2D$visible$lines
100
AcDbSpline
210
0.0
220
0.0
230
1.0
 70
    24
 71
     2
 72
     6
 73
     3
 74
     0
 42
0.000000001
 43
0.0000000001
 40
0.0
 40
0.0
 40
0.0
 40
31.29466852991579
 40
31.29466852991579
 40
31.29466852991579
 10
-1146.0
 20
120.0
 30
0.0
 10
-1137.0
 20
132.7999636561721
 30
0.0
 10
-1128.0
 20
145.5999273123441
 30
0.0
  0
SPLINE
  5
100
330
1F
100
AcDbEntity
  8
Make2D$visible$lines
100
AcDbSpline
210
0.0
220
0.0
230
1.0
 70
    24
 71
     2
 72
     6
 73
     3
 74
     0
 42
0.000000001
 43
0.0000000001
 40
0.0
 40
0.0
 40
0.0
 40
31.29466852991579
 40
31.29466852991579
 40
31.29466852991579
 10
-1098.0
 20
120.0
 30
0.0
 10
-1089.0
 20
132.7999636561721
 30
0.0
 10
-1080.0
 20
145.5999273123441
 30
0.0
  0
SPLINE
  5
101
330
1F
100
AcDbEntity
  8
Make2D$visible$lines
100
AcDbSpline
210
0.0
220
0.0
230
1.0
 70
    24
 71
     2
 72
     6
 73
     3
 74
     0
 42
0.000000001
 43
0.0000000001
 40
0.0
 40
0.0
 40
0.0
 40
48.0
 40
48.0
 40
48.0
 10
-1338.0
 20
-24.0
 30
0.0
 10
-1338.0
 20
0.0
 30
0.0
 10
-1338.0
 20
24.0
 30
0.0
  0
SPLINE
  5
102
330
1F
100
AcDbEntity
  8
Make2D$visible$lines
100
AcDbSpline
210
0.0
220
0.0
230
1.0
 70
    24
 71
     2
 72
     6
 73
     3
 74
     0
 42
0.000000001
 43
0.0000000001
 40
0.0
 40
0.0
 40
0.0
 40
48.0
 40
48.0
 40
48.0
 10
-1338.0
 20
24.0
 30
0.0
 10
-1338.0
 20
48.0
 30
0.0
 10
-1338.0
 20
72.0
 30
0.0
  0
SPLINE
  5
103
330
1F
100
AcDbEntity
  8
Make2D$visible$lines
100
AcDbSpline
210
0.0
220
0.0
230
1.0
 70
    24
 71
     2
 72
     6
 73
     3
 74
     0
 42
0.000000001
 43
0.0000000001
 40
0.0
 40
0.0
 40
0.0
 40
48.0
 40
48.0
 40
48.0
 10
-1338.0
 20
72.0
 30
0.0
 10
-1338.0
 20
96.0
 30
0.0
 10
-1338.0
 20
120.0
 30
0.0
  0
SPLINE
  5
104
330
1F
100
AcDbEntity
  8
Make2D$visible$lines
100
AcDbSpline
210
0.0
220
0.0
230
1.0
 70
    24
 71
     2
 72
     6
 73
     3
 74
     0
 42
0.000000001
 43
0.0000000001
 40
0.0
 40
0.0
 40
0.0
 40
48.0
 40
48.0
 40
48.0
 10
-1338.0
 20
120.0
 30
0.0
 10
-1338.0
 20
144.0
 30
0.0
 10
-1338.0
 20
168.0
 30
0.0
  0
SPLINE
  5
105
330
1F
100
AcDbEntity
  8
Make2D$visible$lines
100
AcDbSpline
210
0.0
220
0.0
230
1.0
 70
    24
 71
     2
 72
     6
 73
     3
 74
     0
 42
0.000000001
 43
0.0000000001
 40
0.0
 40
0.0
 40
0.0
 40
12.29360118258062
 40
12.29360118258062
 40
12.29360118258062
 10
-1332.0
 20
4.27062572967759
 30
0.0
 10
-1326.0
 20
2.935276521010849
 30
0.0
 10
-1320.0
 20
1.599927312344107
 30
0.0
  0
SPLINE
  5
106
330
1F
100
AcDbEntity
  8
Make2D$visible$lines
100
AcDbSpline
210
0.0
220
0.0
230
1.0
 70
    24
 71
     2
 72
     6
 73
     3
 74
     0
 42
0.000000001
 43
0.0000000001
 40
0.0
 40
0.0
 40
0.0
 40
12.29360118258062
 40
12.29360118258062
 40
12.29360118258062
 10
-1284.0
 20
4.27062572967759
 30
0.0
 10
-1278.0
 20
2.935276521010849
 30
0.0
 10
-1272.0
 20
1.599927312344107
 30
0.0
  0
SPLINE
  5
107
330
1F
100
AcDbEntity
  8
Make2D$visible$lines
100
AcDbSpline
210
0.0
220
0.0
230
1.0
 70
    24
 71
     2
 72
     6
 73
     3
 74
     0
 42
0.000000001
 43
0.0000000001
 40
0.0
 40
0.0
 40
0.0
 40
12.29360118258062
 40
12.29360118258062
 40
12.29360118258062
 10
-1236.0
 20
4.27062572967759
 30
0.0
 10
-1230.0
 20
2.935276521010849
 30
0.0
 10
-1224.0
 20
1.599927312344107
 30
0.0
  0
SPLINE
  5
108
330
1F
100
AcDbEntity
  8
Make2D$visible$lines
100
AcDbSpline
210
0.0
220
0.0
230
1.0
 70
    24
 71
     2
 72
     6
 73
     3
 74
     0
 42
0.000000001
 43
0.0000000001
 40
0.0
 40
0.0
 40
0.0
 40
12.29360118258062
 40
12.29360118258062
 40
12.29360118258062
 10
-1188.0
 20
4.27062572967759
 30
0.0
 10
-1182.0
 20
2.935276521010849
 30
0.0
 10
-1176.0
 20
1.599927312344107
 30
0.0
  0
SPLINE
  5
109
330
1F
100
AcDbEntity
  8
Make2D$visible$lines
100
AcDbSpline
210
0.0
220
0.0
230
1.0
 70
    24
 71
     2
 72
     6
 73
     3
 74
     0
 42
0.000000001
 43
0.0000000001
 40
0.0
 40
0.0
 40
0.0
 40
12.29360118258062
 40
12.29360118258062
 40
12.29360118258062
 10
-1140.0
 20
4.27062572967759
 30
0.0
 10
-1134.0
 20
2.935276521010849
 30
0.0
 10
-1128.0
 20
1.599927312344107
 30
0.0
  0
SPLINE
  5
10A
330
1F
100
AcDbEntity
  8
Make2D$visible$lines
100
AcDbSpline
210
0.0
220
0.0
230
1.0
 70
    24
 71
     2
 72
     6
 73
     3
 74
     0
 42
0.000000001
 43
0.0000000001
 40
0.0
 40
0.0
 40
0.0
 40
12.29360118258062
 40
12.29360118258062
 40
12.29360118258062
 10
-1092.0
 20
4.27062572967759
 30
0.0
 10
-1086.0
 20
2.935276521010849
 30
0.0
 10
-1080.0
 20
1.599927312344107
 30
0.0
  0
SPLINE
  5
10B
330
1F
100
AcDbEntity
  8
Make2D$visible$lines
100
AcDbSpline
210
0.0
220
0.0
230
1.0
 70
    24
 71
     2
 72
     6
 73
     3
 74
     0
 42
0.000000001
 43
0.0000000001
 40
0.0
 40
0.0
 40
0.0
 40
12.29360118258062
 40
12.29360118258062
 40
12.29360118258062
 10
-1332.0
 20
52.27062572967759
 30
0.0
 10
-1326.0
 20
50.93527652101085
 30
0.0
 10
-1320.0
 20
49.59992731234411
 30
0.0
  0
SPLINE
  5
10C
330
1F
100
AcDbEntity
  8
Make2D$visible$lines
100
AcDbSpline
210
0.0
220
0.0
230
1.0
 70
    24
 71
     2
 72
     6
 73
     3
 74
     0
 42
0.000000001
 43
0.0000000001
 40
0.0
 40
0.0
 40
0.0
 40
12.29360118258062
 40
12.29360118258062
 40
12.29360118258062
 10
-1284.0
 20
52.27062572967759
 30
0.0
 10
-1278.0
 20
50.93527652101085
 30
0.0
 10
-1272.0
 20
49.59992731234411
 30
0.0
  0
SPLINE
  5
10D
330
1F
100
AcDbEntity
  8
Make2D$visible$lines
100
AcDbSpline
210
0.0
220
0.0
230
1.0
 70
    24
 71
     2
 72
     6
 73
     3
 74
     0
 42
0.000000001
 43
0.0000000001
 40
0.0
 40
0.0
 40
0.0
 40
12.29360118258062
 40
12.29360118258062
 40
12.29360118258062
 10
-1236.0
 20
52.27062572967759
 30
0.0
 10
-1230.0
 20
50.93527652101085
 30
0.0
 10
-1224.0
 20
49.59992731234411
 30
0.0
  0
SPLINE
  5
10E
330
1F
100
AcDbEntity
  8
Make2D$visible$lines
100
AcDbSpline
210
0.0
220
0.0
230
1.0
 70
    24
 71
     2
 72
     6
 73
     3
 74
     0
 42
0.000000001
 43
0.0000000001
 40
0.0
 40
0.0
 40
0.0
 40
12.29360118258062
 40
12.29360118258062
 40
12.29360118258062
 10
-1188.0
 20
52.27062572967759
 30
0.0
 10
-1182.0
 20
50.93527652101085
 30
0.0
 10
-1176.0
 20
49.59992731234411
 30
0.0
  0
SPLINE
  5
10F
330
1F
100
AcDbEntity
  8
Make2D$visible$lines
100
AcDbSpline
210
0.0
220
0.0
230
1.0
 70
    24
 71
     2
 72
     6
 73
     3
 74
     0
 42
0.000000001
 43
0.0000000001
 40
0.0
 40
0.0
 40
0.0
 40
12.29360118258062
 40
12.29360118258062
 40
12.29360118258062
 10
-1140.0
 20
52.27062572967759
 30
0.0
 10
-1134.0
 20
50.93527652101085
 30
0.0
 10
-1128.0
 20
49.59992731234411
 30
0.0
  0
SPLINE
  5
110
330
1F
100
AcDbEntity
  8
Make2D$visible$lines
100
AcDbSpline
210
0.0
220
0.0
230
1.0
 70
    24
 71
     2
 72
     6
 73
     3
 74
     0
 42
0.000000001
 43
0.0000000001
 40
0.0
 40
0.0
 40
0.0
 40
12.29360118258062
 40
12.29360118258062
 40
12.29360118258062
 10
-1092.0
 20
52.27062572967759
 30
0.0
 10
-1086.0
 20
50.93527652101085
 30
0.0
 10
-1080.0
 20
49.59992731234411
 30
0.0
  0
SPLINE
  5
111
330
1F
100
AcDbEntity
  8
Make2D$visible$lines
100
AcDbSpline
210
0.0
220
0.0
230
1.0
 70
    24
 71
     2
 72
     6
 73
     3
 74
     0
 42
0.000000001
 43
0.0000000001
 40
0.0
 40
0.0
 40
0.0
 40
12.29360118258062
 40
12.29360118258062
 40
12.29360118258062
 10
-1332.0
 20
100.2706257296776
 30
0.0
 10
-1326.0
 20
98.93527652101085
 30
0.0
 10
-1320.0
 20
97.59992731234411
 30
0.0
  0
SPLINE
  5
112
330
1F
100
AcDbEntity
  8
Make2D$visible$lines
100
AcDbSpline
210
0.0
220
0.0
230
1.0
 70
    24
 71
     2
 72
     6
 73
     3
 74
     0
 42
0.000000001
 43
0.0000000001
 40
0.0
 40
0.0
 40
0.0
 40
12.29360118258062
 40
12.29360118258062
 40
12.29360118258062
 10
-1284.0
 20
100.2706257296776
 30
0.0
 10
-1278.0
 20
98.93527652101085
 30
0.0
 10
-1272.0
 20
97.59992731234411
 30
0.0
  0
SPLINE
  5
113
330
1F
100
AcDbEntity
  8
Make2D$visible$lines
100
AcDbSpline
210
0.0
220
0.0
230
1.0
 70
    24
 71
     2
 72
     6
 73
     3
 74
     0
 42
0.000000001
 43
0.0000000001
 40
0.0
 40
0.0
 40
0.0
 40
12.29360118258062
 40
12.29360118258062
 40
12.29360118258062
 10
-1236.0
 20
100.2706257296776
 30
0.0
 10
-1230.0
 20
98.93527652101085
 30
0.0
 10
-1224.0
 20
97.59992731234411
 30
0.0
  0
SPLINE
  5
114
330
1F
100
AcDbEntity
  8
Make2D$visible$lines
100
AcDbSpline
210
0.0
220
0.0
230
1.0
 70
    24
 71
     2
 72
     6
 73
     3
 74
     0
 42
0.000000001
 43
0.0000000001
 40
0.0
 40
0.0
 40
0.0
 40
12.29360118258062
 40
12.29360118258062
 40
12.29360118258062
 10
-1188.0
 20
100.2706257296776
 30
0.0
 10
-1182.0
 20
98.93527652101085
 30
0.0
 10
-1176.0
 20
97.59992731234411
 30
0.0
  0
SPLINE
  5
115
330
1F
100
AcDbEntity
  8
Make2D$visible$lines
100
AcDbSpline
210
0.0
220
0.0
230
1.0
 70
    24
 71
     2
 72
     6
 73
     3
 74
     0
 42
0.000000001
 43
0.0000000001
 40
0.0
 40
0.0
 40
0.0
 40
12.29360118258062
 40
12.29360118258062
 40
12.29360118258062
 10
-1140.0
 20
100.2706257296776
 30
0.0
 10
-1134.0
 20
98.93527652101085
 30
0.0
 10
-1128.0
 20
97.59992731234411
 30
0.0
  0
SPLINE
  5
116
330
1F
100
AcDbEntity
  8
Make2D$visible$lines
100
AcDbSpline
210
0.0
220
0.0
230
1.0
 70
    24
 71
     2
 72
     6
 73
     3
 74
     0
 42
0.000000001
 43
0.0000000001
 40
0.0
 40
0.0
 40
0.0
 40
12.29360118258062
 40
12.29360118258062
 40
12.29360118258062
 10
-1092.0
 20
100.2706257296776
 30
0.0
 10
-1086.0
 20
98.93527652101085
 30
0.0
 10
-1080.0
 20
97.59992731234411
 30
0.0
  0
SPLINE
  5
117
330
1F
100
AcDbEntity
  8
Make2D$visible$lines
100
AcDbSpline
210
0.0
220
0.0
230
1.0
 70
    24
 71
     2
 72
     6
 73
     3
 74
     0
 42
0.000000001
 43
0.0000000001
 40
0.0
 40
0.0
 40
0.0
 40
12.29360118258062
 40
12.29360118258062
 40
12.29360118258062
 10
-1332.0
 20
148.2706257296776
 30
0.0
 10
-1326.0
 20
146.9352765210108
 30
0.0
 10
-1320.0
 20
145.5999273123441
 30
0.0
  0
SPLINE
  5
118
330
1F
100
AcDbEntity
  8
Make2D$visible$lines
100
AcDbSpline
210
0.0
220
0.0
230
1.0
 70
    24
 71
     2
 72
     6
 73
     3
 74
     0
 42
0.000000001
 43
0.0000000001
 40
0.0
 40
0.0
 40
0.0
 40
12.29360118258062
 40
12.29360118258062
 40
12.29360118258062
 10
-1284.0
 20
148.2706257296776
 30
0.0
 10
-1278.0
 20
146.9352765210108
 30
0.0
 10
-1272.0
 20
145.5999273123441
 30
0.0
  0
SPLINE
  5
119
330
1F
100
AcDbEntity
  8
Make2D$visible$lines
100
AcDbSpline
210
0.0
220
0.0
230
1.0
 70
    24
 71
     2
 72
     6
 73
     3
 74
     0
 42
0.000000001
 43
0.0000000001
 40
0.0
 40
0.0
 40
0.0
 40
12.29360118258062
 40
12.29360118258062
 40
12.29360118258062
 10
-1236.0
 20
148.2706257296776
 30
0.0
 10
-1230.0
 20
146.9352765210108
 30
0.0
 10
-1224.0
 20
145.5999273123441
 30
0.0
  0
SPLINE
  5
11A
330
1F
100
AcDbEntity
  8
Make2D$visible$lines
100
AcDbSpline
210
0.0
220
0.0
230
1.0
 70
    24
 71
     2
 72
     6
 73
     3
 74
     0
 42
0.000000001
 43
0.0000000001
 40
0.0
 40
0.0
 40
0.0
 40
12.29360118258062
 40
12.29360118258062
 40
12.29360118258062
 10
-1188.0
 20
148.2706257296776
 30
0.0
 10
-1182.0
 20
146.9352765210108
 30
0.0
 10
-1176.0
 20
145.5999273123441
 30
0.0
  0
SPLINE
  5
11B
330
1F
100
AcDbEntity
  8
Make2D$visible$lines
100
AcDbSpline
210
0.0
220
0.0
230
1.0
 70
    24
 71
     2
 72
     6
 73
     3
 74
     0
 42
0.000000001
 43
0.0000000001
 40
0.0
 40
0.0
 40
0.0
 40
12.29360118258062
 40
12.29360118258062
 40
12.29360118258062
 10
-1140.0
 20
148.2706257296776
 30
0.0
 10
-1134.0
 20
146.9352765210108
 30
0.0
 10
-1128.0
 20
145.5999273123441
 30
0.0
  0
SPLINE
  5
11C
330
1F
100
AcDbEntity
  8
Make2D$visible$lines
100
AcDbSpline
210
0.0
220
0.0
230
1.0
 70
    24
 71
     2
 72
     6
 73
     3
 74
     0
 42
0.000000001
 43
0.0000000001
 40
0.0
 40
0.0
 40
0.0
 40
12.29360118258062
 40
12.29360118258062
 40
12.29360118258062
 10
-1092.0
 20
148.2706257296776
 30
0.0
 10
-1086.0
 20
146.9352765210108
 30
0.0
 10
-1080.0
 20
145.5999273123441
 30
0.0
  0
SPLINE
  5
11D
330
1F
100
AcDbEntity
  8
Make2D$visible$lines
100
AcDbSpline
210
0.0
220
0.0
230
1.0
 70
    24
 71
     2
 72
     6
 73
     3
 74
     0
 42
0.000000001
 43
0.0000000001
 40
0.0
 40
0.0
 40
0.0
 40
12.49596391681523
 40
12.49596391681523
 40
12.49596391681523
 10
-1332.0
 20
4.27062572967759
 30
0.0
 10
-1326.0
 20
6.013404703783909
 30
0.0
 10
-1320.0
 20
7.756183677890228
 30
0.0
  0
SPLINE
  5
11E
330
1F
100
AcDbEntity
  8
Make2D$visible$lines
100
AcDbSpline
210
0.0
220
0.0
230
1.0
 70
    24
 71
     2
 72
     6
 73
     3
 74
     0
 42
0.000000001
 43
0.0000000001
 40
0.0
 40
0.0
 40
0.0
 40
12.49596391681523
 40
12.49596391681523
 40
12.49596391681523
 10
-1284.0
 20
4.27062572967759
 30
0.0
 10
-1278.0
 20
6.013404703783909
 30
0.0
 10
-1272.0
 20
7.756183677890228
 30
0.0
  0
SPLINE
  5
11F
330
1F
100
AcDbEntity
  8
Make2D$visible$lines
100
AcDbSpline
210
0.0
220
0.0
230
1.0
 70
    24
 71
     2
 72
     6
 73
     3
 74
     0
 42
0.000000001
 43
0.0000000001
 40
0.0
 40
0.0
 40
0.0
 40
12.49596391681523
 40
12.49596391681523
 40
12.49596391681523
 10
-1236.0
 20
4.27062572967759
 30
0.0
 10
-1230.0
 20
6.013404703783909
 30
0.0
 10
-1224.0
 20
7.756183677890228
 30
0.0
  0
SPLINE
  5
120
330
1F
100
AcDbEntity
  8
Make2D$visible$lines
100
AcDbSpline
210
0.0
220
0.0
230
1.0
 70
    24
 71
     2
 72
     6
 73
     3
 74
     0
 42
0.000000001
 43
0.0000000001
 40
0.0
 40
0.0
 40
0.0
 40
12.49596391681523
 40
12.49596391681523
 40
12.49596391681523
 10
-1188.0
 20
4.27062572967759
 30
0.0
 10
-1182.0
 20
6.013404703783909
 30
0.0
 10
-1176.0
 20
7.756183677890228
 30
0.0
  0
SPLINE
  5
121
330
1F
100
AcDbEntity
  8
Make2D$visible$lines
100
AcDbSpline
210
0.0
220
0.0
230
1.0
 70
    24
 71
     2
 72
     6
 73
     3
 74
     0
 42
0.000000001
 43
0.0000000001
 40
0.0
 40
0.0
 40
0.0
 40
12.49596391681523
 40
12.49596391681523
 40
12.49596391681523
 10
-1140.0
 20
4.27062572967759
 30
0.0
 10
-1134.0
 20
6.013404703783909
 30
0.0
 10
-1128.0
 20
7.756183677890228
 30
0.0
  0
SPLINE
  5
122
330
1F
100
AcDbEntity
  8
Make2D$visible$lines
100
AcDbSpline
210
0.0
220
0.0
230
1.0
 70
    24
 71
     2
 72
     6
 73
     3
 74
     0
 42
0.000000001
 43
0.0000000001
 40
0.0
 40
0.0
 40
0.0
 40
12.49596391681523
 40
12.49596391681523
 40
12.49596391681523
 10
-1092.0
 20
4.27062572967759
 30
0.0
 10
-1086.0
 20
6.013404703783909
 30
0.0
 10
-1080.0
 20
7.756183677890228
 30
0.0
  0
SPLINE
  5
123
330
1F
100
AcDbEntity
  8
Make2D$visible$lines
100
AcDbSpline
210
0.0
220
0.0
230
1.0
 70
    24
 71
     2
 72
     6
 73
     3
 74
     0
 42
0.000000001
 43
0.0000000001
 40
0.0
 40
0.0
 40
0.0
 40
12.49596391681523
 40
12.49596391681523
 40
12.49596391681523
 10
-1332.0
 20
52.27062572967759
 30
0.0
 10
-1326.0
 20
54.01340470378391
 30
0.0
 10
-1320.0
 20
55.75618367789022
 30
0.0
  0
SPLINE
  5
124
330
1F
100
AcDbEntity
  8
Make2D$visible$lines
100
AcDbSpline
210
0.0
220
0.0
230
1.0
 70
    24
 71
     2
 72
     6
 73
     3
 74
     0
 42
0.000000001
 43
0.0000000001
 40
0.0
 40
0.0
 40
0.0
 40
12.49596391681523
 40
12.49596391681523
 40
12.49596391681523
 10
-1284.0
 20
52.27062572967759
 30
0.0
 10
-1278.0
 20
54.01340470378391
 30
0.0
 10
-1272.0
 20
55.75618367789022
 30
0.0
  0
SPLINE
  5
125
330
1F
100
AcDbEntity
  8
Make2D$visible$lines
100
AcDbSpline
210
0.0
220
0.0
230
1.0
 70
    24
 71
     2
 72
     6
 73
     3
 74
     0
 42
0.000000001
 43
0.0000000001
 40
0.0
 40
0.0
 40
0.0
 40
12.49596391681523
 40
12.49596391681523
 40
12.49596391681523
 10
-1236.0
 20
52.27062572967759
 30
0.0
 10
-1230.0
 20
54.01340470378391
 30
0.0
 10
-1224.0
 20
55.75618367789022
 30
0.0
  0
SPLINE
  5
126
330
1F
100
AcDbEntity
  8
Make2D$visible$lines
100
AcDbSpline
210
0.0
220
0.0
230
1.0
 70
    24
 71
     2
 72
     6
 73
     3
 74
     0
 42
0.000000001
 43
0.0000000001
 40
0.0
 40
0.0
 40
0.0
 40
12.49596391681523
 40
12.49596391681523
 40
12.49596391681523
 10
-1188.0
 20
52.27062572967759
 30
0.0
 10
-1182.0
 20
54.01340470378391
 30
0.0
 10
-1176.0
 20
55.75618367789022
 30
0.0
  0
SPLINE
  5
127
330
1F
100
AcDbEntity
  8
Make2D$visible$lines
100
AcDbSpline
210
0.0
220
0.0
230
1.0
 70
    24
 71
     2
 72
     6
 73
     3
 74
     0
 42
0.000000001
 43
0.0000000001
 40
0.0
 40
0.0
 40
0.0
 40
12.49596391681523
 40
12.49596391681523
 40
12.49596391681523
 10
-1140.0
 20
52.27062572967759
 30
0.0
 10
-1134.0
 20
54.01340470378391
 30
0.0
 10
-1128.0
 20
55.75618367789022
 30
0.0
  0
SPLINE
  5
128
330
1F
100
AcDbEntity
  8
Make2D$visible$lines
100
AcDbSpline
210
0.0
220
0.0
230
1.0
 70
    24
 71
     2
 72
     6
 73
     3
 74
     0
 42
0.000000001
 43
0.0000000001
 40
0.0
 40
0.0
 40
0.0
 40
12.49596391681523
 40
12.49596391681523
 40
12.49596391681523
 10
-1092.0
 20
52.27062572967759
 30
0.0
 10
-1086.0
 20
54.01340470378391
 30
0.0
 10
-1080.0
 20
55.75618367789022
 30
0.0
  0
SPLINE
  5
129
330
1F
100
AcDbEntity
  8
Make2D$visible$lines
100
AcDbSpline
210
0.0
220
0.0
230
1.0
 70
    24
 71
     2
 72
     6
 73
     3
 74
     0
 42
0.000000001
 43
0.0000000001
 40
0.0
 40
0.0
 40
0.0
 40
12.49596391681523
 40
12.49596391681523
 40
12.49596391681523
 10
-1332.0
 20
100.2706257296776
 30
0.0
 10
-1326.0
 20
102.0134047037839
 30
0.0
 10
-1320.0
 20
103.7561836778902
 30
0.0
  0
SPLINE
  5
12A
330
1F
100
AcDbEntity
  8
Make2D$visible$lines
100
AcDbSpline
210
0.0
220
0.0
230
1.0
 70
    24
 71
     2
 72
     6
 73
     3
 74
     0
 42
0.000000001
 43
0.0000000001
 40
0.0
 40
0.0
 40
0.0
 40
12.49596391681523
 40
12.49596391681523
 40
12.49596391681523
 10
-1284.0
 20
100.2706257296776
 30
0.0
 10
-1278.0
 20
102.0134047037839
 30
0.0
 10
-1272.0
 20
103.7561836778902
 30
0.0
  0
SPLINE
  5
12B
330
1F
100
AcDbEntity
  8
Make2D$visible$lines
100
AcDbSpline
210
0.0
220
0.0
230
1.0
 70
    24
 71
     2
 72
     6
 73
     3
 74
     0
 42
0.000000001
 43
0.0000000001
 40
0.0
 40
0.0
 40
0.0
 40
12.49596391681523
 40
12.49596391681523
 40
12.49596391681523
 10
-1236.0
 20
100.2706257296776
 30
0.0
 10
-1230.0
 20
102.0134047037839
 30
0.0
 10
-1224.0
 20
103.7561836778902
 30
0.0
  0
SPLINE
  5
12C
330
1F
100
AcDbEntity
  8
Make2D$visible$lines
100
AcDbSpline
210
0.0
220
0.0
230
1.0
 70
    24
 71
     2
 72
     6
 73
     3
 74
     0
 42
0.000000001
 43
0.0000000001
 40
0.0
 40
0.0
 40
0.0
 40
12.49596391681523
 40
12.49596391681523
 40
12.49596391681523
 10
-1188.0
 20
100.2706257296776
 30
0.0
 10
-1182.0
 20
102.0134047037839
 30
0.0
 10
-1176.0
 20
103.7561836778902
 30
0.0
  0
SPLINE
  5
12D
330
1F
100
AcDbEntity
  8
Make2D$visible$lines
100
AcDbSpline
210
0.0
220
0.0
230
1.0
 70
    24
 71
     2
 72
     6
 73
     3
 74
     0
 42
0.000000001
 43
0.0000000001
 40
0.0
 40
0.0
 40
0.0
 40
12.49596391681523
 40
12.49596391681523
 40
12.49596391681523
 10
-1140.0
 20
100.2706257296776
 30
0.0
 10
-1134.0
 20
102.0134047037839
 30
0.0
 10
-1128.0
 20
103.7561836778902
 30
0.0
  0
SPLINE
  5
12E
330
1F
100
AcDbEntity
  8
Make2D$visible$lines
100
AcDbSpline
210
0.0
220
0.0
230
1.0
 70
    24
 71
     2
 72
     6
 73
     3
 74
     0
 42
0.000000001
 43
0.0000000001
 40
0.0
 40
0.0
 40
0.0
 40
12.49596391681523
 40
12.49596391681523
 40
12.49596391681523
 10
-1092.0
 20
100.2706257296776
 30
0.0
 10
-1086.0
 20
102.0134047037839
 30
0.0
 10
-1080.0
 20
103.7561836778902
 30
0.0
  0
SPLINE
  5
12F
330
1F
100
AcDbEntity
  8
Make2D$visible$lines
100
AcDbSpline
210
0.0
220
0.0
230
1.0
 70
    24
 71
     2
 72
     6
 73
     3
 74
     0
 42
0.000000001
 43
0.0000000001
 40
0.0
 40
0.0
 40
0.0
 40
12.49596391681523
 40
12.49596391681523
 40
12.49596391681523
 10
-1332.0
 20
148.2706257296776
 30
0.0
 10
-1326.0
 20
150.0134047037839
 30
0.0
 10
-1320.0
 20
151.7561836778902
 30
0.0
  0
SPLINE
  5
130
330
1F
100
AcDbEntity
  8
Make2D$visible$lines
100
AcDbSpline
210
0.0
220
0.0
230
1.0
 70
    24
 71
     2
 72
     6
 73
     3
 74
     0
 42
0.000000001
 43
0.0000000001
 40
0.0
 40
0.0
 40
0.0
 40
12.49596391681523
 40
12.49596391681523
 40
12.49596391681523
 10
-1284.0
 20
148.2706257296776
 30
0.0
 10
-1278.0
 20
150.0134047037839
 30
0.0
 10
-1272.0
 20
151.7561836778902
 30
0.0
  0
SPLINE
  5
131
330
1F
100
AcDbEntity
  8
Make2D$visible$lines
100
AcDbSpline
210
0.0
220
0.0
230
1.0
 70
    24
 71
     2
 72
     6
 73
     3
 74
     0
 42
0.000000001
 43
0.0000000001
 40
0.0
 40
0.0
 40
0.0
 40
12.49596391681523
 40
12.49596391681523
 40
12.49596391681523
 10
-1236.0
 20
148.2706257296776
 30
0.0
 10
-1230.0
 20
150.0134047037839
 30
0.0
 10
-1224.0
 20
151.7561836778902
 30
0.0
  0
SPLINE
  5
132
330
1F
100
AcDbEntity
  8
Make2D$visible$lines
100
AcDbSpline
210
0.0
220
0.0
230
1.0
 70
    24
 71
     2
 72
     6
 73
     3
 74
     0
 42
0.000000001
 43
0.0000000001
 40
0.0
 40
0.0
 40
0.0
 40
12.49596391681523
 40
12.49596391681523
 40
12.49596391681523
 10
-1188.0
 20
148.2706257296776
 30
0.0
 10
-1182.0
 20
150.0134047037839
 30
0.0
 10
-1176.0
 20
151.7561836778902
 30
0.0
  0
SPLINE
  5
133
330
1F
100
AcDbEntity
  8
Make2D$visible$lines
100
AcDbSpline
210
0.0
220
0.0
230
1.0
 70
    24
 71
     2
 72
     6
 73
     3
 74
     0
 42
0.000000001
 43
0.0000000001
 40
0.0
 40
0.0
 40
0.0
 40
12.49596391681523
 40
12.49596391681523
 40
12.49596391681523
 10
-1140.0
 20
148.2706257296776
 30
0.0
 10
-1134.0
 20
150.0134047037839
 30
0.0
 10
-1128.0
 20
151.7561836778902
 30
0.0
  0
SPLINE
  5
134
330
1F
100
AcDbEntity
  8
Make2D$visible$lines
100
AcDbSpline
210
0.0
220
0.0
230
1.0
 70
    24
 71
     2
 72
     6
 73
     3
 74
     0
 42
0.000000001
 43
0.0000000001
 40
0.0
 40
0.0
 40
0.0
 40
12.49596391681523
 40
12.49596391681523
 40
12.49596391681523
 10
-1092.0
 20
148.2706257296776
 30
0.0
 10
-1086.0
 20
150.0134047037839
 30
0.0
 10
-1080.0
 20
151.7561836778902
 30
0.0
  0
SPLINE
  5
135
330
1F
100
AcDbEntity
  8
Make2D$visible$lines
100
AcDbSpline
210
0.0
220
0.0
230
1.0
 70
    24
 71
     2
 72
     6
 73
     3
 74
     0
 42
0.000000001
 43
0.0000000001
 40
0.0
 40
0.0
 40
0.0
 40
16.22634980542132
 40
16.22634980542132
 40
16.22634980542132
 10
-1332.0
 20
4.27062572967759
 30
0.0
 10
-1332.0
 20
12.38380063238825
 30
0.0
 10
-1332.0
 20
20.49697553509891
 30
0.0
  0
SPLINE
  5
136
330
1F
100
AcDbEntity
  8
Make2D$visible$lines
100
AcDbSpline
210
0.0
220
0.0
230
1.0
 70
    24
 71
     2
 72
     6
 73
     3
 74
     0
 42
0.000000001
 43
0.0000000001
 40
0.0
 40
0.0
 40
0.0
 40
16.22634980542132
 40
16.22634980542132
 40
16.22634980542132
 10
-1284.0
 20
4.27062572967759
 30
0.0
 10
-1284.0
 20
12.38380063238825
 30
0.0
 10
-1284.0
 20
20.49697553509891
 30
0.0
  0
SPLINE
  5
137
330
1F
100
AcDbEntity
  8
Make2D$visible$lines
100
AcDbSpline
210
0.0
220
0.0
230
1.0
 70
    24
 71
     2
 72
     6
 73
     3
 74
     0
 42
0.000000001
 43
0.0000000001
 40
0.0
 40
0.0
 40
0.0
 40
16.22634980542132
 40
16.22634980542132
 40
16.22634980542132
 10
-1236.0
 20
4.27062572967759
 30
0.0
 10
-1236.0
 20
12.38380063238825
 30
0.0
 10
-1236.0
 20
20.49697553509891
 30
0.0
  0
SPLINE
  5
138
330
1F
100
AcDbEntity
  8
Make2D$visible$lines
100
AcDbSpline
210
0.0
220
0.0
230
1.0
 70
    24
 71
     2
 72
     6
 73
     3
 74
     0
 42
0.000000001
 43
0.0000000001
 40
0.0
 40
0.0
 40
0.0
 40
16.22634980542132
 40
16.22634980542132
 40
16.22634980542132
 10
-1188.0
 20
4.27062572967759
 30
0.0
 10
-1188.0
 20
12.38380063238825
 30
0.0
 10
-1188.0
 20
20.49697553509891
 30
0.0
  0
SPLINE
  5
139
330
1F
100
AcDbEntity
  8
Make2D$visible$lines
100
AcDbSpline
210
0.0
220
0.0
230
1.0
 70
    24
 71
     2
 72
     6
 73
     3
 74
     0
 42
0.000000001
 43
0.0000000001
 40
0.0
 40
0.0
 40
0.0
 40
16.22634980542132
 40
16.22634980542132
 40
16.22634980542132
 10
-1140.0
 20
4.27062572967759
 30
0.0
 10
-1140.0
 20
12.38380063238825
 30
0.0
 10
-1140.0
 20
20.49697553509891
 30
0.0
  0
SPLINE
  5
13A
330
1F
100
AcDbEntity
  8
Make2D$visible$lines
100
AcDbSpline
210
0.0
220
0.0
230
1.0
 70
    24
 71
     2
 72
     6
 73
     3
 74
     0
 42
0.000000001
 43
0.0000000001
 40
0.0
 40
0.0
 40
0.0
 40
16.22634980542132
 40
16.22634980542132
 40
16.22634980542132
 10
-1092.0
 20
4.27062572967759
 30
0.0
 10
-1092.0
 20
12.38380063238825
 30
0.0
 10
-1092.0
 20
20.49697553509891
 30
0.0
  0
SPLINE
  5
13B
330
1F
100
AcDbEntity
  8
Make2D$visible$lines
100
AcDbSpline
210
0.0
220
0.0
230
1.0
 70
    24
 71
     2
 72
     6
 73
     3
 74
     0
 42
0.000000001
 43
0.0000000001
 40
0.0
 40
0.0
 40
0.0
 40
16.22634980542132
 40
16.22634980542132
 40
16.22634980542132
 10
-1332.0
 20
52.27062572967759
 30
0.0
 10
-1332.0
 20
60.38380063238825
 30
0.0
 10
-1332.0
 20
68.49697553509891
 30
0.0
  0
SPLINE
  5
13C
330
1F
100
AcDbEntity
  8
Make2D$visible$lines
100
AcDbSpline
210
0.0
220
0.0
230
1.0
 70
    24
 71
     2
 72
     6
 73
     3
 74
     0
 42
0.000000001
 43
0.0000000001
 40
0.0
 40
0.0
 40
0.0
 40
16.22634980542132
 40
16.22634980542132
 40
16.22634980542132
 10
-1284.0
 20
52.27062572967759
 30
0.0
 10
-1284.0
 20
60.38380063238825
 30
0.0
 10
-1284.0
 20
68.49697553509891
 30
0.0
  0
SPLINE
  5
13D
330
1F
100
AcDbEntity
  8
Make2D$visible$lines
100
AcDbSpline
210
0.0
220
0.0
230
1.0
 70
    24
 71
     2
 72
     6
 73
     3
 74
     0
 42
0.000000001
 43
0.0000000001
 40
0.0
 40
0.0
 40
0.0
 40
16.22634980542132
 40
16.22634980542132
 40
16.22634980542132
 10
-1236.0
 20
52.27062572967759
 30
0.0
 10
-1236.0
 20
60.38380063238825
 30
0.0
 10
-1236.0
 20
68.49697553509891
 30
0.0
  0
SPLINE
  5
13E
330
1F
100
AcDbEntity
  8
Make2D$visible$lines
100
AcDbSpline
210
0.0
220
0.0
230
1.0
 70
    24
 71
     2
 72
     6
 73
     3
 74
     0
 42
0.000000001
 43
0.0000000001
 40
0.0
 40
0.0
 40
0.0
 40
16.22634980542132
 40
16.22634980542132
 40
16.22634980542132
 10
-1188.0
 20
52.27062572967759
 30
0.0
 10
-1188.0
 20
60.38380063238825
 30
0.0
 10
-1188.0
 20
68.49697553509891
 30
0.0
  0
SPLINE
  5
13F
330
1F
100
AcDbEntity
  8
Make2D$visible$lines
100
AcDbSpline
210
0.0
220
0.0
230
1.0
 70
    24
 71
     2
 72
     6
 73
     3
 74
     0
 42
0.000000001
 43
0.0000000001
 40
0.0
 40
0.0
 40
0.0
 40
16.22634980542132
 40
16.22634980542132
 40
16.22634980542132
 10
-1140.0
 20
52.27062572967759
 30
0.0
 10
-1140.0
 20
60.38380063238825
 30
0.0
 10
-1140.0
 20
68.49697553509891
 30
0.0
  0
SPLINE
  5
140
330
1F
100
AcDbEntity
  8
Make2D$visible$lines
100
AcDbSpline
210
0.0
220
0.0
230
1.0
 70
    24
 71
     2
 72
     6
 73
     3
 74
     0
 42
0.000000001
 43
0.0000000001
 40
0.0
 40
0.0
 40
0.0
 40
16.22634980542132
 40
16.22634980542132
 40
16.22634980542132
 10
-1092.0
 20
52.27062572967759
 30
0.0
 10
-1092.0
 20
60.38380063238825
 30
0.0
 10
-1092.0
 20
68.49697553509891
 30
0.0
  0
SPLINE
  5
141
330
1F
100
AcDbEntity
  8
Make2D$visible$lines
100
AcDbSpline
210
0.0
220
0.0
230
1.0
 70
    24
 71
     2
 72
     6
 73
     3
 74
     0
 42
0.000000001
 43
0.0000000001
 40
0.0
 40
0.0
 40
0.0
 40
16.22634980542134
 40
16.22634980542134
 40
16.22634980542134
 10
-1332.0
 20
100.2706257296776
 30
0.0
 10
-1332.0
 20
108.3838006323883
 30
0.0
 10
-1332.0
 20
116.4969755350989
 30
0.0
  0
SPLINE
  5
142
330
1F
100
AcDbEntity
  8
Make2D$visible$lines
100
AcDbSpline
210
0.0
220
0.0
230
1.0
 70
    24
 71
     2
 72
     6
 73
     3
 74
     0
 42
0.000000001
 43
0.0000000001
 40
0.0
 40
0.0
 40
0.0
 40
16.22634980542134
 40
16.22634980542134
 40
16.22634980542134
 10
-1284.0
 20
100.2706257296776
 30
0.0
 10
-1284.0
 20
108.3838006323883
 30
0.0
 10
-1284.0
 20
116.4969755350989
 30
0.0
  0
SPLINE
  5
143
330
1F
100
AcDbEntity
  8
Make2D$visible$lines
100
AcDbSpline
210
0.0
220
0.0
230
1.0
 70
    24
 71
     2
 72
     6
 73
     3
 74
     0
 42
0.000000001
 43
0.0000000001
 40
0.0
 40
0.0
 40
0.0
 40
16.22634980542134
 40
16.22634980542134
 40
16.22634980542134
 10
-1236.0
 20
100.2706257296776
 30
0.0
 10
-1236.0
 20
108.3838006323883
 30
0.0
 10
-1236.0
 20
116.4969755350989
 30
0.0
  0
SPLINE
  5
144
330
1F
100
AcDbEntity
  8
Make2D$visible$lines
100
AcDbSpline
210
0.0
220
0.0
230
1.0
 70
    24
 71
     2
 72
     6
 73
     3
 74
     0
 42
0.000000001
 43
0.0000000001
 40
0.0
 40
0.0
 40
0.0
 40
16.22634980542134
 40
16.22634980542134
 40
16.22634980542134
 10
-1188.0
 20
100.2706257296776
 30
0.0
 10
-1188.0
 20
108.3838006323883
 30
0.0
 10
-1188.0
 20
116.4969755350989
 30
0.0
  0
SPLINE
  5
145
330
1F
100
AcDbEntity
  8
Make2D$visible$lines
100
AcDbSpline
210
0.0
220
0.0
230
1.0
 70
    24
 71
     2
 72
     6
 73
     3
 74
     0
 42
0.000000001
 43
0.0000000001
 40
0.0
 40
0.0
 40
0.0
 40
16.22634980542134
 40
16.22634980542134
 40
16.22634980542134
 10
-1140.0
 20
100.2706257296776
 30
0.0
 10
-1140.0
 20
108.3838006323883
 30
0.0
 10
-1140.0
 20
116.4969755350989
 30
0.0
  0
SPLINE
  5
146
330
1F
100
AcDbEntity
  8
Make2D$visible$lines
100
AcDbSpline
210
0.0
220
0.0
230
1.0
 70
    24
 71
     2
 72
     6
 73
     3
 74
     0
 42
0.000000001
 43
0.0000000001
 40
0.0
 40
0.0
 40
0.0
 40
16.22634980542134
 40
16.22634980542134
 40
16.22634980542134
 10
-1092.0
 20
100.2706257296776
 30
0.0
 10
-1092.0
 20
108.3838006323883
 30
0.0
 10
-1092.0
 20
116.4969755350989
 30
0.0
  0
SPLINE
  5
147
330
1F
100
AcDbEntity
  8
Make2D$visible$lines
100
AcDbSpline
210
0.0
220
0.0
230
1.0
 70
    24
 71
     2
 72
     6
 73
     3
 74
     0
 42
0.000000001
 43
0.0000000001
 40
0.0
 40
0.0
 40
0.0
 40
16.22634980542131
 40
16.22634980542131
 40
16.22634980542131
 10
-1332.0
 20
148.2706257296776
 30
0.0
 10
-1332.0
 20
156.3838006323882
 30
0.0
 10
-1332.0
 20
164.4969755350989
 30
0.0
  0
SPLINE
  5
148
330
1F
100
AcDbEntity
  8
Make2D$visible$lines
100
AcDbSpline
210
0.0
220
0.0
230
1.0
 70
    24
 71
     2
 72
     6
 73
     3
 74
     0
 42
0.000000001
 43
0.0000000001
 40
0.0
 40
0.0
 40
0.0
 40
16.22634980542131
 40
16.22634980542131
 40
16.22634980542131
 10
-1284.0
 20
148.2706257296776
 30
0.0
 10
-1284.0
 20
156.3838006323882
 30
0.0
 10
-1284.0
 20
164.4969755350989
 30
0.0
  0
SPLINE
  5
149
330
1F
100
AcDbEntity
  8
Make2D$visible$lines
100
AcDbSpline
210
0.0
220
0.0
230
1.0
 70
    24
 71
     2
 72
     6
 73
     3
 74
     0
 42
0.000000001
 43
0.0000000001
 40
0.0
 40
0.0
 40
0.0
 40
16.22634980542131
 40
16.22634980542131
 40
16.22634980542131
 10
-1236.0
 20
148.2706257296776
 30
0.0
 10
-1236.0
 20
156.3838006323882
 30
0.0
 10
-1236.0
 20
164.4969755350989
 30
0.0
  0
SPLINE
  5
14A
330
1F
100
AcDbEntity
  8
Make2D$visible$lines
100
AcDbSpline
210
0.0
220
0.0
230
1.0
 70
    24
 71
     2
 72
     6
 73
     3
 74
     0
 42
0.000000001
 43
0.0000000001
 40
0.0
 40
0.0
 40
0.0
 40
16.22634980542131
 40
16.22634980542131
 40
16.22634980542131
 10
-1188.0
 20
148.2706257296776
 30
0.0
 10
-1188.0
 20
156.3838006323882
 30
0.0
 10
-1188.0
 20
164.4969755350989
 30
0.0
  0
SPLINE
  5
14B
330
1F
100
AcDbEntity
  8
Make2D$visible$lines
100
AcDbSpline
210
0.0
220
0.0
230
1.0
 70
    24
 71
     2
 72
     6
 73
     3
 74
     0
 42
0.000000001
 43
0.0000000001
 40
0.0
 40
0.0
 40
0.0
 40
16.22634980542131
 40
16.22634980542131
 40
16.22634980542131
 10
-1140.0
 20
148.2706257296776
 30
0.0
 10
-1140.0
 20
156.3838006323882
 30
0.0
 10
-1140.0
 20
164.4969755350989
 30
0.0
  0
SPLINE
  5
14C
330
1F
100
AcDbEntity
  8
Make2D$visible$lines
100
AcDbSpline
210
0.0
220
0.0
230
1.0
 70
    24
 71
     2
 72
     6
 73
     3
 74
     0
 42
0.000000001
 43
0.0000000001
 40
0.0
 40
0.0
 40
0.0
 40
16.22634980542131
 40
16.22634980542131
 40
16.22634980542131
 10
-1092.0
 20
148.2706257296776
 30
0.0
 10
-1092.0
 20
156.3838006323882
 30
0.0
 10
-1092.0
 20
164.4969755350989
 30
0.0
  0
SPLINE
  5
14D
330
1F
100
AcDbEntity
  8
Make2D$visible$lines
100
AcDbSpline
210
0.0
220
0.0
230
1.0
 70
    24
 71
     2
 72
     6
 73
     3
 74
     0
 42
0.000000001
 43
0.0000000001
 40
0.0
 40
0.0
 40
0.0
 40
20.62154720428271
 40
20.62154720428271
 40
20.62154720428271
 10
-1332.0
 20
4.27062572967759
 30
0.0
 10
-1335.0
 20
14.1353128648388
 30
0.0
 10
-1338.0
 20
24.0
 30
0.0
  0
SPLINE
  5
14E
330
1F
100
AcDbEntity
  8
Make2D$visible$lines
100
AcDbSpline
210
0.0
220
0.0
230
1.0
 70
    24
 71
     2
 72
     6
 73
     3
 74
     0
 42
0.000000001
 43
0.0000000001
 40
0.0
 40
0.0
 40
0.0
 40
20.62154720428271
 40
20.62154720428271
 40
20.62154720428271
 10
-1284.0
 20
4.27062572967759
 30
0.0
 10
-1287.0
 20
14.1353128648388
 30
0.0
 10
-1290.0
 20
24.0
 30
0.0
  0
SPLINE
  5
14F
330
1F
100
AcDbEntity
  8
Make2D$visible$lines
100
AcDbSpline
210
0.0
220
0.0
230
1.0
 70
    24
 71
     2
 72
     6
 73
     3
 74
     0
 42
0.000000001
 43
0.0000000001
 40
0.0
 40
0.0
 40
0.0
 40
20.62154720428271
 40
20.62154720428271
 40
20.62154720428271
 10
-1236.0
 20
4.27062572967759
 30
0.0
 10
-1239.0
 20
14.1353128648388
 30
0.0
 10
-1242.0
 20
24.0
 30
0.0
  0
SPLINE
  5
150
330
1F
100
AcDbEntity
  8
Make2D$visible$lines
100
AcDbSpline
210
0.0
220
0.0
230
1.0
 70
    24
 71
     2
 72
     6
 73
     3
 74
     0
 42
0.000000001
 43
0.0000000001
 40
0.0
 40
0.0
 40
0.0
 40
20.62154720428271
 40
20.62154720428271
 40
20.62154720428271
 10
-1188.0
 20
4.27062572967759
 30
0.0
 10
-1191.0
 20
14.1353128648388
 30
0.0
 10
-1194.0
 20
24.0
 30
0.0
  0
SPLINE
  5
151
330
1F
100
AcDbEntity
  8
Make2D$visible$lines
100
AcDbSpline
210
0.0
220
0.0
230
1.0
 70
    24
 71
     2
 72
     6
 73
     3
 74
     0
 42
0.000000001
 43
0.0000000001
 40
0.0
 40
0.0
 40
0.0
 40
20.62154720428271
 40
20.62154720428271
 40
20.62154720428271
 10
-1140.0
 20
4.27062572967759
 30
0.0
 10
-1143.0
 20
14.1353128648388
 30
0.0
 10
-1146.0
 20
24.0
 30
0.0
  0
SPLINE
  5
152
330
1F
100
AcDbEntity
  8
Make2D$visible$lines
100
AcDbSpline
210
0.0
220
0.0
230
1.0
 70
    24
 71
     2
 72
     6
 73
     3
 74
     0
 42
0.000000001
 43
0.0000000001
 40
0.0
 40
0.0
 40
0.0
 40
20.62154720428271
 40
20.62154720428271
 40
20.62154720428271
 10
-1092.0
 20
4.27062572967759
 30
0.0
 10
-1095.0
 20
14.1353128648388
 30
0.0
 10
-1098.0
 20
24.0
 30
0.0
  0
SPLINE
  5
153
330
1F
100
AcDbEntity
  8
Make2D$visible$lines
100
AcDbSpline
210
0.0
220
0.0
230
1.0
 70
    24
 71
     2
 72
     6
 73
     3
 74
     0
 42
0.000000001
 43
0.0000000001
 40
0.0
 40
0.0
 40
0.0
 40
20.62154720428271
 40
20.62154720428271
 40
20.62154720428271
 10
-1332.0
 20
52.27062572967759
 30
0.0
 10
-1335.0
 20
62.1353128648388
 30
0.0
 10
-1338.0
 20
72.0
 30
0.0
  0
SPLINE
  5
154
330
1F
100
AcDbEntity
  8
Make2D$visible$lines
100
AcDbSpline
210
0.0
220
0.0
230
1.0
 70
    24
 71
     2
 72
     6
 73
     3
 74
     0
 42
0.000000001
 43
0.0000000001
 40
0.0
 40
0.0
 40
0.0
 40
20.62154720428271
 40
20.62154720428271
 40
20.62154720428271
 10
-1284.0
 20
52.27062572967759
 30
0.0
 10
-1287.0
 20
62.1353128648388
 30
0.0
 10
-1290.0
 20
72.0
 30
0.0
  0
SPLINE
  5
155
330
1F
100
AcDbEntity
  8
Make2D$visible$lines
100
AcDbSpline
210
0.0
220
0.0
230
1.0
 70
    24
 71
     2
 72
     6
 73
     3
 74
     0
 42
0.000000001
 43
0.0000000001
 40
0.0
 40
0.0
 40
0.0
 40
20.62154720428271
 40
20.62154720428271
 40
20.62154720428271
 10
-1236.0
 20
52.27062572967759
 30
0.0
 10
-1239.0
 20
62.1353128648388
 30
0.0
 10
-1242.0
 20
72.0
 30
0.0
  0
SPLINE
  5
156
330
1F
100
AcDbEntity
  8
Make2D$visible$lines
100
AcDbSpline
210
0.0
220
0.0
230
1.0
 70
    24
 71
     2
 72
     6
 73
     3
 74
     0
 42
0.000000001
 43
0.0000000001
 40
0.0
 40
0.0
 40
0.0
 40
20.62154720428271
 40
20.62154720428271
 40
20.62154720428271
 10
-1188.0
 20
52.27062572967759
 30
0.0
 10
-1191.0
 20
62.1353128648388
 30
0.0
 10
-1194.0
 20
72.0
 30
0.0
  0
SPLINE
  5
157
330
1F
100
AcDbEntity
  8
Make2D$visible$lines
100
AcDbSpline
210
0.0
220
0.0
230
1.0
 70
    24
 71
     2
 72
     6
 73
     3
 74
     0
 42
0.000000001
 43
0.0000000001
 40
0.0
 40
0.0
 40
0.0
 40
20.62154720428271
 40
20.62154720428271
 40
20.62154720428271
 10
-1140.0
 20
52.27062572967759
 30
0.0
 10
-1143.0
 20
62.1353128648388
 30
0.0
 10
-1146.0
 20
72.0
 30
0.0
  0
SPLINE
  5
158
330
1F
100
AcDbEntity
  8
Make2D$visible$lines
100
AcDbSpline
210
0.0
220
0.0
230
1.0
 70
    24
 71
     2
 72
     6
 73
     3
 74
     0
 42
0.000000001
 43
0.0000000001
 40
0.0
 40
0.0
 40
0.0
 40
20.62154720428271
 40
20.62154720428271
 40
20.62154720428271
 10
-1092.0
 20
52.27062572967759
 30
0.0
 10
-1095.0
 20
62.1353128648388
 30
0.0
 10
-1098.0
 20
72.0
 30
0.0
  0
SPLINE
  5
159
330
1F
100
AcDbEntity
  8
Make2D$visible$lines
100
AcDbSpline
210
0.0
220
0.0
230
1.0
 70
    24
 71
     2
 72
     6
 73
     3
 74
     0
 42
0.000000001
 43
0.0000000001
 40
0.0
 40
0.0
 40
0.0
 40
20.62154720428271
 40
20.62154720428271
 40
20.62154720428271
 10
-1332.0
 20
100.2706257296776
 30
0.0
 10
-1335.0
 20
110.1353128648388
 30
0.0
 10
-1338.0
 20
120.0
 30
0.0
  0
SPLINE
  5
15A
330
1F
100
AcDbEntity
  8
Make2D$visible$lines
100
AcDbSpline
210
0.0
220
0.0
230
1.0
 70
    24
 71
     2
 72
     6
 73
     3
 74
     0
 42
0.000000001
 43
0.0000000001
 40
0.0
 40
0.0
 40
0.0
 40
20.62154720428271
 40
20.62154720428271
 40
20.62154720428271
 10
-1284.0
 20
100.2706257296776
 30
0.0
 10
-1287.0
 20
110.1353128648388
 30
0.0
 10
-1290.0
 20
120.0
 30
0.0
  0
SPLINE
  5
15B
330
1F
100
AcDbEntity
  8
Make2D$visible$lines
100
AcDbSpline
210
0.0
220
0.0
230
1.0
 70
    24
 71
     2
 72
     6
 73
     3
 74
     0
 42
0.000000001
 43
0.0000000001
 40
0.0
 40
0.0
 40
0.0
 40
20.62154720428271
 40
20.62154720428271
 40
20.62154720428271
 10
-1236.0
 20
100.2706257296776
 30
0.0
 10
-1239.0
 20
110.1353128648388
 30
0.0
 10
-1242.0
 20
120.0
 30
0.0
  0
SPLINE
  5
15C
330
1F
100
AcDbEntity
  8
Make2D$visible$lines
100
AcDbSpline
210
0.0
220
0.0
230
1.0
 70
    24
 71
     2
 72
     6
 73
     3
 74
     0
 42
0.000000001
 43
0.0000000001
 40
0.0
 40
0.0
 40
0.0
 40
20.62154720428271
 40
20.62154720428271
 40
20.62154720428271
 10
-1188.0
 20
100.2706257296776
 30
0.0
 10
-1191.0
 20
110.1353128648388
 30
0.0
 10
-1194.0
 20
120.0
 30
0.0
  0
SPLINE
  5
15D
330
1F
100
AcDbEntity
  8
Make2D$visible$lines
100
AcDbSpline
210
0.0
220
0.0
230
1.0
 70
    24
 71
     2
 72
     6
 73
     3
 74
     0
 42
0.000000001
 43
0.0000000001
 40
0.0
 40
0.0
 40
0.0
 40
20.62154720428271
 40
20.62154720428271
 40
20.62154720428271
 10
-1140.0
 20
100.2706257296776
 30
0.0
 10
-1143.0
 20
110.1353128648388
 30
0.0
 10
-1146.0
 20
120.0
 30
0.0
  0
SPLINE
  5
15E
330
1F
100
AcDbEntity
  8
Make2D$visible$lines
100
AcDbSpline
210
0.0
220
0.0
230
1.0
 70
    24
 71
     2
 72
     6
 73
     3
 74
     0
 42
0.000000001
 43
0.0000000001
 40
0.0
 40
0.0
 40
0.0
 40
20.62154720428271
 40
20.62154720428271
 40
20.62154720428271
 10
-1092.0
 20
100.2706257296776
 30
0.0
 10
-1095.0
 20
110.1353128648388
 30
0.0
 10
-1098.0
 20
120.0
 30
0.0
  0
SPLINE
  5
15F
330
1F
100
AcDbEntity
  8
Make2D$visible$lines
100
AcDbSpline
210
0.0
220
0.0
230
1.0
 70
    24
 71
     2
 72
     6
 73
     3
 74
     0
 42
0.000000001
 43
0.0000000001
 40
0.0
 40
0.0
 40
0.0
 40
20.62154720428271
 40
20.62154720428271
 40
20.62154720428271
 10
-1332.0
 20
148.2706257296776
 30
0.0
 10
-1335.0
 20
158.1353128648388
 30
0.0
 10
-1338.0
 20
168.0
 30
0.0
  0
SPLINE
  5
160
330
1F
100
AcDbEntity
  8
Make2D$visible$lines
100
AcDbSpline
210
0.0
220
0.0
230
1.0
 70
    24
 71
     2
 72
     6
 73
     3
 74
     0
 42
0.000000001
 43
0.0000000001
 40
0.0
 40
0.0
 40
0.0
 40
20.62154720428271
 40
20.62154720428271
 40
20.62154720428271
 10
-1284.0
 20
148.2706257296776
 30
0.0
 10
-1287.0
 20
158.1353128648388
 30
0.0
 10
-1290.0
 20
168.0
 30
0.0
  0
SPLINE
  5
161
330
1F
100
AcDbEntity
  8
Make2D$visible$lines
100
AcDbSpline
210
0.0
220
0.0
230
1.0
 70
    24
 71
     2
 72
     6
 73
     3
 74
     0
 42
0.000000001
 43
0.0000000001
 40
0.0
 40
0.0
 40
0.0
 40
20.62154720428271
 40
20.62154720428271
 40
20.62154720428271
 10
-1236.0
 20
148.2706257296776
 30
0.0
 10
-1239.0
 20
158.1353128648388
 30
0.0
 10
-1242.0
 20
168.0
 30
0.0
  0
SPLINE
  5
162
330
1F
100
AcDbEntity
  8
Make2D$visible$lines
100
AcDbSpline
210
0.0
220
0.0
230
1.0
 70
    24
 71
     2
 72
     6
 73
     3
 74
     0
 42
0.000000001
 43
0.0000000001
 40
0.0
 40
0.0
 40
0.0
 40
20.62154720428271
 40
20.62154720428271
 40
20.62154720428271
 10
-1188.0
 20
148.2706257296776
 30
0.0
 10
-1191.0
 20
158.1353128648388
 30
0.0
 10
-1194.0
 20
168.0
 30
0.0
  0
SPLINE
  5
163
330
1F
100
AcDbEntity
  8
Make2D$visible$lines
100
AcDbSpline
210
0.0
220
0.0
230
1.0
 70
    24
 71
     2
 72
     6
 73
     3
 74
     0
 42
0.000000001
 43
0.0000000001
 40
0.0
 40
0.0
 40
0.0
 40
20.62154720428271
 40
20.62154720428271
 40
20.62154720428271
 10
-1140.0
 20
148.2706257296776
 30
0.0
 10
-1143.0
 20
158.1353128648388
 30
0.0
 10
-1146.0
 20
168.0
 30
0.0
  0
SPLINE
  5
164
330
1F
100
AcDbEntity
  8
Make2D$visible$lines
100
AcDbSpline
210
0.0
220
0.0
230
1.0
 70
    24
 71
     2
 72
     6
 73
     3
 74
     0
 42
0.000000001
 43
0.0000000001
 40
0.0
 40
0.0
 40
0.0
 40
20.62154720428271
 40
20.62154720428271
 40
20.62154720428271
 10
-1092.0
 20
148.2706257296776
 30
0.0
 10
-1095.0
 20
158.1353128648388
 30
0.0
 10
-1098.0
 20
168.0
 30
0.0
  0
SPLINE
  5
165
330
1F
100
AcDbEntity
  8
Make2D$visible$lines
100
AcDbSpline
210
0.0
220
0.0
230
1.0
 70
    24
 71
     2
 72
     6
 73
     3
 74
     0
 42
0.000000001
 43
0.0000000001
 40
0.0
 40
0.0
 40
0.0
 40
6.15625636554612
 40
6.15625636554612
 40
6.15625636554612
 10
-1320.0
 20
1.599927312344107
 30
0.0
 10
-1320.0
 20
4.678055495117167
 30
0.0
 10
-1320.0
 20
7.756183677890228
 30
0.0
  0
SPLINE
  5
166
330
1F
100
AcDbEntity
  8
Make2D$visible$lines
100
AcDbSpline
210
0.0
220
0.0
230
1.0
 70
    24
 71
     2
 72
     6
 73
     3
 74
     0
 42
0.000000001
 43
0.0000000001
 40
0.0
 40
0.0
 40
0.0
 40
6.15625636554612
 40
6.15625636554612
 40
6.15625636554612
 10
-1272.0
 20
1.599927312344107
 30
0.0
 10
-1272.0
 20
4.678055495117167
 30
0.0
 10
-1272.0
 20
7.756183677890228
 30
0.0
  0
SPLINE
  5
167
330
1F
100
AcDbEntity
  8
Make2D$visible$lines
100
AcDbSpline
210
0.0
220
0.0
230
1.0
 70
    24
 71
     2
 72
     6
 73
     3
 74
     0
 42
0.000000001
 43
0.0000000001
 40
0.0
 40
0.0
 40
0.0
 40
6.15625636554612
 40
6.15625636554612
 40
6.15625636554612
 10
-1224.0
 20
1.599927312344107
 30
0.0
 10
-1224.0
 20
4.678055495117167
 30
0.0
 10
-1224.0
 20
7.756183677890228
 30
0.0
  0
SPLINE
  5
168
330
1F
100
AcDbEntity
  8
Make2D$visible$lines
100
AcDbSpline
210
0.0
220
0.0
230
1.0
 70
    24
 71
     2
 72
     6
 73
     3
 74
     0
 42
0.000000001
 43
0.0000000001
 40
0.0
 40
0.0
 40
0.0
 40
6.15625636554612
 40
6.15625636554612
 40
6.15625636554612
 10
-1176.0
 20
1.599927312344107
 30
0.0
 10
-1176.0
 20
4.678055495117167
 30
0.0
 10
-1176.0
 20
7.756183677890228
 30
0.0
  0
SPLINE
  5
169
330
1F
100
AcDbEntity
  8
Make2D$visible$lines
100
AcDbSpline
210
0.0
220
0.0
230
1.0
 70
    24
 71
     2
 72
     6
 73
     3
 74
     0
 42
0.000000001
 43
0.0000000001
 40
0.0
 40
0.0
 40
0.0
 40
6.15625636554612
 40
6.15625636554612
 40
6.15625636554612
 10
-1128.0
 20
1.599927312344107
 30
0.0
 10
-1128.0
 20
4.678055495117167
 30
0.0
 10
-1128.0
 20
7.756183677890228
 30
0.0
  0
SPLINE
  5
16A
330
1F
100
AcDbEntity
  8
Make2D$visible$lines
100
AcDbSpline
210
0.0
220
0.0
230
1.0
 70
    24
 71
     2
 72
     6
 73
     3
 74
     0
 42
0.000000001
 43
0.0000000001
 40
0.0
 40
0.0
 40
0.0
 40
6.15625636554612
 40
6.15625636554612
 40
6.15625636554612
 10
-1080.0
 20
1.599927312344107
 30
0.0
 10
-1080.0
 20
4.678055495117167
 30
0.0
 10
-1080.0
 20
7.756183677890228
 30
0.0
  0
SPLINE
  5
16B
330
1F
100
AcDbEntity
  8
Make2D$visible$lines
100
AcDbSpline
210
0.0
220
0.0
230
1.0
 70
    24
 71
     2
 72
     6
 73
     3
 74
     0
 42
0.000000001
 43
0.0000000001
 40
0.0
 40
0.0
 40
0.0
 40
6.156256365546113
 40
6.156256365546113
 40
6.156256365546113
 10
-1320.0
 20
49.59992731234411
 30
0.0
 10
-1320.0
 20
52.67805549511716
 30
0.0
 10
-1320.0
 20
55.75618367789022
 30
0.0
  0
SPLINE
  5
16C
330
1F
100
AcDbEntity
  8
Make2D$visible$lines
100
AcDbSpline
210
0.0
220
0.0
230
1.0
 70
    24
 71
     2
 72
     6
 73
     3
 74
     0
 42
0.000000001
 43
0.0000000001
 40
0.0
 40
0.0
 40
0.0
 40
6.156256365546113
 40
6.156256365546113
 40
6.156256365546113
 10
-1272.0
 20
49.59992731234411
 30
0.0
 10
-1272.0
 20
52.67805549511716
 30
0.0
 10
-1272.0
 20
55.75618367789022
 30
0.0
  0
SPLINE
  5
16D
330
1F
100
AcDbEntity
  8
Make2D$visible$lines
100
AcDbSpline
210
0.0
220
0.0
230
1.0
 70
    24
 71
     2
 72
     6
 73
     3
 74
     0
 42
0.000000001
 43
0.0000000001
 40
0.0
 40
0.0
 40
0.0
 40
6.156256365546113
 40
6.156256365546113
 40
6.156256365546113
 10
-1224.0
 20
49.59992731234411
 30
0.0
 10
-1224.0
 20
52.67805549511716
 30
0.0
 10
-1224.0
 20
55.75618367789022
 30
0.0
  0
SPLINE
  5
16E
330
1F
100
AcDbEntity
  8
Make2D$visible$lines
100
AcDbSpline
210
0.0
220
0.0
230
1.0
 70
    24
 71
     2
 72
     6
 73
     3
 74
     0
 42
0.000000001
 43
0.0000000001
 40
0.0
 40
0.0
 40
0.0
 40
6.156256365546113
 40
6.156256365546113
 40
6.156256365546113
 10
-1176.0
 20
49.59992731234411
 30
0.0
 10
-1176.0
 20
52.67805549511716
 30
0.0
 10
-1176.0
 20
55.75618367789022
 30
0.0
  0
SPLINE
  5
16F
330
1F
100
AcDbEntity
  8
Make2D$visible$lines
100
AcDbSpline
210
0.0
220
0.0
230
1.0
 70
    24
 71
     2
 72
     6
 73
     3
 74
     0
 42
0.000000001
 43
0.0000000001
 40
0.0
 40
0.0
 40
0.0
 40
6.156256365546113
 40
6.156256365546113
 40
6.156256365546113
 10
-1128.0
 20
49.59992731234411
 30
0.0
 10
-1128.0
 20
52.67805549511716
 30
0.0
 10
-1128.0
 20
55.75618367789022
 30
0.0
  0
SPLINE
  5
170
330
1F
100
AcDbEntity
  8
Make2D$visible$lines
100
AcDbSpline
210
0.0
220
0.0
230
1.0
 70
    24
 71
     2
 72
     6
 73
     3
 74
     0
 42
0.000000001
 43
0.0000000001
 40
0.0
 40
0.0
 40
0.0
 40
6.156256365546113
 40
6.156256365546113
 40
6.156256365546113
 10
-1080.0
 20
49.59992731234411
 30
0.0
 10
-1080.0
 20
52.67805549511716
 30
0.0
 10
-1080.0
 20
55.75618367789022
 30
0.0
  0
SPLINE
  5
171
330
1F
100
AcDbEntity
  8
Make2D$visible$lines
100
AcDbSpline
210
0.0
220
0.0
230
1.0
 70
    24
 71
     2
 72
     6
 73
     3
 74
     0
 42
0.000000001
 43
0.0000000001
 40
0.0
 40
0.0
 40
0.0
 40
6.156256365546113
 40
6.156256365546113
 40
6.156256365546113
 10
-1320.0
 20
97.59992731234411
 30
0.0
 10
-1320.0
 20
100.6780554951172
 30
0.0
 10
-1320.0
 20
103.7561836778902
 30
0.0
  0
SPLINE
  5
172
330
1F
100
AcDbEntity
  8
Make2D$visible$lines
100
AcDbSpline
210
0.0
220
0.0
230
1.0
 70
    24
 71
     2
 72
     6
 73
     3
 74
     0
 42
0.000000001
 43
0.0000000001
 40
0.0
 40
0.0
 40
0.0
 40
6.156256365546113
 40
6.156256365546113
 40
6.156256365546113
 10
-1272.0
 20
97.59992731234411
 30
0.0
 10
-1272.0
 20
100.6780554951172
 30
0.0
 10
-1272.0
 20
103.7561836778902
 30
0.0
  0
SPLINE
  5
173
330
1F
100
AcDbEntity
  8
Make2D$visible$lines
100
AcDbSpline
210
0.0
220
0.0
230
1.0
 70
    24
 71
     2
 72
     6
 73
     3
 74
     0
 42
0.000000001
 43
0.0000000001
 40
0.0
 40
0.0
 40
0.0
 40
6.156256365546113
 40
6.156256365546113
 40
6.156256365546113
 10
-1224.0
 20
97.59992731234411
 30
0.0
 10
-1224.0
 20
100.6780554951172
 30
0.0
 10
-1224.0
 20
103.7561836778902
 30
0.0
  0
SPLINE
  5
174
330
1F
100
AcDbEntity
  8
Make2D$visible$lines
100
AcDbSpline
210
0.0
220
0.0
230
1.0
 70
    24
 71
     2
 72
     6
 73
     3
 74
     0
 42
0.000000001
 43
0.0000000001
 40
0.0
 40
0.0
 40
0.0
 40
6.156256365546113
 40
6.156256365546113
 40
6.156256365546113
 10
-1176.0
 20
97.59992731234411
 30
0.0
 10
-1176.0
 20
100.6780554951172
 30
0.0
 10
-1176.0
 20
103.7561836778902
 30
0.0
  0
SPLINE
  5
175
330
1F
100
AcDbEntity
  8
Make2D$visible$lines
100
AcDbSpline
210
0.0
220
0.0
230
1.0
 70
    24
 71
     2
 72
     6
 73
     3
 74
     0
 42
0.000000001
 43
0.0000000001
 40
0.0
 40
0.0
 40
0.0
 40
6.156256365546113
 40
6.156256365546113
 40
6.156256365546113
 10
-1128.0
 20
97.59992731234411
 30
0.0
 10
-1128.0
 20
100.6780554951172
 30
0.0
 10
-1128.0
 20
103.7561836778902
 30
0.0
  0
SPLINE
  5
176
330
1F
100
AcDbEntity
  8
Make2D$visible$lines
100
AcDbSpline
210
0.0
220
0.0
230
1.0
 70
    24
 71
     2
 72
     6
 73
     3
 74
     0
 42
0.000000001
 43
0.0000000001
 40
0.0
 40
0.0
 40
0.0
 40
6.156256365546113
 40
6.156256365546113
 40
6.156256365546113
 10
-1080.0
 20
97.59992731234411
 30
0.0
 10
-1080.0
 20
100.6780554951172
 30
0.0
 10
-1080.0
 20
103.7561836778902
 30
0.0
  0
SPLINE
  5
177
330
1F
100
AcDbEntity
  8
Make2D$visible$lines
100
AcDbSpline
210
0.0
220
0.0
230
1.0
 70
    24
 71
     2
 72
     6
 73
     3
 74
     0
 42
0.000000001
 43
0.0000000001
 40
0.0
 40
0.0
 40
0.0
 40
6.156256365546113
 40
6.156256365546113
 40
6.156256365546113
 10
-1320.0
 20
145.5999273123441
 30
0.0
 10
-1320.0
 20
148.6780554951172
 30
0.0
 10
-1320.0
 20
151.7561836778902
 30
0.0
  0
SPLINE
  5
178
330
1F
100
AcDbEntity
  8
Make2D$visible$lines
100
AcDbSpline
210
0.0
220
0.0
230
1.0
 70
    24
 71
     2
 72
     6
 73
     3
 74
     0
 42
0.000000001
 43
0.0000000001
 40
0.0
 40
0.0
 40
0.0
 40
6.156256365546113
 40
6.156256365546113
 40
6.156256365546113
 10
-1272.0
 20
145.5999273123441
 30
0.0
 10
-1272.0
 20
148.6780554951172
 30
0.0
 10
-1272.0
 20
151.7561836778902
 30
0.0
  0
SPLINE
  5
179
330
1F
100
AcDbEntity
  8
Make2D$visible$lines
100
AcDbSpline
210
0.0
220
0.0
230
1.0
 70
    24
 71
     2
 72
     6
 73
     3
 74
     0
 42
0.000000001
 43
0.0000000001
 40
0.0
 40
0.0
 40
0.0
 40
6.156256365546113
 40
6.156256365546113
 40
6.156256365546113
 10
-1224.0
 20
145.5999273123441
 30
0.0
 10
-1224.0
 20
148.6780554951172
 30
0.0
 10
-1224.0
 20
151.7561836778902
 30
0.0
  0
SPLINE
  5
17A
330
1F
100
AcDbEntity
  8
Make2D$visible$lines
100
AcDbSpline
210
0.0
220
0.0
230
1.0
 70
    24
 71
     2
 72
     6
 73
     3
 74
     0
 42
0.000000001
 43
0.0000000001
 40
0.0
 40
0.0
 40
0.0
 40
6.156256365546113
 40
6.156256365546113
 40
6.156256365546113
 10
-1176.0
 20
145.5999273123441
 30
0.0
 10
-1176.0
 20
148.6780554951172
 30
0.0
 10
-1176.0
 20
151.7561836778902
 30
0.0
  0
SPLINE
  5
17B
330
1F
100
AcDbEntity
  8
Make2D$visible$lines
100
AcDbSpline
210
0.0
220
0.0
230
1.0
 70
    24
 71
     2
 72
     6
 73
     3
 74
     0
 42
0.000000001
 43
0.0000000001
 40
0.0
 40
0.0
 40
0.0
 40
6.156256365546113
 40
6.156256365546113
 40
6.156256365546113
 10
-1128.0
 20
145.5999273123441
 30
0.0
 10
-1128.0
 20
148.6780554951172
 30
0.0
 10
-1128.0
 20
151.7561836778902
 30
0.0
  0
SPLINE
  5
17C
330
1F
100
AcDbEntity
  8
Make2D$visible$lines
100
AcDbSpline
210
0.0
220
0.0
230
1.0
 70
    24
 71
     2
 72
     6
 73
     3
 74
     0
 42
0.000000001
 43
0.0000000001
 40
0.0
 40
0.0
 40
0.0
 40
6.156256365546113
 40
6.156256365546113
 40
6.156256365546113
 10
-1080.0
 20
145.5999273123441
 30
0.0
 10
-1080.0
 20
148.6780554951172
 30
0.0
 10
-1080.0
 20
151.7561836778902
 30
0.0
  0
SPLINE
  5
17D
330
1F
100
AcDbEntity
  8
Make2D$visible$lines
100
AcDbSpline
210
0.0
220
0.0
230
1.0
 70
    24
 71
     2
 72
     6
 73
     3
 74
     0
 42
0.000000001
 43
0.0000000001
 40
0.0
 40
0.0
 40
0.0
 40
19.50027823836468
 40
19.50027823836468
 40
19.50027823836468
 10
-1320.0
 20
1.599927312344107
 30
0.0
 10
-1310.282733357975
 20
0.7999636561720536
 30
0.0
 10
-1300.56546671595
 20
0.0
 30
0.0
  0
SPLINE
  5
17E
330
1F
100
AcDbEntity
  8
Make2D$visible$lines
100
AcDbSpline
210
0.0
220
0.0
230
1.0
 70
    24
 71
     2
 72
     6
 73
     3
 74
     0
 42
0.000000001
 43
0.0000000001
 40
0.0
 40
0.0
 40
0.0
 40
19.50027823836468
 40
19.50027823836468
 40
19.50027823836468
 10
-1272.0
 20
1.599927312344107
 30
0.0
 10
-1262.282733357975
 20
0.7999636561720536
 30
0.0
 10
-1252.56546671595
 20
0.0
 30
0.0
  0
SPLINE
  5
17F
330
1F
100
AcDbEntity
  8
Make2D$visible$lines
100
AcDbSpline
210
0.0
220
0.0
230
1.0
 70
    24
 71
     2
 72
     6
 73
     3
 74
     0
 42
0.000000001
 43
0.0000000001
 40
0.0
 40
0.0
 40
0.0
 40
19.50027823836468
 40
19.50027823836468
 40
19.50027823836468
 10
-1224.0
 20
1.599927312344107
 30
0.0
 10
-1214.282733357975
 20
0.7999636561720536
 30
0.0
 10
-1204.56546671595
 20
0.0
 30
0.0
  0
SPLINE
  5
180
330
1F
100
AcDbEntity
  8
Make2D$visible$lines
100
AcDbSpline
210
0.0
220
0.0
230
1.0
 70
    24
 71
     2
 72
     6
 73
     3
 74
     0
 42
0.000000001
 43
0.0000000001
 40
0.0
 40
0.0
 40
0.0
 40
19.50027823836468
 40
19.50027823836468
 40
19.50027823836468
 10
-1176.0
 20
1.599927312344107
 30
0.0
 10
-1166.282733357975
 20
0.7999636561720536
 30
0.0
 10
-1156.56546671595
 20
0.0
 30
0.0
  0
SPLINE
  5
181
330
1F
100
AcDbEntity
  8
Make2D$visible$lines
100
AcDbSpline
210
0.0
220
0.0
230
1.0
 70
    24
 71
     2
 72
     6
 73
     3
 74
     0
 42
0.000000001
 43
0.0000000001
 40
0.0
 40
0.0
 40
0.0
 40
19.50027823836468
 40
19.50027823836468
 40
19.50027823836468
 10
-1128.0
 20
1.599927312344107
 30
0.0
 10
-1118.282733357975
 20
0.7999636561720536
 30
0.0
 10
-1108.56546671595
 20
0.0
 30
0.0
  0
SPLINE
  5
182
330
1F
100
AcDbEntity
  8
Make2D$visible$lines
100
AcDbSpline
210
0.0
220
0.0
230
1.0
 70
    24
 71
     2
 72
     6
 73
     3
 74
     0
 42
0.000000001
 43
0.0000000001
 40
0.0
 40
0.0
 40
0.0
 40
19.50027823836468
 40
19.50027823836468
 40
19.50027823836468
 10
-1080.0
 20
1.599927312344107
 30
0.0
 10
-1070.282733357975
 20
0.7999636561720536
 30
0.0
 10
-1060.56546671595
 20
0.0
 30
0.0
  0
SPLINE
  5
183
330
1F
100
AcDbEntity
  8
Make2D$visible$lines
100
AcDbSpline
210
0.0
220
0.0
230
1.0
 70
    24
 71
     2
 72
     6
 73
     3
 74
     0
 42
0.000000001
 43
0.0000000001
 40
0.0
 40
0.0
 40
0.0
 40
19.50027823836468
 40
19.50027823836468
 40
19.50027823836468
 10
-1320.0
 20
49.59992731234411
 30
0.0
 10
-1310.282733357975
 20
48.79996365617205
 30
0.0
 10
-1300.56546671595
 20
48.0
 30
0.0
  0
SPLINE
  5
184
330
1F
100
AcDbEntity
  8
Make2D$visible$lines
100
AcDbSpline
210
0.0
220
0.0
230
1.0
 70
    24
 71
     2
 72
     6
 73
     3
 74
     0
 42
0.000000001
 43
0.0000000001
 40
0.0
 40
0.0
 40
0.0
 40
19.50027823836468
 40
19.50027823836468
 40
19.50027823836468
 10
-1272.0
 20
49.59992731234411
 30
0.0
 10
-1262.282733357975
 20
48.79996365617205
 30
0.0
 10
-1252.56546671595
 20
48.0
 30
0.0
  0
SPLINE
  5
185
330
1F
100
AcDbEntity
  8
Make2D$visible$lines
100
AcDbSpline
210
0.0
220
0.0
230
1.0
 70
    24
 71
     2
 72
     6
 73
     3
 74
     0
 42
0.000000001
 43
0.0000000001
 40
0.0
 40
0.0
 40
0.0
 40
19.50027823836468
 40
19.50027823836468
 40
19.50027823836468
 10
-1224.0
 20
49.59992731234411
 30
0.0
 10
-1214.282733357975
 20
48.79996365617205
 30
0.0
 10
-1204.56546671595
 20
48.0
 30
0.0
  0
SPLINE
  5
186
330
1F
100
AcDbEntity
  8
Make2D$visible$lines
100
AcDbSpline
210
0.0
220
0.0
230
1.0
 70
    24
 71
     2
 72
     6
 73
     3
 74
     0
 42
0.000000001
 43
0.0000000001
 40
0.0
 40
0.0
 40
0.0
 40
19.50027823836468
 40
19.50027823836468
 40
19.50027823836468
 10
-1176.0
 20
49.59992731234411
 30
0.0
 10
-1166.282733357975
 20
48.79996365617205
 30
0.0
 10
-1156.56546671595
 20
48.0
 30
0.0
  0
SPLINE
  5
187
330
1F
100
AcDbEntity
  8
Make2D$visible$lines
100
AcDbSpline
210
0.0
220
0.0
230
1.0
 70
    24
 71
     2
 72
     6
 73
     3
 74
     0
 42
0.000000001
 43
0.0000000001
 40
0.0
 40
0.0
 40
0.0
 40
19.50027823836468
 40
19.50027823836468
 40
19.50027823836468
 10
-1128.0
 20
49.59992731234411
 30
0.0
 10
-1118.282733357975
 20
48.79996365617205
 30
0.0
 10
-1108.56546671595
 20
48.0
 30
0.0
  0
SPLINE
  5
188
330
1F
100
AcDbEntity
  8
Make2D$visible$lines
100
AcDbSpline
210
0.0
220
0.0
230
1.0
 70
    24
 71
     2
 72
     6
 73
     3
 74
     0
 42
0.000000001
 43
0.0000000001
 40
0.0
 40
0.0
 40
0.0
 40
19.50027823836468
 40
19.50027823836468
 40
19.50027823836468
 10
-1080.0
 20
49.59992731234411
 30
0.0
 10
-1070.282733357975
 20
48.79996365617205
 30
0.0
 10
-1060.56546671595
 20
48.0
 30
0.0
  0
SPLINE
  5
189
330
1F
100
AcDbEntity
  8
Make2D$visible$lines
100
AcDbSpline
210
0.0
220
0.0
230
1.0
 70
    24
 71
     2
 72
     6
 73
     3
 74
     0
 42
0.000000001
 43
0.0000000001
 40
0.0
 40
0.0
 40
0.0
 40
19.50027823836468
 40
19.50027823836468
 40
19.50027823836468
 10
-1320.0
 20
97.59992731234411
 30
0.0
 10
-1310.282733357975
 20
96.79996365617205
 30
0.0
 10
-1300.56546671595
 20
96.0
 30
0.0
  0
SPLINE
  5
18A
330
1F
100
AcDbEntity
  8
Make2D$visible$lines
100
AcDbSpline
210
0.0
220
0.0
230
1.0
 70
    24
 71
     2
 72
     6
 73
     3
 74
     0
 42
0.000000001
 43
0.0000000001
 40
0.0
 40
0.0
 40
0.0
 40
19.50027823836468
 40
19.50027823836468
 40
19.50027823836468
 10
-1272.0
 20
97.59992731234411
 30
0.0
 10
-1262.282733357975
 20
96.79996365617205
 30
0.0
 10
-1252.56546671595
 20
96.0
 30
0.0
  0
SPLINE
  5
18B
330
1F
100
AcDbEntity
  8
Make2D$visible$lines
100
AcDbSpline
210
0.0
220
0.0
230
1.0
 70
    24
 71
     2
 72
     6
 73
     3
 74
     0
 42
0.000000001
 43
0.0000000001
 40
0.0
 40
0.0
 40
0.0
 40
19.50027823836468
 40
19.50027823836468
 40
19.50027823836468
 10
-1224.0
 20
97.59992731234411
 30
0.0
 10
-1214.282733357975
 20
96.79996365617205
 30
0.0
 10
-1204.56546671595
 20
96.0
 30
0.0
  0
SPLINE
  5
18C
330
1F
100
AcDbEntity
  8
Make2D$visible$lines
100
AcDbSpline
210
0.0
220
0.0
230
1.0
 70
    24
 71
     2
 72
     6
 73
     3
 74
     0
 42
0.000000001
 43
0.0000000001
 40
0.0
 40
0.0
 40
0.0
 40
19.50027823836468
 40
19.50027823836468
 40
19.50027823836468
 10
-1176.0
 20
97.59992731234411
 30
0.0
 10
-1166.282733357975
 20
96.79996365617205
 30
0.0
 10
-1156.56546671595
 20
96.0
 30
0.0
  0
SPLINE
  5
18D
330
1F
100
AcDbEntity
  8
Make2D$visible$lines
100
AcDbSpline
210
0.0
220
0.0
230
1.0
 70
    24
 71
     2
 72
     6
 73
     3
 74
     0
 42
0.000000001
 43
0.0000000001
 40
0.0
 40
0.0
 40
0.0
 40
19.50027823836468
 40
19.50027823836468
 40
19.50027823836468
 10
-1128.0
 20
97.59992731234411
 30
0.0
 10
-1118.282733357975
 20
96.79996365617205
 30
0.0
 10
-1108.56546671595
 20
96.0
 30
0.0
  0
SPLINE
  5
18E
330
1F
100
AcDbEntity
  8
Make2D$visible$lines
100
AcDbSpline
210
0.0
220
0.0
230
1.0
 70
    24
 71
     2
 72
     6
 73
     3
 74
     0
 42
0.000000001
 43
0.0000000001
 40
0.0
 40
0.0
 40
0.0
 40
19.50027823836468
 40
19.50027823836468
 40
19.50027823836468
 10
-1080.0
 20
97.59992731234411
 30
0.0
 10
-1070.282733357975
 20
96.79996365617205
 30
0.0
 10
-1060.56546671595
 20
96.0
 30
0.0
  0
SPLINE
  5
18F
330
1F
100
AcDbEntity
  8
Make2D$visible$lines
100
AcDbSpline
210
0.0
220
0.0
230
1.0
 70
    24
 71
     2
 72
     6
 73
     3
 74
     0
 42
0.000000001
 43
0.0000000001
 40
0.0
 40
0.0
 40
0.0
 40
19.50027823836468
 40
19.50027823836468
 40
19.50027823836468
 10
-1320.0
 20
145.5999273123441
 30
0.0
 10
-1310.282733357975
 20
144.7999636561721
 30
0.0
 10
-1300.56546671595
 20
144.0
 30
0.0
  0
SPLINE
  5
190
330
1F
100
AcDbEntity
  8
Make2D$visible$lines
100
AcDbSpline
210
0.0
220
0.0
230
1.0
 70
    24
 71
     2
 72
     6
 73
     3
 74
     0
 42
0.000000001
 43
0.0000000001
 40
0.0
 40
0.0
 40
0.0
 40
19.50027823836468
 40
19.50027823836468
 40
19.50027823836468
 10
-1272.0
 20
145.5999273123441
 30
0.0
 10
-1262.282733357975
 20
144.7999636561721
 30
0.0
 10
-1252.56546671595
 20
144.0
 30
0.0
  0
SPLINE
  5
191
330
1F
100
AcDbEntity
  8
Make2D$visible$lines
100
AcDbSpline
210
0.0
220
0.0
230
1.0
 70
    24
 71
     2
 72
     6
 73
     3
 74
     0
 42
0.000000001
 43
0.0000000001
 40
0.0
 40
0.0
 40
0.0
 40
19.50027823836468
 40
19.50027823836468
 40
19.50027823836468
 10
-1224.0
 20
145.5999273123441
 30
0.0
 10
-1214.282733357975
 20
144.7999636561721
 30
0.0
 10
-1204.56546671595
 20
144.0
 30
0.0
  0
SPLINE
  5
192
330
1F
100
AcDbEntity
  8
Make2D$visible$lines
100
AcDbSpline
210
0.0
220
0.0
230
1.0
 70
    24
 71
     2
 72
     6
 73
     3
 74
     0
 42
0.000000001
 43
0.0000000001
 40
0.0
 40
0.0
 40
0.0
 40
19.50027823836468
 40
19.50027823836468
 40
19.50027823836468
 10
-1176.0
 20
145.5999273123441
 30
0.0
 10
-1166.282733357975
 20
144.7999636561721
 30
0.0
 10
-1156.56546671595
 20
144.0
 30
0.0
  0
SPLINE
  5
193
330
1F
100
AcDbEntity
  8
Make2D$visible$lines
100
AcDbSpline
210
0.0
220
0.0
230
1.0
 70
    24
 71
     2
 72
     6
 73
     3
 74
     0
 42
0.000000001
 43
0.0000000001
 40
0.0
 40
0.0
 40
0.0
 40
19.50027823836468
 40
19.50027823836468
 40
19.50027823836468
 10
-1128.0
 20
145.5999273123441
 30
0.0
 10
-1118.282733357975
 20
144.7999636561721
 30
0.0
 10
-1108.56546671595
 20
144.0
 30
0.0
  0
SPLINE
  5
194
330
1F
100
AcDbEntity
  8
Make2D$visible$lines
100
AcDbSpline
210
0.0
220
0.0
230
1.0
 70
    24
 71
     2
 72
     6
 73
     3
 74
     0
 42
0.000000001
 43
0.0000000001
 40
0.0
 40
0.0
 40
0.0
 40
19.50027823836468
 40
19.50027823836468
 40
19.50027823836468
 10
-1080.0
 20
145.5999273123441
 30
0.0
 10
-1070.282733357975
 20
144.7999636561721
 30
0.0
 10
-1060.56546671595
 20
144.0
 30
0.0
  0
SPLINE
  5
195
330
1F
100
AcDbEntity
  8
Make2D$visible$lines
100
AcDbSpline
210
0.0
220
0.0
230
1.0
 70
    24
 71
     2
 72
     6
 73
     3
 74
     0
 42
0.000000001
 43
0.0000000001
 40
0.0
 40
0.0
 40
0.0
 40
17.50222206317572
 40
17.50222206317572
 40
17.50222206317572
 10
-1320.0
 20
7.756183677890228
 30
0.0
 10
-1326.0
 20
14.12657960649457
 30
0.0
 10
-1332.0
 20
20.49697553509891
 30
0.0
  0
SPLINE
  5
196
330
1F
100
AcDbEntity
  8
Make2D$visible$lines
100
AcDbSpline
210
0.0
220
0.0
230
1.0
 70
    24
 71
     2
 72
     6
 73
     3
 74
     0
 42
0.000000001
 43
0.0000000001
 40
0.0
 40
0.0
 40
0.0
 40
17.50222206317572
 40
17.50222206317572
 40
17.50222206317572
 10
-1272.0
 20
7.756183677890228
 30
0.0
 10
-1278.0
 20
14.12657960649457
 30
0.0
 10
-1284.0
 20
20.49697553509891
 30
0.0
  0
SPLINE
  5
197
330
1F
100
AcDbEntity
  8
Make2D$visible$lines
100
AcDbSpline
210
0.0
220
0.0
230
1.0
 70
    24
 71
     2
 72
     6
 73
     3
 74
     0
 42
0.000000001
 43
0.0000000001
 40
0.0
 40
0.0
 40
0.0
 40
17.50222206317572
 40
17.50222206317572
 40
17.50222206317572
 10
-1224.0
 20
7.756183677890228
 30
0.0
 10
-1230.0
 20
14.12657960649457
 30
0.0
 10
-1236.0
 20
20.49697553509891
 30
0.0
  0
SPLINE
  5
198
330
1F
100
AcDbEntity
  8
Make2D$visible$lines
100
AcDbSpline
210
0.0
220
0.0
230
1.0
 70
    24
 71
     2
 72
     6
 73
     3
 74
     0
 42
0.000000001
 43
0.0000000001
 40
0.0
 40
0.0
 40
0.0
 40
17.50222206317572
 40
17.50222206317572
 40
17.50222206317572
 10
-1176.0
 20
7.756183677890228
 30
0.0
 10
-1182.0
 20
14.12657960649457
 30
0.0
 10
-1188.0
 20
20.49697553509891
 30
0.0
  0
SPLINE
  5
199
330
1F
100
AcDbEntity
  8
Make2D$visible$lines
100
AcDbSpline
210
0.0
220
0.0
230
1.0
 70
    24
 71
     2
 72
     6
 73
     3
 74
     0
 42
0.000000001
 43
0.0000000001
 40
0.0
 40
0.0
 40
0.0
 40
17.50222206317572
 40
17.50222206317572
 40
17.50222206317572
 10
-1128.0
 20
7.756183677890228
 30
0.0
 10
-1134.0
 20
14.12657960649457
 30
0.0
 10
-1140.0
 20
20.49697553509891
 30
0.0
  0
SPLINE
  5
19A
330
1F
100
AcDbEntity
  8
Make2D$visible$lines
100
AcDbSpline
210
0.0
220
0.0
230
1.0
 70
    24
 71
     2
 72
     6
 73
     3
 74
     0
 42
0.000000001
 43
0.0000000001
 40
0.0
 40
0.0
 40
0.0
 40
17.50222206317572
 40
17.50222206317572
 40
17.50222206317572
 10
-1080.0
 20
7.756183677890228
 30
0.0
 10
-1086.0
 20
14.12657960649457
 30
0.0
 10
-1092.0
 20
20.49697553509891
 30
0.0
  0
SPLINE
  5
19B
330
1F
100
AcDbEntity
  8
Make2D$visible$lines
100
AcDbSpline
210
0.0
220
0.0
230
1.0
 70
    24
 71
     2
 72
     6
 73
     3
 74
     0
 42
0.000000001
 43
0.0000000001
 40
0.0
 40
0.0
 40
0.0
 40
17.50222206317573
 40
17.50222206317573
 40
17.50222206317573
 10
-1320.0
 20
55.75618367789022
 30
0.0
 10
-1326.0
 20
62.12657960649457
 30
0.0
 10
-1332.0
 20
68.49697553509891
 30
0.0
  0
SPLINE
  5
19C
330
1F
100
AcDbEntity
  8
Make2D$visible$lines
100
AcDbSpline
210
0.0
220
0.0
230
1.0
 70
    24
 71
     2
 72
     6
 73
     3
 74
     0
 42
0.000000001
 43
0.0000000001
 40
0.0
 40
0.0
 40
0.0
 40
17.50222206317573
 40
17.50222206317573
 40
17.50222206317573
 10
-1272.0
 20
55.75618367789022
 30
0.0
 10
-1278.0
 20
62.12657960649457
 30
0.0
 10
-1284.0
 20
68.49697553509891
 30
0.0
  0
SPLINE
  5
19D
330
1F
100
AcDbEntity
  8
Make2D$visible$lines
100
AcDbSpline
210
0.0
220
0.0
230
1.0
 70
    24
 71
     2
 72
     6
 73
     3
 74
     0
 42
0.000000001
 43
0.0000000001
 40
0.0
 40
0.0
 40
0.0
 40
17.50222206317573
 40
17.50222206317573
 40
17.50222206317573
 10
-1224.0
 20
55.75618367789022
 30
0.0
 10
-1230.0
 20
62.12657960649457
 30
0.0
 10
-1236.0
 20
68.49697553509891
 30
0.0
  0
SPLINE
  5
19E
330
1F
100
AcDbEntity
  8
Make2D$visible$lines
100
AcDbSpline
210
0.0
220
0.0
230
1.0
 70
    24
 71
     2
 72
     6
 73
     3
 74
     0
 42
0.000000001
 43
0.0000000001
 40
0.0
 40
0.0
 40
0.0
 40
17.50222206317573
 40
17.50222206317573
 40
17.50222206317573
 10
-1176.0
 20
55.75618367789022
 30
0.0
 10
-1182.0
 20
62.12657960649457
 30
0.0
 10
-1188.0
 20
68.49697553509891
 30
0.0
  0
SPLINE
  5
19F
330
1F
100
AcDbEntity
  8
Make2D$visible$lines
100
AcDbSpline
210
0.0
220
0.0
230
1.0
 70
    24
 71
     2
 72
     6
 73
     3
 74
     0
 42
0.000000001
 43
0.0000000001
 40
0.0
 40
0.0
 40
0.0
 40
17.50222206317573
 40
17.50222206317573
 40
17.50222206317573
 10
-1128.0
 20
55.75618367789022
 30
0.0
 10
-1134.0
 20
62.12657960649457
 30
0.0
 10
-1140.0
 20
68.49697553509891
 30
0.0
  0
SPLINE
  5
1A0
330
1F
100
AcDbEntity
  8
Make2D$visible$lines
100
AcDbSpline
210
0.0
220
0.0
230
1.0
 70
    24
 71
     2
 72
     6
 73
     3
 74
     0
 42
0.000000001
 43
0.0000000001
 40
0.0
 40
0.0
 40
0.0
 40
17.50222206317573
 40
17.50222206317573
 40
17.50222206317573
 10
-1080.0
 20
55.75618367789022
 30
0.0
 10
-1086.0
 20
62.12657960649457
 30
0.0
 10
-1092.0
 20
68.49697553509891
 30
0.0
  0
SPLINE
  5
1A1
330
1F
100
AcDbEntity
  8
Make2D$visible$lines
100
AcDbSpline
210
0.0
220
0.0
230
1.0
 70
    24
 71
     2
 72
     6
 73
     3
 74
     0
 42
0.000000001
 43
0.0000000001
 40
0.0
 40
0.0
 40
0.0
 40
17.50222206317574
 40
17.50222206317574
 40
17.50222206317574
 10
-1320.0
 20
103.7561836778902
 30
0.0
 10
-1326.0
 20
110.1265796064946
 30
0.0
 10
-1332.0
 20
116.4969755350989
 30
0.0
  0
SPLINE
  5
1A2
330
1F
100
AcDbEntity
  8
Make2D$visible$lines
100
AcDbSpline
210
0.0
220
0.0
230
1.0
 70
    24
 71
     2
 72
     6
 73
     3
 74
     0
 42
0.000000001
 43
0.0000000001
 40
0.0
 40
0.0
 40
0.0
 40
17.50222206317574
 40
17.50222206317574
 40
17.50222206317574
 10
-1272.0
 20
103.7561836778902
 30
0.0
 10
-1278.0
 20
110.1265796064946
 30
0.0
 10
-1284.0
 20
116.4969755350989
 30
0.0
  0
SPLINE
  5
1A3
330
1F
100
AcDbEntity
  8
Make2D$visible$lines
100
AcDbSpline
210
0.0
220
0.0
230
1.0
 70
    24
 71
     2
 72
     6
 73
     3
 74
     0
 42
0.000000001
 43
0.0000000001
 40
0.0
 40
0.0
 40
0.0
 40
17.50222206317574
 40
17.50222206317574
 40
17.50222206317574
 10
-1224.0
 20
103.7561836778902
 30
0.0
 10
-1230.0
 20
110.1265796064946
 30
0.0
 10
-1236.0
 20
116.4969755350989
 30
0.0
  0
SPLINE
  5
1A4
330
1F
100
AcDbEntity
  8
Make2D$visible$lines
100
AcDbSpline
210
0.0
220
0.0
230
1.0
 70
    24
 71
     2
 72
     6
 73
     3
 74
     0
 42
0.000000001
 43
0.0000000001
 40
0.0
 40
0.0
 40
0.0
 40
17.50222206317574
 40
17.50222206317574
 40
17.50222206317574
 10
-1176.0
 20
103.7561836778902
 30
0.0
 10
-1182.0
 20
110.1265796064946
 30
0.0
 10
-1188.0
 20
116.4969755350989
 30
0.0
  0
SPLINE
  5
1A5
330
1F
100
AcDbEntity
  8
Make2D$visible$lines
100
AcDbSpline
210
0.0
220
0.0
230
1.0
 70
    24
 71
     2
 72
     6
 73
     3
 74
     0
 42
0.000000001
 43
0.0000000001
 40
0.0
 40
0.0
 40
0.0
 40
17.50222206317574
 40
17.50222206317574
 40
17.50222206317574
 10
-1128.0
 20
103.7561836778902
 30
0.0
 10
-1134.0
 20
110.1265796064946
 30
0.0
 10
-1140.0
 20
116.4969755350989
 30
0.0
  0
SPLINE
  5
1A6
330
1F
100
AcDbEntity
  8
Make2D$visible$lines
100
AcDbSpline
210
0.0
220
0.0
230
1.0
 70
    24
 71
     2
 72
     6
 73
     3
 74
     0
 42
0.000000001
 43
0.0000000001
 40
0.0
 40
0.0
 40
0.0
 40
17.50222206317574
 40
17.50222206317574
 40
17.50222206317574
 10
-1080.0
 20
103.7561836778902
 30
0.0
 10
-1086.0
 20
110.1265796064946
 30
0.0
 10
-1092.0
 20
116.4969755350989
 30
0.0
  0
SPLINE
  5
1A7
330
1F
100
AcDbEntity
  8
Make2D$visible$lines
100
AcDbSpline
210
0.0
220
0.0
230
1.0
 70
    24
 71
     2
 72
     6
 73
     3
 74
     0
 42
0.000000001
 43
0.0000000001
 40
0.0
 40
0.0
 40
0.0
 40
17.50222206317572
 40
17.50222206317572
 40
17.50222206317572
 10
-1320.0
 20
151.7561836778902
 30
0.0
 10
-1326.0
 20
158.1265796064945
 30
0.0
 10
-1332.0
 20
164.4969755350989
 30
0.0
  0
SPLINE
  5
1A8
330
1F
100
AcDbEntity
  8
Make2D$visible$lines
100
AcDbSpline
210
0.0
220
0.0
230
1.0
 70
    24
 71
     2
 72
     6
 73
     3
 74
     0
 42
0.000000001
 43
0.0000000001
 40
0.0
 40
0.0
 40
0.0
 40
17.50222206317572
 40
17.50222206317572
 40
17.50222206317572
 10
-1272.0
 20
151.7561836778902
 30
0.0
 10
-1278.0
 20
158.1265796064945
 30
0.0
 10
-1284.0
 20
164.4969755350989
 30
0.0
  0
SPLINE
  5
1A9
330
1F
100
AcDbEntity
  8
Make2D$visible$lines
100
AcDbSpline
210
0.0
220
0.0
230
1.0
 70
    24
 71
     2
 72
     6
 73
     3
 74
     0
 42
0.000000001
 43
0.0000000001
 40
0.0
 40
0.0
 40
0.0
 40
17.50222206317572
 40
17.50222206317572
 40
17.50222206317572
 10
-1224.0
 20
151.7561836778902
 30
0.0
 10
-1230.0
 20
158.1265796064945
 30
0.0
 10
-1236.0
 20
164.4969755350989
 30
0.0
  0
SPLINE
  5
1AA
330
1F
100
AcDbEntity
  8
Make2D$visible$lines
100
AcDbSpline
210
0.0
220
0.0
230
1.0
 70
    24
 71
     2
 72
     6
 73
     3
 74
     0
 42
0.000000001
 43
0.0000000001
 40
0.0
 40
0.0
 40
0.0
 40
17.50222206317572
 40
17.50222206317572
 40
17.50222206317572
 10
-1176.0
 20
151.7561836778902
 30
0.0
 10
-1182.0
 20
158.1265796064945
 30
0.0
 10
-1188.0
 20
164.4969755350989
 30
0.0
  0
SPLINE
  5
1AB
330
1F
100
AcDbEntity
  8
Make2D$visible$lines
100
AcDbSpline
210
0.0
220
0.0
230
1.0
 70
    24
 71
     2
 72
     6
 73
     3
 74
     0
 42
0.000000001
 43
0.0000000001
 40
0.0
 40
0.0
 40
0.0
 40
17.50222206317572
 40
17.50222206317572
 40
17.50222206317572
 10
-1128.0
 20
151.7561836778902
 30
0.0
 10
-1134.0
 20
158.1265796064945
 30
0.0
 10
-1140.0
 20
164.4969755350989
 30
0.0
  0
SPLINE
  5
1AC
330
1F
100
AcDbEntity
  8
Make2D$visible$lines
100
AcDbSpline
210
0.0
220
0.0
230
1.0
 70
    24
 71
     2
 72
     6
 73
     3
 74
     0
 42
0.000000001
 43
0.0000000001
 40
0.0
 40
0.0
 40
0.0
 40
17.50222206317572
 40
17.50222206317572
 40
17.50222206317572
 10
-1080.0
 20
151.7561836778902
 30
0.0
 10
-1086.0
 20
158.1265796064945
 30
0.0
 10
-1092.0
 20
164.4969755350989
 30
0.0
  0
SPLINE
  5
1AD
330
1F
100
AcDbEntity
  8
Make2D$visible$lines
100
AcDbSpline
210
0.0
220
0.0
230
1.0
 70
    24
 71
     2
 72
     6
 73
     3
 74
     0
 42
0.000000001
 43
0.0000000001
 40
0.0
 40
0.0
 40
0.0
 40
27.37280405493022
 40
27.37280405493022
 40
27.37280405493022
 10
-1320.0
 20
7.756183677890228
 30
0.0
 10
-1307.610170935537
 20
13.57079769868155
 30
0.0
 10
-1295.220341871074
 20
19.38541171947288
 30
0.0
  0
SPLINE
  5
1AE
330
1F
100
AcDbEntity
  8
Make2D$visible$lines
100
AcDbSpline
210
0.0
220
0.0
230
1.0
 70
    24
 71
     2
 72
     6
 73
     3
 74
     0
 42
0.000000001
 43
0.0000000001
 40
0.0
 40
0.0
 40
0.0
 40
27.37280405493022
 40
27.37280405493022
 40
27.37280405493022
 10
-1272.0
 20
7.756183677890228
 30
0.0
 10
-1259.610170935537
 20
13.57079769868155
 30
0.0
 10
-1247.220341871074
 20
19.38541171947288
 30
0.0
  0
SPLINE
  5
1AF
330
1F
100
AcDbEntity
  8
Make2D$visible$lines
100
AcDbSpline
210
0.0
220
0.0
230
1.0
 70
    24
 71
     2
 72
     6
 73
     3
 74
     0
 42
0.000000001
 43
0.0000000001
 40
0.0
 40
0.0
 40
0.0
 40
27.37280405493022
 40
27.37280405493022
 40
27.37280405493022
 10
-1224.0
 20
7.756183677890228
 30
0.0
 10
-1211.610170935537
 20
13.57079769868155
 30
0.0
 10
-1199.220341871074
 20
19.38541171947288
 30
0.0
  0
SPLINE
  5
1B0
330
1F
100
AcDbEntity
  8
Make2D$visible$lines
100
AcDbSpline
210
0.0
220
0.0
230
1.0
 70
    24
 71
     2
 72
     6
 73
     3
 74
     0
 42
0.000000001
 43
0.0000000001
 40
0.0
 40
0.0
 40
0.0
 40
27.37280405493022
 40
27.37280405493022
 40
27.37280405493022
 10
-1176.0
 20
7.756183677890228
 30
0.0
 10
-1163.610170935537
 20
13.57079769868155
 30
0.0
 10
-1151.220341871074
 20
19.38541171947288
 30
0.0
  0
SPLINE
  5
1B1
330
1F
100
AcDbEntity
  8
Make2D$visible$lines
100
AcDbSpline
210
0.0
220
0.0
230
1.0
 70
    24
 71
     2
 72
     6
 73
     3
 74
     0
 42
0.000000001
 43
0.0000000001
 40
0.0
 40
0.0
 40
0.0
 40
27.37280405493022
 40
27.37280405493022
 40
27.37280405493022
 10
-1128.0
 20
7.756183677890228
 30
0.0
 10
-1115.610170935537
 20
13.57079769868155
 30
0.0
 10
-1103.220341871074
 20
19.38541171947288
 30
0.0
  0
SPLINE
  5
1B2
330
1F
100
AcDbEntity
  8
Make2D$visible$lines
100
AcDbSpline
210
0.0
220
0.0
230
1.0
 70
    24
 71
     2
 72
     6
 73
     3
 74
     0
 42
0.000000001
 43
0.0000000001
 40
0.0
 40
0.0
 40
0.0
 40
27.37280405493022
 40
27.37280405493022
 40
27.37280405493022
 10
-1080.0
 20
7.756183677890228
 30
0.0
 10
-1067.610170935537
 20
13.57079769868155
 30
0.0
 10
-1055.220341871074
 20
19.38541171947288
 30
0.0
  0
SPLINE
  5
1B3
330
1F
100
AcDbEntity
  8
Make2D$visible$lines
100
AcDbSpline
210
0.0
220
0.0
230
1.0
 70
    24
 71
     2
 72
     6
 73
     3
 74
     0
 42
0.000000001
 43
0.0000000001
 40
0.0
 40
0.0
 40
0.0
 40
27.37280405493022
 40
27.37280405493022
 40
27.37280405493022
 10
-1320.0
 20
55.75618367789022
 30
0.0
 10
-1307.610170935537
 20
61.57079769868155
 30
0.0
 10
-1295.220341871074
 20
67.38541171947287
 30
0.0
  0
SPLINE
  5
1B4
330
1F
100
AcDbEntity
  8
Make2D$visible$lines
100
AcDbSpline
210
0.0
220
0.0
230
1.0
 70
    24
 71
     2
 72
     6
 73
     3
 74
     0
 42
0.000000001
 43
0.0000000001
 40
0.0
 40
0.0
 40
0.0
 40
27.37280405493022
 40
27.37280405493022
 40
27.37280405493022
 10
-1272.0
 20
55.75618367789022
 30
0.0
 10
-1259.610170935537
 20
61.57079769868155
 30
0.0
 10
-1247.220341871074
 20
67.38541171947287
 30
0.0
  0
SPLINE
  5
1B5
330
1F
100
AcDbEntity
  8
Make2D$visible$lines
100
AcDbSpline
210
0.0
220
0.0
230
1.0
 70
    24
 71
     2
 72
     6
 73
     3
 74
     0
 42
0.000000001
 43
0.0000000001
 40
0.0
 40
0.0
 40
0.0
 40
27.37280405493022
 40
27.37280405493022
 40
27.37280405493022
 10
-1224.0
 20
55.75618367789022
 30
0.0
 10
-1211.610170935537
 20
61.57079769868155
 30
0.0
 10
-1199.220341871074
 20
67.38541171947287
 30
0.0
  0
SPLINE
  5
1B6
330
1F
100
AcDbEntity
  8
Make2D$visible$lines
100
AcDbSpline
210
0.0
220
0.0
230
1.0
 70
    24
 71
     2
 72
     6
 73
     3
 74
     0
 42
0.000000001
 43
0.0000000001
 40
0.0
 40
0.0
 40
0.0
 40
27.37280405493022
 40
27.37280405493022
 40
27.37280405493022
 10
-1176.0
 20
55.75618367789022
 30
0.0
 10
-1163.610170935537
 20
61.57079769868155
 30
0.0
 10
-1151.220341871074
 20
67.38541171947287
 30
0.0
  0
SPLINE
  5
1B7
330
1F
100
AcDbEntity
  8
Make2D$visible$lines
100
AcDbSpline
210
0.0
220
0.0
230
1.0
 70
    24
 71
     2
 72
     6
 73
     3
 74
     0
 42
0.000000001
 43
0.0000000001
 40
0.0
 40
0.0
 40
0.0
 40
27.37280405493022
 40
27.37280405493022
 40
27.37280405493022
 10
-1128.0
 20
55.75618367789022
 30
0.0
 10
-1115.610170935537
 20
61.57079769868155
 30
0.0
 10
-1103.220341871074
 20
67.38541171947287
 30
0.0
  0
SPLINE
  5
1B8
330
1F
100
AcDbEntity
  8
Make2D$visible$lines
100
AcDbSpline
210
0.0
220
0.0
230
1.0
 70
    24
 71
     2
 72
     6
 73
     3
 74
     0
 42
0.000000001
 43
0.0000000001
 40
0.0
 40
0.0
 40
0.0
 40
27.37280405493022
 40
27.37280405493022
 40
27.37280405493022
 10
-1080.0
 20
55.75618367789022
 30
0.0
 10
-1067.610170935537
 20
61.57079769868155
 30
0.0
 10
-1055.220341871074
 20
67.38541171947287
 30
0.0
  0
SPLINE
  5
1B9
330
1F
100
AcDbEntity
  8
Make2D$visible$lines
100
AcDbSpline
210
0.0
220
0.0
230
1.0
 70
    24
 71
     2
 72
     6
 73
     3
 74
     0
 42
0.000000001
 43
0.0000000001
 40
0.0
 40
0.0
 40
0.0
 40
27.37280405493022
 40
27.37280405493022
 40
27.37280405493022
 10
-1320.0
 20
103.7561836778902
 30
0.0
 10
-1307.610170935537
 20
109.5707976986815
 30
0.0
 10
-1295.220341871074
 20
115.3854117194729
 30
0.0
  0
SPLINE
  5
1BA
330
1F
100
AcDbEntity
  8
Make2D$visible$lines
100
AcDbSpline
210
0.0
220
0.0
230
1.0
 70
    24
 71
     2
 72
     6
 73
     3
 74
     0
 42
0.000000001
 43
0.0000000001
 40
0.0
 40
0.0
 40
0.0
 40
27.37280405493022
 40
27.37280405493022
 40
27.37280405493022
 10
-1272.0
 20
103.7561836778902
 30
0.0
 10
-1259.610170935537
 20
109.5707976986815
 30
0.0
 10
-1247.220341871074
 20
115.3854117194729
 30
0.0
  0
SPLINE
  5
1BB
330
1F
100
AcDbEntity
  8
Make2D$visible$lines
100
AcDbSpline
210
0.0
220
0.0
230
1.0
 70
    24
 71
     2
 72
     6
 73
     3
 74
     0
 42
0.000000001
 43
0.0000000001
 40
0.0
 40
0.0
 40
0.0
 40
27.37280405493022
 40
27.37280405493022
 40
27.37280405493022
 10
-1224.0
 20
103.7561836778902
 30
0.0
 10
-1211.610170935537
 20
109.5707976986815
 30
0.0
 10
-1199.220341871074
 20
115.3854117194729
 30
0.0
  0
SPLINE
  5
1BC
330
1F
100
AcDbEntity
  8
Make2D$visible$lines
100
AcDbSpline
210
0.0
220
0.0
230
1.0
 70
    24
 71
     2
 72
     6
 73
     3
 74
     0
 42
0.000000001
 43
0.0000000001
 40
0.0
 40
0.0
 40
0.0
 40
27.37280405493022
 40
27.37280405493022
 40
27.37280405493022
 10
-1176.0
 20
103.7561836778902
 30
0.0
 10
-1163.610170935537
 20
109.5707976986815
 30
0.0
 10
-1151.220341871074
 20
115.3854117194729
 30
0.0
  0
SPLINE
  5
1BD
330
1F
100
AcDbEntity
  8
Make2D$visible$lines
100
AcDbSpline
210
0.0
220
0.0
230
1.0
 70
    24
 71
     2
 72
     6
 73
     3
 74
     0
 42
0.000000001
 43
0.0000000001
 40
0.0
 40
0.0
 40
0.0
 40
27.37280405493022
 40
27.37280405493022
 40
27.37280405493022
 10
-1128.0
 20
103.7561836778902
 30
0.0
 10
-1115.610170935537
 20
109.5707976986815
 30
0.0
 10
-1103.220341871074
 20
115.3854117194729
 30
0.0
  0
SPLINE
  5
1BE
330
1F
100
AcDbEntity
  8
Make2D$visible$lines
100
AcDbSpline
210
0.0
220
0.0
230
1.0
 70
    24
 71
     2
 72
     6
 73
     3
 74
     0
 42
0.000000001
 43
0.0000000001
 40
0.0
 40
0.0
 40
0.0
 40
27.37280405493022
 40
27.37280405493022
 40
27.37280405493022
 10
-1080.0
 20
103.7561836778902
 30
0.0
 10
-1067.610170935537
 20
109.5707976986815
 30
0.0
 10
-1055.220341871074
 20
115.3854117194729
 30
0.0
  0
SPLINE
  5
1BF
330
1F
100
AcDbEntity
  8
Make2D$visible$lines
100
AcDbSpline
210
0.0
220
0.0
230
1.0
 70
    24
 71
     2
 72
     6
 73
     3
 74
     0
 42
0.000000001
 43
0.0000000001
 40
0.0
 40
0.0
 40
0.0
 40
27.37280405493022
 40
27.37280405493022
 40
27.37280405493022
 10
-1320.0
 20
151.7561836778902
 30
0.0
 10
-1307.610170935537
 20
157.5707976986815
 30
0.0
 10
-1295.220341871074
 20
163.3854117194729
 30
0.0
  0
SPLINE
  5
1C0
330
1F
100
AcDbEntity
  8
Make2D$visible$lines
100
AcDbSpline
210
0.0
220
0.0
230
1.0
 70
    24
 71
     2
 72
     6
 73
     3
 74
     0
 42
0.000000001
 43
0.0000000001
 40
0.0
 40
0.0
 40
0.0
 40
27.37280405493022
 40
27.37280405493022
 40
27.37280405493022
 10
-1272.0
 20
151.7561836778902
 30
0.0
 10
-1259.610170935537
 20
157.5707976986815
 30
0.0
 10
-1247.220341871074
 20
163.3854117194729
 30
0.0
  0
SPLINE
  5
1C1
330
1F
100
AcDbEntity
  8
Make2D$visible$lines
100
AcDbSpline
210
0.0
220
0.0
230
1.0
 70
    24
 71
     2
 72
     6
 73
     3
 74
     0
 42
0.000000001
 43
0.0000000001
 40
0.0
 40
0.0
 40
0.0
 40
27.37280405493022
 40
27.37280405493022
 40
27.37280405493022
 10
-1224.0
 20
151.7561836778902
 30
0.0
 10
-1211.610170935537
 20
157.5707976986815
 30
0.0
 10
-1199.220341871074
 20
163.3854117194729
 30
0.0
  0
SPLINE
  5
1C2
330
1F
100
AcDbEntity
  8
Make2D$visible$lines
100
AcDbSpline
210
0.0
220
0.0
230
1.0
 70
    24
 71
     2
 72
     6
 73
     3
 74
     0
 42
0.000000001
 43
0.0000000001
 40
0.0
 40
0.0
 40
0.0
 40
27.37280405493022
 40
27.37280405493022
 40
27.37280405493022
 10
-1176.0
 20
151.7561836778902
 30
0.0
 10
-1163.610170935537
 20
157.5707976986815
 30
0.0
 10
-1151.220341871074
 20
163.3854117194729
 30
0.0
  0
SPLINE
  5
1C3
330
1F
100
AcDbEntity
  8
Make2D$visible$lines
100
AcDbSpline
210
0.0
220
0.0
230
1.0
 70
    24
 71
     2
 72
     6
 73
     3
 74
     0
 42
0.000000001
 43
0.0000000001
 40
0.0
 40
0.0
 40
0.0
 40
27.37280405493022
 40
27.37280405493022
 40
27.37280405493022
 10
-1128.0
 20
151.7561836778902
 30
0.0
 10
-1115.610170935537
 20
157.5707976986815
 30
0.0
 10
-1103.220341871074
 20
163.3854117194729
 30
0.0
  0
SPLINE
  5
1C4
330
1F
100
AcDbEntity
  8
Make2D$visible$lines
100
AcDbSpline
210
0.0
220
0.0
230
1.0
 70
    24
 71
     2
 72
     6
 73
     3
 74
     0
 42
0.000000001
 43
0.0000000001
 40
0.0
 40
0.0
 40
0.0
 40
27.37280405493022
 40
27.37280405493022
 40
27.37280405493022
 10
-1080.0
 20
151.7561836778902
 30
0.0
 10
-1067.610170935537
 20
157.5707976986815
 30
0.0
 10
-1055.220341871074
 20
163.3854117194729
 30
0.0
  0
SPLINE
  5
1C5
330
1F
100
AcDbEntity
  8
Make2D$visible$lines
100
AcDbSpline
210
0.0
220
0.0
230
1.0
 70
    24
 71
     2
 72
     6
 73
     3
 74
     0
 42
0.000000001
 43
0.0000000001
 40
0.0
 40
0.0
 40
0.0
 40
20.92509185676434
 40
20.92509185676434
 40
20.92509185676434
 10
-1320.0
 20
7.756183677890228
 30
0.0
 10
-1310.282733357975
 20
3.878091838945114
 30
0.0
 10
-1300.56546671595
 20
0.0
 30
0.0
  0
SPLINE
  5
1C6
330
1F
100
AcDbEntity
  8
Make2D$visible$lines
100
AcDbSpline
210
0.0
220
0.0
230
1.0
 70
    24
 71
     2
 72
     6
 73
     3
 74
     0
 42
0.000000001
 43
0.0000000001
 40
0.0
 40
0.0
 40
0.0
 40
20.92509185676434
 40
20.92509185676434
 40
20.92509185676434
 10
-1272.0
 20
7.756183677890228
 30
0.0
 10
-1262.282733357975
 20
3.878091838945114
 30
0.0
 10
-1252.56546671595
 20
0.0
 30
0.0
  0
SPLINE
  5
1C7
330
1F
100
AcDbEntity
  8
Make2D$visible$lines
100
AcDbSpline
210
0.0
220
0.0
230
1.0
 70
    24
 71
     2
 72
     6
 73
     3
 74
     0
 42
0.000000001
 43
0.0000000001
 40
0.0
 40
0.0
 40
0.0
 40
20.92509185676434
 40
20.92509185676434
 40
20.92509185676434
 10
-1224.0
 20
7.756183677890228
 30
0.0
 10
-1214.282733357975
 20
3.878091838945114
 30
0.0
 10
-1204.56546671595
 20
0.0
 30
0.0
  0
SPLINE
  5
1C8
330
1F
100
AcDbEntity
  8
Make2D$visible$lines
100
AcDbSpline
210
0.0
220
0.0
230
1.0
 70
    24
 71
     2
 72
     6
 73
     3
 74
     0
 42
0.000000001
 43
0.0000000001
 40
0.0
 40
0.0
 40
0.0
 40
20.92509185676434
 40
20.92509185676434
 40
20.92509185676434
 10
-1176.0
 20
7.756183677890228
 30
0.0
 10
-1166.282733357975
 20
3.878091838945114
 30
0.0
 10
-1156.56546671595
 20
0.0
 30
0.0
  0
SPLINE
  5
1C9
330
1F
100
AcDbEntity
  8
Make2D$visible$lines
100
AcDbSpline
210
0.0
220
0.0
230
1.0
 70
    24
 71
     2
 72
     6
 73
     3
 74
     0
 42
0.000000001
 43
0.0000000001
 40
0.0
 40
0.0
 40
0.0
 40
20.92509185676434
 40
20.92509185676434
 40
20.92509185676434
 10
-1128.0
 20
7.756183677890228
 30
0.0
 10
-1118.282733357975
 20
3.878091838945114
 30
0.0
 10
-1108.56546671595
 20
0.0
 30
0.0
  0
SPLINE
  5
1CA
330
1F
100
AcDbEntity
  8
Make2D$visible$lines
100
AcDbSpline
210
0.0
220
0.0
230
1.0
 70
    24
 71
     2
 72
     6
 73
     3
 74
     0
 42
0.000000001
 43
0.0000000001
 40
0.0
 40
0.0
 40
0.0
 40
20.92509185676434
 40
20.92509185676434
 40
20.92509185676434
 10
-1080.0
 20
7.756183677890228
 30
0.0
 10
-1070.282733357975
 20
3.878091838945114
 30
0.0
 10
-1060.56546671595
 20
0.0
 30
0.0
  0
SPLINE
  5
1CB
330
1F
100
AcDbEntity
  8
Make2D$visible$lines
100
AcDbSpline
210
0.0
220
0.0
230
1.0
 70
    24
 71
     2
 72
     6
 73
     3
 74
     0
 42
0.000000001
 43
0.0000000001
 40
0.0
 40
0.0
 40
0.0
 40
20.92509185676434
 40
20.92509185676434
 40
20.92509185676434
 10
-1320.0
 20
55.75618367789022
 30
0.0
 10
-1310.282733357975
 20
51.87809183894511
 30
0.0
 10
-1300.56546671595
 20
48.0
 30
0.0
  0
SPLINE
  5
1CC
330
1F
100
AcDbEntity
  8
Make2D$visible$lines
100
AcDbSpline
210
0.0
220
0.0
230
1.0
 70
    24
 71
     2
 72
     6
 73
     3
 74
     0
 42
0.000000001
 43
0.0000000001
 40
0.0
 40
0.0
 40
0.0
 40
20.92509185676434
 40
20.92509185676434
 40
20.92509185676434
 10
-1272.0
 20
55.75618367789022
 30
0.0
 10
-1262.282733357975
 20
51.87809183894511
 30
0.0
 10
-1252.56546671595
 20
48.0
 30
0.0
  0
SPLINE
  5
1CD
330
1F
100
AcDbEntity
  8
Make2D$visible$lines
100
AcDbSpline
210
0.0
220
0.0
230
1.0
 70
    24
 71
     2
 72
     6
 73
     3
 74
     0
 42
0.000000001
 43
0.0000000001
 40
0.0
 40
0.0
 40
0.0
 40
20.92509185676434
 40
20.92509185676434
 40
20.92509185676434
 10
-1224.0
 20
55.75618367789022
 30
0.0
 10
-1214.282733357975
 20
51.87809183894511
 30
0.0
 10
-1204.56546671595
 20
48.0
 30
0.0
  0
SPLINE
  5
1CE
330
1F
100
AcDbEntity
  8
Make2D$visible$lines
100
AcDbSpline
210
0.0
220
0.0
230
1.0
 70
    24
 71
     2
 72
     6
 73
     3
 74
     0
 42
0.000000001
 43
0.0000000001
 40
0.0
 40
0.0
 40
0.0
 40
20.92509185676434
 40
20.92509185676434
 40
20.92509185676434
 10
-1176.0
 20
55.75618367789022
 30
0.0
 10
-1166.282733357975
 20
51.87809183894511
 30
0.0
 10
-1156.56546671595
 20
48.0
 30
0.0
  0
SPLINE
  5
1CF
330
1F
100
AcDbEntity
  8
Make2D$visible$lines
100
AcDbSpline
210
0.0
220
0.0
230
1.0
 70
    24
 71
     2
 72
     6
 73
     3
 74
     0
 42
0.000000001
 43
0.0000000001
 40
0.0
 40
0.0
 40
0.0
 40
20.92509185676434
 40
20.92509185676434
 40
20.92509185676434
 10
-1128.0
 20
55.75618367789022
 30
0.0
 10
-1118.282733357975
 20
51.87809183894511
 30
0.0
 10
-1108.56546671595
 20
48.0
 30
0.0
  0
SPLINE
  5
1D0
330
1F
100
AcDbEntity
  8
Make2D$visible$lines
100
AcDbSpline
210
0.0
220
0.0
230
1.0
 70
    24
 71
     2
 72
     6
 73
     3
 74
     0
 42
0.000000001
 43
0.0000000001
 40
0.0
 40
0.0
 40
0.0
 40
20.92509185676434
 40
20.92509185676434
 40
20.92509185676434
 10
-1080.0
 20
55.75618367789022
 30
0.0
 10
-1070.282733357975
 20
51.87809183894511
 30
0.0
 10
-1060.56546671595
 20
48.0
 30
0.0
  0
SPLINE
  5
1D1
330
1F
100
AcDbEntity
  8
Make2D$visible$lines
100
AcDbSpline
210
0.0
220
0.0
230
1.0
 70
    24
 71
     2
 72
     6
 73
     3
 74
     0
 42
0.000000001
 43
0.0000000001
 40
0.0
 40
0.0
 40
0.0
 40
20.92509185676434
 40
20.92509185676434
 40
20.92509185676434
 10
-1320.0
 20
103.7561836778902
 30
0.0
 10
-1310.282733357975
 20
99.87809183894511
 30
0.0
 10
-1300.56546671595
 20
96.0
 30
0.0
  0
SPLINE
  5
1D2
330
1F
100
AcDbEntity
  8
Make2D$visible$lines
100
AcDbSpline
210
0.0
220
0.0
230
1.0
 70
    24
 71
     2
 72
     6
 73
     3
 74
     0
 42
0.000000001
 43
0.0000000001
 40
0.0
 40
0.0
 40
0.0
 40
20.92509185676434
 40
20.92509185676434
 40
20.92509185676434
 10
-1272.0
 20
103.7561836778902
 30
0.0
 10
-1262.282733357975
 20
99.87809183894511
 30
0.0
 10
-1252.56546671595
 20
96.0
 30
0.0
  0
SPLINE
  5
1D3
330
1F
100
AcDbEntity
  8
Make2D$visible$lines
100
AcDbSpline
210
0.0
220
0.0
230
1.0
 70
    24
 71
     2
 72
     6
 73
     3
 74
     0
 42
0.000000001
 43
0.0000000001
 40
0.0
 40
0.0
 40
0.0
 40
20.92509185676434
 40
20.92509185676434
 40
20.92509185676434
 10
-1224.0
 20
103.7561836778902
 30
0.0
 10
-1214.282733357975
 20
99.87809183894511
 30
0.0
 10
-1204.56546671595
 20
96.0
 30
0.0
  0
SPLINE
  5
1D4
330
1F
100
AcDbEntity
  8
Make2D$visible$lines
100
AcDbSpline
210
0.0
220
0.0
230
1.0
 70
    24
 71
     2
 72
     6
 73
     3
 74
     0
 42
0.000000001
 43
0.0000000001
 40
0.0
 40
0.0
 40
0.0
 40
20.92509185676434
 40
20.92509185676434
 40
20.92509185676434
 10
-1176.0
 20
103.7561836778902
 30
0.0
 10
-1166.282733357975
 20
99.87809183894511
 30
0.0
 10
-1156.56546671595
 20
96.0
 30
0.0
  0
SPLINE
  5
1D5
330
1F
100
AcDbEntity
  8
Make2D$visible$lines
100
AcDbSpline
210
0.0
220
0.0
230
1.0
 70
    24
 71
     2
 72
     6
 73
     3
 74
     0
 42
0.000000001
 43
0.0000000001
 40
0.0
 40
0.0
 40
0.0
 40
20.92509185676434
 40
20.92509185676434
 40
20.92509185676434
 10
-1128.0
 20
103.7561836778902
 30
0.0
 10
-1118.282733357975
 20
99.87809183894511
 30
0.0
 10
-1108.56546671595
 20
96.0
 30
0.0
  0
SPLINE
  5
1D6
330
1F
100
AcDbEntity
  8
Make2D$visible$lines
100
AcDbSpline
210
0.0
220
0.0
230
1.0
 70
    24
 71
     2
 72
     6
 73
     3
 74
     0
 42
0.000000001
 43
0.0000000001
 40
0.0
 40
0.0
 40
0.0
 40
20.92509185676434
 40
20.92509185676434
 40
20.92509185676434
 10
-1080.0
 20
103.7561836778902
 30
0.0
 10
-1070.282733357975
 20
99.87809183894511
 30
0.0
 10
-1060.56546671595
 20
96.0
 30
0.0
  0
SPLINE
  5
1D7
330
1F
100
AcDbEntity
  8
Make2D$visible$lines
100
AcDbSpline
210
0.0
220
0.0
230
1.0
 70
    24
 71
     2
 72
     6
 73
     3
 74
     0
 42
0.000000001
 43
0.0000000001
 40
0.0
 40
0.0
 40
0.0
 40
20.92509185676434
 40
20.92509185676434
 40
20.92509185676434
 10
-1320.0
 20
151.7561836778902
 30
0.0
 10
-1310.282733357975
 20
147.8780918389451
 30
0.0
 10
-1300.56546671595
 20
144.0
 30
0.0
  0
SPLINE
  5
1D8
330
1F
100
AcDbEntity
  8
Make2D$visible$lines
100
AcDbSpline
210
0.0
220
0.0
230
1.0
 70
    24
 71
     2
 72
     6
 73
     3
 74
     0
 42
0.000000001
 43
0.0000000001
 40
0.0
 40
0.0
 40
0.0
 40
20.92509185676434
 40
20.92509185676434
 40
20.92509185676434
 10
-1272.0
 20
151.7561836778902
 30
0.0
 10
-1262.282733357975
 20
147.8780918389451
 30
0.0
 10
-1252.56546671595
 20
144.0
 30
0.0
  0
SPLINE
  5
1D9
330
1F
100
AcDbEntity
  8
Make2D$visible$lines
100
AcDbSpline
210
0.0
220
0.0
230
1.0
 70
    24
 71
     2
 72
     6
 73
     3
 74
     0
 42
0.000000001
 43
0.0000000001
 40
0.0
 40
0.0
 40
0.0
 40
20.92509185676434
 40
20.92509185676434
 40
20.92509185676434
 10
-1224.0
 20
151.7561836778902
 30
0.0
 10
-1214.282733357975
 20
147.8780918389451
 30
0.0
 10
-1204.56546671595
 20
144.0
 30
0.0
  0
SPLINE
  5
1DA
330
1F
100
AcDbEntity
  8
Make2D$visible$lines
100
AcDbSpline
210
0.0
220
0.0
230
1.0
 70
    24
 71
     2
 72
     6
 73
     3
 74
     0
 42
0.000000001
 43
0.0000000001
 40
0.0
 40
0.0
 40
0.0
 40
20.92509185676434
 40
20.92509185676434
 40
20.92509185676434
 10
-1176.0
 20
151.7561836778902
 30
0.0
 10
-1166.282733357975
 20
147.8780918389451
 30
0.0
 10
-1156.56546671595
 20
144.0
 30
0.0
  0
SPLINE
  5
1DB
330
1F
100
AcDbEntity
  8
Make2D$visible$lines
100
AcDbSpline
210
0.0
220
0.0
230
1.0
 70
    24
 71
     2
 72
     6
 73
     3
 74
     0
 42
0.000000001
 43
0.0000000001
 40
0.0
 40
0.0
 40
0.0
 40
20.92509185676434
 40
20.92509185676434
 40
20.92509185676434
 10
-1128.0
 20
151.7561836778902
 30
0.0
 10
-1118.282733357975
 20
147.8780918389451
 30
0.0
 10
-1108.56546671595
 20
144.0
 30
0.0
  0
SPLINE
  5
1DC
330
1F
100
AcDbEntity
  8
Make2D$visible$lines
100
AcDbSpline
210
0.0
220
0.0
230
1.0
 70
    24
 71
     2
 72
     6
 73
     3
 74
     0
 42
0.000000001
 43
0.0000000001
 40
0.0
 40
0.0
 40
0.0
 40
20.92509185676434
 40
20.92509185676434
 40
20.92509185676434
 10
-1080.0
 20
151.7561836778902
 30
0.0
 10
-1070.282733357975
 20
147.8780918389451
 30
0.0
 10
-1060.56546671595
 20
144.0
 30
0.0
  0
SPLINE
  5
1DD
330
1F
100
AcDbEntity
  8
Make2D$visible$lines
100
AcDbSpline
210
0.0
220
0.0
230
1.0
 70
    24
 71
     2
 72
     6
 73
     3
 74
     0
 42
0.000000001
 43
0.0000000001
 40
0.0
 40
0.0
 40
0.0
 40
6.947746426122327
 40
6.947746426122327
 40
6.947746426122327
 10
-1332.0
 20
20.49697553509891
 30
0.0
 10
-1335.0
 20
22.24848776754946
 30
0.0
 10
-1338.0
 20
24.0
 30
0.0
  0
SPLINE
  5
1DE
330
1F
100
AcDbEntity
  8
Make2D$visible$lines
100
AcDbSpline
210
0.0
220
0.0
230
1.0
 70
    24
 71
     2
 72
     6
 73
     3
 74
     0
 42
0.000000001
 43
0.0000000001
 40
0.0
 40
0.0
 40
0.0
 40
6.947746426122327
 40
6.947746426122327
 40
6.947746426122327
 10
-1284.0
 20
20.49697553509891
 30
0.0
 10
-1287.0
 20
22.24848776754946
 30
0.0
 10
-1290.0
 20
24.0
 30
0.0
  0
SPLINE
  5
1DF
330
1F
100
AcDbEntity
  8
Make2D$visible$lines
100
AcDbSpline
210
0.0
220
0.0
230
1.0
 70
    24
 71
     2
 72
     6
 73
     3
 74
     0
 42
0.000000001
 43
0.0000000001
 40
0.0
 40
0.0
 40
0.0
 40
6.947746426122327
 40
6.947746426122327
 40
6.947746426122327
 10
-1236.0
 20
20.49697553509891
 30
0.0
 10
-1239.0
 20
22.24848776754946
 30
0.0
 10
-1242.0
 20
24.0
 30
0.0
  0
SPLINE
  5
1E0
330
1F
100
AcDbEntity
  8
Make2D$visible$lines
100
AcDbSpline
210
0.0
220
0.0
230
1.0
 70
    24
 71
     2
 72
     6
 73
     3
 74
     0
 42
0.000000001
 43
0.0000000001
 40
0.0
 40
0.0
 40
0.0
 40
6.947746426122327
 40
6.947746426122327
 40
6.947746426122327
 10
-1188.0
 20
20.49697553509891
 30
0.0
 10
-1191.0
 20
22.24848776754946
 30
0.0
 10
-1194.0
 20
24.0
 30
0.0
  0
SPLINE
  5
1E1
330
1F
100
AcDbEntity
  8
Make2D$visible$lines
100
AcDbSpline
210
0.0
220
0.0
230
1.0
 70
    24
 71
     2
 72
     6
 73
     3
 74
     0
 42
0.000000001
 43
0.0000000001
 40
0.0
 40
0.0
 40
0.0
 40
6.947746426122327
 40
6.947746426122327
 40
6.947746426122327
 10
-1140.0
 20
20.49697553509891
 30
0.0
 10
-1143.0
 20
22.24848776754946
 30
0.0
 10
-1146.0
 20
24.0
 30
0.0
  0
SPLINE
  5
1E2
330
1F
100
AcDbEntity
  8
Make2D$visible$lines
100
AcDbSpline
210
0.0
220
0.0
230
1.0
 70
    24
 71
     2
 72
     6
 73
     3
 74
     0
 42
0.000000001
 43
0.0000000001
 40
0.0
 40
0.0
 40
0.0
 40
6.947746426122327
 40
6.947746426122327
 40
6.947746426122327
 10
-1092.0
 20
20.49697553509891
 30
0.0
 10
-1095.0
 20
22.24848776754946
 30
0.0
 10
-1098.0
 20
24.0
 30
0.0
  0
SPLINE
  5
1E3
330
1F
100
AcDbEntity
  8
Make2D$visible$lines
100
AcDbSpline
210
0.0
220
0.0
230
1.0
 70
    24
 71
     2
 72
     6
 73
     3
 74
     0
 42
0.000000001
 43
0.0000000001
 40
0.0
 40
0.0
 40
0.0
 40
6.947746426122327
 40
6.947746426122327
 40
6.947746426122327
 10
-1332.0
 20
68.49697553509891
 30
0.0
 10
-1335.0
 20
70.24848776754945
 30
0.0
 10
-1338.0
 20
72.0
 30
0.0
  0
SPLINE
  5
1E4
330
1F
100
AcDbEntity
  8
Make2D$visible$lines
100
AcDbSpline
210
0.0
220
0.0
230
1.0
 70
    24
 71
     2
 72
     6
 73
     3
 74
     0
 42
0.000000001
 43
0.0000000001
 40
0.0
 40
0.0
 40
0.0
 40
6.947746426122327
 40
6.947746426122327
 40
6.947746426122327
 10
-1284.0
 20
68.49697553509891
 30
0.0
 10
-1287.0
 20
70.24848776754945
 30
0.0
 10
-1290.0
 20
72.0
 30
0.0
  0
SPLINE
  5
1E5
330
1F
100
AcDbEntity
  8
Make2D$visible$lines
100
AcDbSpline
210
0.0
220
0.0
230
1.0
 70
    24
 71
     2
 72
     6
 73
     3
 74
     0
 42
0.000000001
 43
0.0000000001
 40
0.0
 40
0.0
 40
0.0
 40
6.947746426122327
 40
6.947746426122327
 40
6.947746426122327
 10
-1236.0
 20
68.49697553509891
 30
0.0
 10
-1239.0
 20
70.24848776754945
 30
0.0
 10
-1242.0
 20
72.0
 30
0.0
  0
SPLINE
  5
1E6
330
1F
100
AcDbEntity
  8
Make2D$visible$lines
100
AcDbSpline
210
0.0
220
0.0
230
1.0
 70
    24
 71
     2
 72
     6
 73
     3
 74
     0
 42
0.000000001
 43
0.0000000001
 40
0.0
 40
0.0
 40
0.0
 40
6.947746426122327
 40
6.947746426122327
 40
6.947746426122327
 10
-1188.0
 20
68.49697553509891
 30
0.0
 10
-1191.0
 20
70.24848776754945
 30
0.0
 10
-1194.0
 20
72.0
 30
0.0
  0
SPLINE
  5
1E7
330
1F
100
AcDbEntity
  8
Make2D$visible$lines
100
AcDbSpline
210
0.0
220
0.0
230
1.0
 70
    24
 71
     2
 72
     6
 73
     3
 74
     0
 42
0.000000001
 43
0.0000000001
 40
0.0
 40
0.0
 40
0.0
 40
6.947746426122327
 40
6.947746426122327
 40
6.947746426122327
 10
-1140.0
 20
68.49697553509891
 30
0.0
 10
-1143.0
 20
70.24848776754945
 30
0.0
 10
-1146.0
 20
72.0
 30
0.0
  0
SPLINE
  5
1E8
330
1F
100
AcDbEntity
  8
Make2D$visible$lines
100
AcDbSpline
210
0.0
220
0.0
230
1.0
 70
    24
 71
     2
 72
     6
 73
     3
 74
     0
 42
0.000000001
 43
0.0000000001
 40
0.0
 40
0.0
 40
0.0
 40
6.947746426122327
 40
6.947746426122327
 40
6.947746426122327
 10
-1092.0
 20
68.49697553509891
 30
0.0
 10
-1095.0
 20
70.24848776754945
 30
0.0
 10
-1098.0
 20
72.0
 30
0.0
  0
SPLINE
  5
1E9
330
1F
100
AcDbEntity
  8
Make2D$visible$lines
100
AcDbSpline
210
0.0
220
0.0
230
1.0
 70
    24
 71
     2
 72
     6
 73
     3
 74
     0
 42
0.000000001
 43
0.0000000001
 40
0.0
 40
0.0
 40
0.0
 40
6.947746426122318
 40
6.947746426122318
 40
6.947746426122318
 10
-1332.0
 20
116.4969755350989
 30
0.0
 10
-1335.0
 20
118.2484877675495
 30
0.0
 10
-1338.0
 20
120.0
 30
0.0
  0
SPLINE
  5
1EA
330
1F
100
AcDbEntity
  8
Make2D$visible$lines
100
AcDbSpline
210
0.0
220
0.0
230
1.0
 70
    24
 71
     2
 72
     6
 73
     3
 74
     0
 42
0.000000001
 43
0.0000000001
 40
0.0
 40
0.0
 40
0.0
 40
6.947746426122318
 40
6.947746426122318
 40
6.947746426122318
 10
-1284.0
 20
116.4969755350989
 30
0.0
 10
-1287.0
 20
118.2484877675495
 30
0.0
 10
-1290.0
 20
120.0
 30
0.0
  0
SPLINE
  5
1EB
330
1F
100
AcDbEntity
  8
Make2D$visible$lines
100
AcDbSpline
210
0.0
220
0.0
230
1.0
 70
    24
 71
     2
 72
     6
 73
     3
 74
     0
 42
0.000000001
 43
0.0000000001
 40
0.0
 40
0.0
 40
0.0
 40
6.947746426122318
 40
6.947746426122318
 40
6.947746426122318
 10
-1236.0
 20
116.4969755350989
 30
0.0
 10
-1239.0
 20
118.2484877675495
 30
0.0
 10
-1242.0
 20
120.0
 30
0.0
  0
SPLINE
  5
1EC
330
1F
100
AcDbEntity
  8
Make2D$visible$lines
100
AcDbSpline
210
0.0
220
0.0
230
1.0
 70
    24
 71
     2
 72
     6
 73
     3
 74
     0
 42
0.000000001
 43
0.0000000001
 40
0.0
 40
0.0
 40
0.0
 40
6.947746426122318
 40
6.947746426122318
 40
6.947746426122318
 10
-1188.0
 20
116.4969755350989
 30
0.0
 10
-1191.0
 20
118.2484877675495
 30
0.0
 10
-1194.0
 20
120.0
 30
0.0
  0
SPLINE
  5
1ED
330
1F
100
AcDbEntity
  8
Make2D$visible$lines
100
AcDbSpline
210
0.0
220
0.0
230
1.0
 70
    24
 71
     2
 72
     6
 73
     3
 74
     0
 42
0.000000001
 43
0.0000000001
 40
0.0
 40
0.0
 40
0.0
 40
6.947746426122318
 40
6.947746426122318
 40
6.947746426122318
 10
-1140.0
 20
116.4969755350989
 30
0.0
 10
-1143.0
 20
118.2484877675495
 30
0.0
 10
-1146.0
 20
120.0
 30
0.0
  0
SPLINE
  5
1EE
330
1F
100
AcDbEntity
  8
Make2D$visible$lines
100
AcDbSpline
210
0.0
220
0.0
230
1.0
 70
    24
 71
     2
 72
     6
 73
     3
 74
     0
 42
0.000000001
 43
0.0000000001
 40
0.0
 40
0.0
 40
0.0
 40
6.947746426122318
 40
6.947746426122318
 40
6.947746426122318
 10
-1092.0
 20
116.4969755350989
 30
0.0
 10
-1095.0
 20
118.2484877675495
 30
0.0
 10
-1098.0
 20
120.0
 30
0.0
  0
SPLINE
  5
1EF
330
1F
100
AcDbEntity
  8
Make2D$visible$lines
100
AcDbSpline
210
0.0
220
0.0
230
1.0
 70
    24
 71
     2
 72
     6
 73
     3
 74
     0
 42
0.000000001
 43
0.0000000001
 40
0.0
 40
0.0
 40
0.0
 40
6.947746426122333
 40
6.947746426122333
 40
6.947746426122333
 10
-1332.0
 20
164.4969755350989
 30
0.0
 10
-1335.0
 20
166.2484877675494
 30
0.0
 10
-1338.0
 20
168.0
 30
0.0
  0
SPLINE
  5
1F0
330
1F
100
AcDbEntity
  8
Make2D$visible$lines
100
AcDbSpline
210
0.0
220
0.0
230
1.0
 70
    24
 71
     2
 72
     6
 73
     3
 74
     0
 42
0.000000001
 43
0.0000000001
 40
0.0
 40
0.0
 40
0.0
 40
6.947746426122333
 40
6.947746426122333
 40
6.947746426122333
 10
-1284.0
 20
164.4969755350989
 30
0.0
 10
-1287.0
 20
166.2484877675494
 30
0.0
 10
-1290.0
 20
168.0
 30
0.0
  0
SPLINE
  5
1F1
330
1F
100
AcDbEntity
  8
Make2D$visible$lines
100
AcDbSpline
210
0.0
220
0.0
230
1.0
 70
    24
 71
     2
 72
     6
 73
     3
 74
     0
 42
0.000000001
 43
0.0000000001
 40
0.0
 40
0.0
 40
0.0
 40
6.947746426122333
 40
6.947746426122333
 40
6.947746426122333
 10
-1236.0
 20
164.4969755350989
 30
0.0
 10
-1239.0
 20
166.2484877675494
 30
0.0
 10
-1242.0
 20
168.0
 30
0.0
  0
SPLINE
  5
1F2
330
1F
100
AcDbEntity
  8
Make2D$visible$lines
100
AcDbSpline
210
0.0
220
0.0
230
1.0
 70
    24
 71
     2
 72
     6
 73
     3
 74
     0
 42
0.000000001
 43
0.0000000001
 40
0.0
 40
0.0
 40
0.0
 40
6.947746426122333
 40
6.947746426122333
 40
6.947746426122333
 10
-1188.0
 20
164.4969755350989
 30
0.0
 10
-1191.0
 20
166.2484877675494
 30
0.0
 10
-1194.0
 20
168.0
 30
0.0
  0
SPLINE
  5
1F3
330
1F
100
AcDbEntity
  8
Make2D$visible$lines
100
AcDbSpline
210
0.0
220
0.0
230
1.0
 70
    24
 71
     2
 72
     6
 73
     3
 74
     0
 42
0.000000001
 43
0.0000000001
 40
0.0
 40
0.0
 40
0.0
 40
6.947746426122333
 40
6.947746426122333
 40
6.947746426122333
 10
-1140.0
 20
164.4969755350989
 30
0.0
 10
-1143.0
 20
166.2484877675494
 30
0.0
 10
-1146.0
 20
168.0
 30
0.0
  0
SPLINE
  5
1F4
330
1F
100
AcDbEntity
  8
Make2D$visible$lines
100
AcDbSpline
210
0.0
220
0.0
230
1.0
 70
    24
 71
     2
 72
     6
 73
     3
 74
     0
 42
0.000000001
 43
0.0000000001
 40
0.0
 40
0.0
 40
0.0
 40
6.947746426122333
 40
6.947746426122333
 40
6.947746426122333
 10
-1092.0
 20
164.4969755350989
 30
0.0
 10
-1095.0
 20
166.2484877675494
 30
0.0
 10
-1098.0
 20
168.0
 30
0.0
  0
SPLINE
  5
1F5
330
1F
100
AcDbEntity
  8
Make2D$visible$lines
100
AcDbSpline
210
0.0
220
0.0
230
1.0
 70
    24
 71
     2
 72
     6
 73
     3
 74
     0
 42
0.000000001
 43
0.0000000001
 40
0.0
 40
0.0
 40
0.0
 40
36.79645127178594
 40
36.79645127178594
 40
36.79645127178594
 10
-1332.0
 20
20.49697553509891
 30
0.0
 10
-1313.610170935537
 20
19.94119362728589
 30
0.0
 10
-1295.220341871074
 20
19.38541171947288
 30
0.0
  0
SPLINE
  5
1F6
330
1F
100
AcDbEntity
  8
Make2D$visible$lines
100
AcDbSpline
210
0.0
220
0.0
230
1.0
 70
    24
 71
     2
 72
     6
 73
     3
 74
     0
 42
0.000000001
 43
0.0000000001
 40
0.0
 40
0.0
 40
0.0
 40
36.79645127178594
 40
36.79645127178594
 40
36.79645127178594
 10
-1284.0
 20
20.49697553509891
 30
0.0
 10
-1265.610170935537
 20
19.94119362728589
 30
0.0
 10
-1247.220341871074
 20
19.38541171947288
 30
0.0
  0
SPLINE
  5
1F7
330
1F
100
AcDbEntity
  8
Make2D$visible$lines
100
AcDbSpline
210
0.0
220
0.0
230
1.0
 70
    24
 71
     2
 72
     6
 73
     3
 74
     0
 42
0.000000001
 43
0.0000000001
 40
0.0
 40
0.0
 40
0.0
 40
36.79645127178594
 40
36.79645127178594
 40
36.79645127178594
 10
-1236.0
 20
20.49697553509891
 30
0.0
 10
-1217.610170935537
 20
19.94119362728589
 30
0.0
 10
-1199.220341871074
 20
19.38541171947288
 30
0.0
  0
SPLINE
  5
1F8
330
1F
100
AcDbEntity
  8
Make2D$visible$lines
100
AcDbSpline
210
0.0
220
0.0
230
1.0
 70
    24
 71
     2
 72
     6
 73
     3
 74
     0
 42
0.000000001
 43
0.0000000001
 40
0.0
 40
0.0
 40
0.0
 40
36.79645127178594
 40
36.79645127178594
 40
36.79645127178594
 10
-1188.0
 20
20.49697553509891
 30
0.0
 10
-1169.610170935537
 20
19.94119362728589
 30
0.0
 10
-1151.220341871074
 20
19.38541171947288
 30
0.0
  0
SPLINE
  5
1F9
330
1F
100
AcDbEntity
  8
Make2D$visible$lines
100
AcDbSpline
210
0.0
220
0.0
230
1.0
 70
    24
 71
     2
 72
     6
 73
     3
 74
     0
 42
0.000000001
 43
0.0000000001
 40
0.0
 40
0.0
 40
0.0
 40
36.79645127178594
 40
36.79645127178594
 40
36.79645127178594
 10
-1140.0
 20
20.49697553509891
 30
0.0
 10
-1121.610170935537
 20
19.94119362728589
 30
0.0
 10
-1103.220341871074
 20
19.38541171947288
 30
0.0
  0
SPLINE
  5
1FA
330
1F
100
AcDbEntity
  8
Make2D$visible$lines
100
AcDbSpline
210
0.0
220
0.0
230
1.0
 70
    24
 71
     2
 72
     6
 73
     3
 74
     0
 42
0.000000001
 43
0.0000000001
 40
0.0
 40
0.0
 40
0.0
 40
36.79645127178594
 40
36.79645127178594
 40
36.79645127178594
 10
-1092.0
 20
20.49697553509891
 30
0.0
 10
-1073.610170935537
 20
19.94119362728589
 30
0.0
 10
-1055.220341871074
 20
19.38541171947288
 30
0.0
  0
SPLINE
  5
1FB
330
1F
100
AcDbEntity
  8
Make2D$visible$lines
100
AcDbSpline
210
0.0
220
0.0
230
1.0
 70
    24
 71
     2
 72
     6
 73
     3
 74
     0
 42
0.000000001
 43
0.0000000001
 40
0.0
 40
0.0
 40
0.0
 40
36.79645127178594
 40
36.79645127178594
 40
36.79645127178594
 10
-1332.0
 20
68.49697553509891
 30
0.0
 10
-1313.610170935537
 20
67.94119362728588
 30
0.0
 10
-1295.220341871074
 20
67.38541171947287
 30
0.0
  0
SPLINE
  5
1FC
330
1F
100
AcDbEntity
  8
Make2D$visible$lines
100
AcDbSpline
210
0.0
220
0.0
230
1.0
 70
    24
 71
     2
 72
     6
 73
     3
 74
     0
 42
0.000000001
 43
0.0000000001
 40
0.0
 40
0.0
 40
0.0
 40
36.79645127178594
 40
36.79645127178594
 40
36.79645127178594
 10
-1284.0
 20
68.49697553509891
 30
0.0
 10
-1265.610170935537
 20
67.94119362728588
 30
0.0
 10
-1247.220341871074
 20
67.38541171947287
 30
0.0
  0
SPLINE
  5
1FD
330
1F
100
AcDbEntity
  8
Make2D$visible$lines
100
AcDbSpline
210
0.0
220
0.0
230
1.0
 70
    24
 71
     2
 72
     6
 73
     3
 74
     0
 42
0.000000001
 43
0.0000000001
 40
0.0
 40
0.0
 40
0.0
 40
36.79645127178594
 40
36.79645127178594
 40
36.79645127178594
 10
-1236.0
 20
68.49697553509891
 30
0.0
 10
-1217.610170935537
 20
67.94119362728588
 30
0.0
 10
-1199.220341871074
 20
67.38541171947287
 30
0.0
  0
SPLINE
  5
1FE
330
1F
100
AcDbEntity
  8
Make2D$visible$lines
100
AcDbSpline
210
0.0
220
0.0
230
1.0
 70
    24
 71
     2
 72
     6
 73
     3
 74
     0
 42
0.000000001
 43
0.0000000001
 40
0.0
 40
0.0
 40
0.0
 40
36.79645127178594
 40
36.79645127178594
 40
36.79645127178594
 10
-1188.0
 20
68.49697553509891
 30
0.0
 10
-1169.610170935537
 20
67.94119362728588
 30
0.0
 10
-1151.220341871074
 20
67.38541171947287
 30
0.0
  0
SPLINE
  5
1FF
330
1F
100
AcDbEntity
  8
Make2D$visible$lines
100
AcDbSpline
210
0.0
220
0.0
230
1.0
 70
    24
 71
     2
 72
     6
 73
     3
 74
     0
 42
0.000000001
 43
0.0000000001
 40
0.0
 40
0.0
 40
0.0
 40
36.79645127178594
 40
36.79645127178594
 40
36.79645127178594
 10
-1140.0
 20
68.49697553509891
 30
0.0
 10
-1121.610170935537
 20
67.94119362728588
 30
0.0
 10
-1103.220341871074
 20
67.38541171947287
 30
0.0
  0
SPLINE
  5
200
330
1F
100
AcDbEntity
  8
Make2D$visible$lines
100
AcDbSpline
210
0.0
220
0.0
230
1.0
 70
    24
 71
     2
 72
     6
 73
     3
 74
     0
 42
0.000000001
 43
0.0000000001
 40
0.0
 40
0.0
 40
0.0
 40
36.79645127178594
 40
36.79645127178594
 40
36.79645127178594
 10
-1092.0
 20
68.49697553509891
 30
0.0
 10
-1073.610170935537
 20
67.94119362728588
 30
0.0
 10
-1055.220341871074
 20
67.38541171947287
 30
0.0
  0
SPLINE
  5
201
330
1F
100
AcDbEntity
  8
Make2D$visible$lines
100
AcDbSpline
210
0.0
220
0.0
230
1.0
 70
    24
 71
     2
 72
     6
 73
     3
 74
     0
 42
0.000000001
 43
0.0000000001
 40
0.0
 40
0.0
 40
0.0
 40
36.79645127178594
 40
36.79645127178594
 40
36.79645127178594
 10
-1332.0
 20
116.4969755350989
 30
0.0
 10
-1313.610170935537
 20
115.9411936272859
 30
0.0
 10
-1295.220341871074
 20
115.3854117194729
 30
0.0
  0
SPLINE
  5
202
330
1F
100
AcDbEntity
  8
Make2D$visible$lines
100
AcDbSpline
210
0.0
220
0.0
230
1.0
 70
    24
 71
     2
 72
     6
 73
     3
 74
     0
 42
0.000000001
 43
0.0000000001
 40
0.0
 40
0.0
 40
0.0
 40
36.79645127178594
 40
36.79645127178594
 40
36.79645127178594
 10
-1284.0
 20
116.4969755350989
 30
0.0
 10
-1265.610170935537
 20
115.9411936272859
 30
0.0
 10
-1247.220341871074
 20
115.3854117194729
 30
0.0
  0
SPLINE
  5
203
330
1F
100
AcDbEntity
  8
Make2D$visible$lines
100
AcDbSpline
210
0.0
220
0.0
230
1.0
 70
    24
 71
     2
 72
     6
 73
     3
 74
     0
 42
0.000000001
 43
0.0000000001
 40
0.0
 40
0.0
 40
0.0
 40
36.79645127178594
 40
36.79645127178594
 40
36.79645127178594
 10
-1236.0
 20
116.4969755350989
 30
0.0
 10
-1217.610170935537
 20
115.9411936272859
 30
0.0
 10
-1199.220341871074
 20
115.3854117194729
 30
0.0
  0
SPLINE
  5
204
330
1F
100
AcDbEntity
  8
Make2D$visible$lines
100
AcDbSpline
210
0.0
220
0.0
230
1.0
 70
    24
 71
     2
 72
     6
 73
     3
 74
     0
 42
0.000000001
 43
0.0000000001
 40
0.0
 40
0.0
 40
0.0
 40
36.79645127178594
 40
36.79645127178594
 40
36.79645127178594
 10
-1188.0
 20
116.4969755350989
 30
0.0
 10
-1169.610170935537
 20
115.9411936272859
 30
0.0
 10
-1151.220341871074
 20
115.3854117194729
 30
0.0
  0
SPLINE
  5
205
330
1F
100
AcDbEntity
  8
Make2D$visible$lines
100
AcDbSpline
210
0.0
220
0.0
230
1.0
 70
    24
 71
     2
 72
     6
 73
     3
 74
     0
 42
0.000000001
 43
0.0000000001
 40
0.0
 40
0.0
 40
0.0
 40
36.79645127178594
 40
36.79645127178594
 40
36.79645127178594
 10
-1140.0
 20
116.4969755350989
 30
0.0
 10
-1121.610170935537
 20
115.9411936272859
 30
0.0
 10
-1103.220341871074
 20
115.3854117194729
 30
0.0
  0
SPLINE
  5
206
330
1F
100
AcDbEntity
  8
Make2D$visible$lines
100
AcDbSpline
210
0.0
220
0.0
230
1.0
 70
    24
 71
     2
 72
     6
 73
     3
 74
     0
 42
0.000000001
 43
0.0000000001
 40
0.0
 40
0.0
 40
0.0
 40
36.79645127178594
 40
36.79645127178594
 40
36.79645127178594
 10
-1092.0
 20
116.4969755350989
 30
0.0
 10
-1073.610170935537
 20
115.9411936272859
 30
0.0
 10
-1055.220341871074
 20
115.3854117194729
 30
0.0
  0
SPLINE
  5
207
330
1F
100
AcDbEntity
  8
Make2D$visible$lines
100
AcDbSpline
210
0.0
220
0.0
230
1.0
 70
    24
 71
     2
 72
     6
 73
     3
 74
     0
 42
0.000000001
 43
0.0000000001
 40
0.0
 40
0.0
 40
0.0
 40
36.79645127178594
 40
36.79645127178594
 40
36.79645127178594
 10
-1332.0
 20
164.4969755350989
 30
0.0
 10
-1313.610170935537
 20
163.9411936272859
 30
0.0
 10
-1295.220341871074
 20
163.3854117194729
 30
0.0
  0
SPLINE
  5
208
330
1F
100
AcDbEntity
  8
Make2D$visible$lines
100
AcDbSpline
210
0.0
220
0.0
230
1.0
 70
    24
 71
     2
 72
     6
 73
     3
 74
     0
 42
0.000000001
 43
0.0000000001
 40
0.0
 40
0.0
 40
0.0
 40
36.79645127178594
 40
36.79645127178594
 40
36.79645127178594
 10
-1284.0
 20
164.4969755350989
 30
0.0
 10
-1265.610170935537
 20
163.9411936272859
 30
0.0
 10
-1247.220341871074
 20
163.3854117194729
 30
0.0
  0
SPLINE
  5
209
330
1F
100
AcDbEntity
  8
Make2D$visible$lines
100
AcDbSpline
210
0.0
220
0.0
230
1.0
 70
    24
 71
     2
 72
     6
 73
     3
 74
     0
 42
0.000000001
 43
0.0000000001
 40
0.0
 40
0.0
 40
0.0
 40
36.79645127178594
 40
36.79645127178594
 40
36.79645127178594
 10
-1236.0
 20
164.4969755350989
 30
0.0
 10
-1217.610170935537
 20
163.9411936272859
 30
0.0
 10
-1199.220341871074
 20
163.3854117194729
 30
0.0
  0
SPLINE
  5
20A
330
1F
100
AcDbEntity
  8
Make2D$visible$lines
100
AcDbSpline
210
0.0
220
0.0
230
1.0
 70
    24
 71
     2
 72
     6
 73
     3
 74
     0
 42
0.000000001
 43
0.0000000001
 40
0.0
 40
0.0
 40
0.0
 40
36.79645127178594
 40
36.79645127178594
 40
36.79645127178594
 10
-1188.0
 20
164.4969755350989
 30
0.0
 10
-1169.610170935537
 20
163.9411936272859
 30
0.0
 10
-1151.220341871074
 20
163.3854117194729
 30
0.0
  0
SPLINE
  5
20B
330
1F
100
AcDbEntity
  8
Make2D$visible$lines
100
AcDbSpline
210
0.0
220
0.0
230
1.0
 70
    24
 71
     2
 72
     6
 73
     3
 74
     0
 42
0.000000001
 43
0.0000000001
 40
0.0
 40
0.0
 40
0.0
 40
36.79645127178594
 40
36.79645127178594
 40
36.79645127178594
 10
-1140.0
 20
164.4969755350989
 30
0.0
 10
-1121.610170935537
 20
163.9411936272859
 30
0.0
 10
-1103.220341871074
 20
163.3854117194729
 30
0.0
  0
SPLINE
  5
20C
330
1F
100
AcDbEntity
  8
Make2D$visible$lines
100
AcDbSpline
210
0.0
220
0.0
230
1.0
 70
    24
 71
     2
 72
     6
 73
     3
 74
     0
 42
0.000000001
 43
0.0000000001
 40
0.0
 40
0.0
 40
0.0
 40
36.79645127178594
 40
36.79645127178594
 40
36.79645127178594
 10
-1092.0
 20
164.4969755350989
 30
0.0
 10
-1073.610170935537
 20
163.9411936272859
 30
0.0
 10
-1055.220341871074
 20
163.3854117194729
 30
0.0
  0
SPLINE
  5
20D
330
1F
100
AcDbEntity
  8
Make2D$visible$lines
100
AcDbSpline
210
0.0
220
0.0
230
1.0
 70
    24
 71
     2
 72
     6
 73
     3
 74
     0
 42
0.000000001
 43
0.0000000001
 40
0.0
 40
0.0
 40
0.0
 40
42.14583230168429
 40
42.14583230168429
 40
42.14583230168429
 10
-1332.0
 20
20.49697553509891
 30
0.0
 10
-1311.0
 20
22.24848776754946
 30
0.0
 10
-1290.0
 20
24.0
 30
0.0
  0
SPLINE
  5
20E
330
1F
100
AcDbEntity
  8
Make2D$visible$lines
100
AcDbSpline
210
0.0
220
0.0
230
1.0
 70
    24
 71
     2
 72
     6
 73
     3
 74
     0
 42
0.000000001
 43
0.0000000001
 40
0.0
 40
0.0
 40
0.0
 40
42.14583230168429
 40
42.14583230168429
 40
42.14583230168429
 10
-1284.0
 20
20.49697553509891
 30
0.0
 10
-1263.0
 20
22.24848776754946
 30
0.0
 10
-1242.0
 20
24.0
 30
0.0
  0
SPLINE
  5
20F
330
1F
100
AcDbEntity
  8
Make2D$visible$lines
100
AcDbSpline
210
0.0
220
0.0
230
1.0
 70
    24
 71
     2
 72
     6
 73
     3
 74
     0
 42
0.000000001
 43
0.0000000001
 40
0.0
 40
0.0
 40
0.0
 40
42.14583230168429
 40
42.14583230168429
 40
42.14583230168429
 10
-1236.0
 20
20.49697553509891
 30
0.0
 10
-1215.0
 20
22.24848776754946
 30
0.0
 10
-1194.0
 20
24.0
 30
0.0
  0
SPLINE
  5
210
330
1F
100
AcDbEntity
  8
Make2D$visible$lines
100
AcDbSpline
210
0.0
220
0.0
230
1.0
 70
    24
 71
     2
 72
     6
 73
     3
 74
     0
 42
0.000000001
 43
0.0000000001
 40
0.0
 40
0.0
 40
0.0
 40
42.14583230168429
 40
42.14583230168429
 40
42.14583230168429
 10
-1188.0
 20
20.49697553509891
 30
0.0
 10
-1167.0
 20
22.24848776754946
 30
0.0
 10
-1146.0
 20
24.0
 30
0.0
  0
SPLINE
  5
211
330
1F
100
AcDbEntity
  8
Make2D$visible$lines
100
AcDbSpline
210
0.0
220
0.0
230
1.0
 70
    24
 71
     2
 72
     6
 73
     3
 74
     0
 42
0.000000001
 43
0.0000000001
 40
0.0
 40
0.0
 40
0.0
 40
42.14583230168429
 40
42.14583230168429
 40
42.14583230168429
 10
-1140.0
 20
20.49697553509891
 30
0.0
 10
-1119.0
 20
22.24848776754946
 30
0.0
 10
-1098.0
 20
24.0
 30
0.0
  0
SPLINE
  5
212
330
1F
100
AcDbEntity
  8
Make2D$visible$lines
100
AcDbSpline
210
0.0
220
0.0
230
1.0
 70
    24
 71
     2
 72
     6
 73
     3
 74
     0
 42
0.000000001
 43
0.0000000001
 40
0.0
 40
0.0
 40
0.0
 40
42.14583230168429
 40
42.14583230168429
 40
42.14583230168429
 10
-1092.0
 20
20.49697553509891
 30
0.0
 10
-1071.0
 20
22.24848776754946
 30
0.0
 10
-1050.0
 20
24.0
 30
0.0
  0
SPLINE
  5
213
330
1F
100
AcDbEntity
  8
Make2D$visible$lines
100
AcDbSpline
210
0.0
220
0.0
230
1.0
 70
    24
 71
     2
 72
     6
 73
     3
 74
     0
 42
0.000000001
 43
0.0000000001
 40
0.0
 40
0.0
 40
0.0
 40
42.14583230168429
 40
42.14583230168429
 40
42.14583230168429
 10
-1332.0
 20
68.49697553509891
 30
0.0
 10
-1311.0
 20
70.24848776754945
 30
0.0
 10
-1290.0
 20
72.0
 30
0.0
  0
SPLINE
  5
214
330
1F
100
AcDbEntity
  8
Make2D$visible$lines
100
AcDbSpline
210
0.0
220
0.0
230
1.0
 70
    24
 71
     2
 72
     6
 73
     3
 74
     0
 42
0.000000001
 43
0.0000000001
 40
0.0
 40
0.0
 40
0.0
 40
42.14583230168429
 40
42.14583230168429
 40
42.14583230168429
 10
-1284.0
 20
68.49697553509891
 30
0.0
 10
-1263.0
 20
70.24848776754945
 30
0.0
 10
-1242.0
 20
72.0
 30
0.0
  0
SPLINE
  5
215
330
1F
100
AcDbEntity
  8
Make2D$visible$lines
100
AcDbSpline
210
0.0
220
0.0
230
1.0
 70
    24
 71
     2
 72
     6
 73
     3
 74
     0
 42
0.000000001
 43
0.0000000001
 40
0.0
 40
0.0
 40
0.0
 40
42.14583230168429
 40
42.14583230168429
 40
42.14583230168429
 10
-1236.0
 20
68.49697553509891
 30
0.0
 10
-1215.0
 20
70.24848776754945
 30
0.0
 10
-1194.0
 20
72.0
 30
0.0
  0
SPLINE
  5
216
330
1F
100
AcDbEntity
  8
Make2D$visible$lines
100
AcDbSpline
210
0.0
220
0.0
230
1.0
 70
    24
 71
     2
 72
     6
 73
     3
 74
     0
 42
0.000000001
 43
0.0000000001
 40
0.0
 40
0.0
 40
0.0
 40
42.14583230168429
 40
42.14583230168429
 40
42.14583230168429
 10
-1188.0
 20
68.49697553509891
 30
0.0
 10
-1167.0
 20
70.24848776754945
 30
0.0
 10
-1146.0
 20
72.0
 30
0.0
  0
SPLINE
  5
217
330
1F
100
AcDbEntity
  8
Make2D$visible$lines
100
AcDbSpline
210
0.0
220
0.0
230
1.0
 70
    24
 71
     2
 72
     6
 73
     3
 74
     0
 42
0.000000001
 43
0.0000000001
 40
0.0
 40
0.0
 40
0.0
 40
42.14583230168429
 40
42.14583230168429
 40
42.14583230168429
 10
-1140.0
 20
68.49697553509891
 30
0.0
 10
-1119.0
 20
70.24848776754945
 30
0.0
 10
-1098.0
 20
72.0
 30
0.0
  0
SPLINE
  5
218
330
1F
100
AcDbEntity
  8
Make2D$visible$lines
100
AcDbSpline
210
0.0
220
0.0
230
1.0
 70
    24
 71
     2
 72
     6
 73
     3
 74
     0
 42
0.000000001
 43
0.0000000001
 40
0.0
 40
0.0
 40
0.0
 40
42.14583230168429
 40
42.14583230168429
 40
42.14583230168429
 10
-1092.0
 20
68.49697553509891
 30
0.0
 10
-1071.0
 20
70.24848776754945
 30
0.0
 10
-1050.0
 20
72.0
 30
0.0
  0
SPLINE
  5
219
330
1F
100
AcDbEntity
  8
Make2D$visible$lines
100
AcDbSpline
210
0.0
220
0.0
230
1.0
 70
    24
 71
     2
 72
     6
 73
     3
 74
     0
 42
0.000000001
 43
0.0000000001
 40
0.0
 40
0.0
 40
0.0
 40
42.14583230168429
 40
42.14583230168429
 40
42.14583230168429
 10
-1332.0
 20
116.4969755350989
 30
0.0
 10
-1311.0
 20
118.2484877675495
 30
0.0
 10
-1290.0
 20
120.0
 30
0.0
  0
SPLINE
  5
21A
330
1F
100
AcDbEntity
  8
Make2D$visible$lines
100
AcDbSpline
210
0.0
220
0.0
230
1.0
 70
    24
 71
     2
 72
     6
 73
     3
 74
     0
 42
0.000000001
 43
0.0000000001
 40
0.0
 40
0.0
 40
0.0
 40
42.14583230168429
 40
42.14583230168429
 40
42.14583230168429
 10
-1284.0
 20
116.4969755350989
 30
0.0
 10
-1263.0
 20
118.2484877675495
 30
0.0
 10
-1242.0
 20
120.0
 30
0.0
  0
SPLINE
  5
21B
330
1F
100
AcDbEntity
  8
Make2D$visible$lines
100
AcDbSpline
210
0.0
220
0.0
230
1.0
 70
    24
 71
     2
 72
     6
 73
     3
 74
     0
 42
0.000000001
 43
0.0000000001
 40
0.0
 40
0.0
 40
0.0
 40
42.14583230168429
 40
42.14583230168429
 40
42.14583230168429
 10
-1236.0
 20
116.4969755350989
 30
0.0
 10
-1215.0
 20
118.2484877675495
 30
0.0
 10
-1194.0
 20
120.0
 30
0.0
  0
SPLINE
  5
21C
330
1F
100
AcDbEntity
  8
Make2D$visible$lines
100
AcDbSpline
210
0.0
220
0.0
230
1.0
 70
    24
 71
     2
 72
     6
 73
     3
 74
     0
 42
0.000000001
 43
0.0000000001
 40
0.0
 40
0.0
 40
0.0
 40
42.14583230168429
 40
42.14583230168429
 40
42.14583230168429
 10
-1188.0
 20
116.4969755350989
 30
0.0
 10
-1167.0
 20
118.2484877675495
 30
0.0
 10
-1146.0
 20
120.0
 30
0.0
  0
SPLINE
  5
21D
330
1F
100
AcDbEntity
  8
Make2D$visible$lines
100
AcDbSpline
210
0.0
220
0.0
230
1.0
 70
    24
 71
     2
 72
     6
 73
     3
 74
     0
 42
0.000000001
 43
0.0000000001
 40
0.0
 40
0.0
 40
0.0
 40
42.14583230168429
 40
42.14583230168429
 40
42.14583230168429
 10
-1140.0
 20
116.4969755350989
 30
0.0
 10
-1119.0
 20
118.2484877675495
 30
0.0
 10
-1098.0
 20
120.0
 30
0.0
  0
SPLINE
  5
21E
330
1F
100
AcDbEntity
  8
Make2D$visible$lines
100
AcDbSpline
210
0.0
220
0.0
230
1.0
 70
    24
 71
     2
 72
     6
 73
     3
 74
     0
 42
0.000000001
 43
0.0000000001
 40
0.0
 40
0.0
 40
0.0
 40
42.14583230168429
 40
42.14583230168429
 40
42.14583230168429
 10
-1092.0
 20
116.4969755350989
 30
0.0
 10
-1071.0
 20
118.2484877675495
 30
0.0
 10
-1050.0
 20
120.0
 30
0.0
  0
SPLINE
  5
21F
330
1F
100
AcDbEntity
  8
Make2D$visible$lines
100
AcDbSpline
210
0.0
220
0.0
230
1.0
 70
    24
 71
     2
 72
     6
 73
     3
 74
     0
 42
0.000000001
 43
0.0000000001
 40
0.0
 40
0.0
 40
0.0
 40
42.14583230168429
 40
42.14583230168429
 40
42.14583230168429
 10
-1332.0
 20
164.4969755350989
 30
0.0
 10
-1311.0
 20
166.2484877675494
 30
0.0
 10
-1290.0
 20
168.0
 30
0.0
  0
SPLINE
  5
220
330
1F
100
AcDbEntity
  8
Make2D$visible$lines
100
AcDbSpline
210
0.0
220
0.0
230
1.0
 70
    24
 71
     2
 72
     6
 73
     3
 74
     0
 42
0.000000001
 43
0.0000000001
 40
0.0
 40
0.0
 40
0.0
 40
42.14583230168429
 40
42.14583230168429
 40
42.14583230168429
 10
-1284.0
 20
164.4969755350989
 30
0.0
 10
-1263.0
 20
166.2484877675494
 30
0.0
 10
-1242.0
 20
168.0
 30
0.0
  0
SPLINE
  5
221
330
1F
100
AcDbEntity
  8
Make2D$visible$lines
100
AcDbSpline
210
0.0
220
0.0
230
1.0
 70
    24
 71
     2
 72
     6
 73
     3
 74
     0
 42
0.000000001
 43
0.0000000001
 40
0.0
 40
0.0
 40
0.0
 40
42.14583230168429
 40
42.14583230168429
 40
42.14583230168429
 10
-1236.0
 20
164.4969755350989
 30
0.0
 10
-1215.0
 20
166.2484877675494
 30
0.0
 10
-1194.0
 20
168.0
 30
0.0
  0
SPLINE
  5
222
330
1F
100
AcDbEntity
  8
Make2D$visible$lines
100
AcDbSpline
210
0.0
220
0.0
230
1.0
 70
    24
 71
     2
 72
     6
 73
     3
 74
     0
 42
0.000000001
 43
0.0000000001
 40
0.0
 40
0.0
 40
0.0
 40
42.14583230168429
 40
42.14583230168429
 40
42.14583230168429
 10
-1188.0
 20
164.4969755350989
 30
0.0
 10
-1167.0
 20
166.2484877675494
 30
0.0
 10
-1146.0
 20
168.0
 30
0.0
  0
SPLINE
  5
223
330
1F
100
AcDbEntity
  8
Make2D$visible$lines
100
AcDbSpline
210
0.0
220
0.0
230
1.0
 70
    24
 71
     2
 72
     6
 73
     3
 74
     0
 42
0.000000001
 43
0.0000000001
 40
0.0
 40
0.0
 40
0.0
 40
42.14583230168429
 40
42.14583230168429
 40
42.14583230168429
 10
-1140.0
 20
164.4969755350989
 30
0.0
 10
-1119.0
 20
166.2484877675494
 30
0.0
 10
-1098.0
 20
168.0
 30
0.0
  0
SPLINE
  5
224
330
1F
100
AcDbEntity
  8
Make2D$visible$lines
100
AcDbSpline
210
0.0
220
0.0
230
1.0
 70
    24
 71
     2
 72
     6
 73
     3
 74
     0
 42
0.000000001
 43
0.0000000001
 40
0.0
 40
0.0
 40
0.0
 40
42.14583230168429
 40
42.14583230168429
 40
42.14583230168429
 10
-1092.0
 20
164.4969755350989
 30
0.0
 10
-1071.0
 20
166.2484877675494
 30
0.0
 10
-1050.0
 20
168.0
 30
0.0
  0
SPLINE
  5
225
330
1F
100
AcDbEntity
  8
Make2D$visible$lines
100
AcDbSpline
210
0.0
220
0.0
230
1.0
 70
    24
 71
     2
 72
     6
 73
     3
 74
     0
 42
0.000000001
 43
0.0000000001
 40
0.0
 40
0.0
 40
0.0
 40
48.0
 40
48.0
 40
48.0
 10
-1338.0
 20
24.0
 30
0.0
 10
-1314.0
 20
24.0
 30
0.0
 10
-1290.0
 20
24.0
 30
0.0
  0
SPLINE
  5
226
330
1F
100
AcDbEntity
  8
Make2D$visible$lines
100
AcDbSpline
210
0.0
220
0.0
230
1.0
 70
    24
 71
     2
 72
     6
 73
     3
 74
     0
 42
0.000000001
 43
0.0000000001
 40
0.0
 40
0.0
 40
0.0
 40
48.0
 40
48.0
 40
48.0
 10
-1290.0
 20
24.0
 30
0.0
 10
-1266.0
 20
24.0
 30
0.0
 10
-1242.0
 20
24.0
 30
0.0
  0
SPLINE
  5
227
330
1F
100
AcDbEntity
  8
Make2D$visible$lines
100
AcDbSpline
210
0.0
220
0.0
230
1.0
 70
    24
 71
     2
 72
     6
 73
     3
 74
     0
 42
0.000000001
 43
0.0000000001
 40
0.0
 40
0.0
 40
0.0
 40
48.0
 40
48.0
 40
48.0
 10
-1242.0
 20
24.0
 30
0.0
 10
-1218.0
 20
24.0
 30
0.0
 10
-1194.0
 20
24.0
 30
0.0
  0
SPLINE
  5
228
330
1F
100
AcDbEntity
  8
Make2D$visible$lines
100
AcDbSpline
210
0.0
220
0.0
230
1.0
 70
    24
 71
     2
 72
     6
 73
     3
 74
     0
 42
0.000000001
 43
0.0000000001
 40
0.0
 40
0.0
 40
0.0
 40
48.0
 40
48.0
 40
48.0
 10
-1194.0
 20
24.0
 30
0.0
 10
-1170.0
 20
24.0
 30
0.0
 10
-1146.0
 20
24.0
 30
0.0
  0
SPLINE
  5
229
330
1F
100
AcDbEntity
  8
Make2D$visible$lines
100
AcDbSpline
210
0.0
220
0.0
230
1.0
 70
    24
 71
     2
 72
     6
 73
     3
 74
     0
 42
0.000000001
 43
0.0000000001
 40
0.0
 40
0.0
 40
0.0
 40
48.0
 40
48.0
 40
48.0
 10
-1146.0
 20
24.0
 30
0.0
 10
-1122.0
 20
24.0
 30
0.0
 10
-1098.0
 20
24.0
 30
0.0
  0
SPLINE
  5
22A
330
1F
100
AcDbEntity
  8
Make2D$visible$lines
100
AcDbSpline
210
0.0
220
0.0
230
1.0
 70
    24
 71
     2
 72
     6
 73
     3
 74
     0
 42
0.000000001
 43
0.0000000001
 40
0.0
 40
0.0
 40
0.0
 40
48.0
 40
48.0
 40
48.0
 10
-1098.0
 20
24.0
 30
0.0
 10
-1074.0
 20
24.0
 30
0.0
 10
-1050.0
 20
24.0
 30
0.0
  0
SPLINE
  5
22B
330
1F
100
AcDbEntity
  8
Make2D$visible$lines
100
AcDbSpline
210
0.0
220
0.0
230
1.0
 70
    24
 71
     2
 72
     6
 73
     3
 74
     0
 42
0.000000001
 43
0.0000000001
 40
0.0
 40
0.0
 40
0.0
 40
48.0
 40
48.0
 40
48.0
 10
-1338.0
 20
72.0
 30
0.0
 10
-1314.0
 20
72.0
 30
0.0
 10
-1290.0
 20
72.0
 30
0.0
  0
SPLINE
  5
22C
330
1F
100
AcDbEntity
  8
Make2D$visible$lines
100
AcDbSpline
210
0.0
220
0.0
230
1.0
 70
    24
 71
     2
 72
     6
 73
     3
 74
     0
 42
0.000000001
 43
0.0000000001
 40
0.0
 40
0.0
 40
0.0
 40
48.0
 40
48.0
 40
48.0
 10
-1290.0
 20
72.0
 30
0.0
 10
-1266.0
 20
72.0
 30
0.0
 10
-1242.0
 20
72.0
 30
0.0
  0
SPLINE
  5
22D
330
1F
100
AcDbEntity
  8
Make2D$visible$lines
100
AcDbSpline
210
0.0
220
0.0
230
1.0
 70
    24
 71
     2
 72
     6
 73
     3
 74
     0
 42
0.000000001
 43
0.0000000001
 40
0.0
 40
0.0
 40
0.0
 40
48.0
 40
48.0
 40
48.0
 10
-1242.0
 20
72.0
 30
0.0
 10
-1218.0
 20
72.0
 30
0.0
 10
-1194.0
 20
72.0
 30
0.0
  0
SPLINE
  5
22E
330
1F
100
AcDbEntity
  8
Make2D$visible$lines
100
AcDbSpline
210
0.0
220
0.0
230
1.0
 70
    24
 71
     2
 72
     6
 73
     3
 74
     0
 42
0.000000001
 43
0.0000000001
 40
0.0
 40
0.0
 40
0.0
 40
48.0
 40
48.0
 40
48.0
 10
-1194.0
 20
72.0
 30
0.0
 10
-1170.0
 20
72.0
 30
0.0
 10
-1146.0
 20
72.0
 30
0.0
  0
SPLINE
  5
22F
330
1F
100
AcDbEntity
  8
Make2D$visible$lines
100
AcDbSpline
210
0.0
220
0.0
230
1.0
 70
    24
 71
     2
 72
     6
 73
     3
 74
     0
 42
0.000000001
 43
0.0000000001
 40
0.0
 40
0.0
 40
0.0
 40
48.0
 40
48.0
 40
48.0
 10
-1146.0
 20
72.0
 30
0.0
 10
-1122.0
 20
72.0
 30
0.0
 10
-1098.0
 20
72.0
 30
0.0
  0
SPLINE
  5
230
330
1F
100
AcDbEntity
  8
Make2D$visible$lines
100
AcDbSpline
210
0.0
220
0.0
230
1.0
 70
    24
 71
     2
 72
     6
 73
     3
 74
     0
 42
0.000000001
 43
0.0000000001
 40
0.0
 40
0.0
 40
0.0
 40
48.0
 40
48.0
 40
48.0
 10
-1098.0
 20
72.0
 30
0.0
 10
-1074.0
 20
72.0
 30
0.0
 10
-1050.0
 20
72.0
 30
0.0
  0
SPLINE
  5
231
330
1F
100
AcDbEntity
  8
Make2D$visible$lines
100
AcDbSpline
210
0.0
220
0.0
230
1.0
 70
    24
 71
     2
 72
     6
 73
     3
 74
     0
 42
0.000000001
 43
0.0000000001
 40
0.0
 40
0.0
 40
0.0
 40
48.0
 40
48.0
 40
48.0
 10
-1338.0
 20
120.0
 30
0.0
 10
-1314.0
 20
120.0
 30
0.0
 10
-1290.0
 20
120.0
 30
0.0
  0
SPLINE
  5
232
330
1F
100
AcDbEntity
  8
Make2D$visible$lines
100
AcDbSpline
210
0.0
220
0.0
230
1.0
 70
    24
 71
     2
 72
     6
 73
     3
 74
     0
 42
0.000000001
 43
0.0000000001
 40
0.0
 40
0.0
 40
0.0
 40
48.0
 40
48.0
 40
48.0
 10
-1290.0
 20
120.0
 30
0.0
 10
-1266.0
 20
120.0
 30
0.0
 10
-1242.0
 20
120.0
 30
0.0
  0
SPLINE
  5
233
330
1F
100
AcDbEntity
  8
Make2D$visible$lines
100
AcDbSpline
210
0.0
220
0.0
230
1.0
 70
    24
 71
     2
 72
     6
 73
     3
 74
     0
 42
0.000000001
 43
0.0000000001
 40
0.0
 40
0.0
 40
0.0
 40
48.0
 40
48.0
 40
48.0
 10
-1242.0
 20
120.0
 30
0.0
 10
-1218.0
 20
120.0
 30
0.0
 10
-1194.0
 20
120.0
 30
0.0
  0
SPLINE
  5
234
330
1F
100
AcDbEntity
  8
Make2D$visible$lines
100
AcDbSpline
210
0.0
220
0.0
230
1.0
 70
    24
 71
     2
 72
     6
 73
     3
 74
     0
 42
0.000000001
 43
0.0000000001
 40
0.0
 40
0.0
 40
0.0
 40
48.0
 40
48.0
 40
48.0
 10
-1194.0
 20
120.0
 30
0.0
 10
-1170.0
 20
120.0
 30
0.0
 10
-1146.0
 20
120.0
 30
0.0
  0
SPLINE
  5
235
330
1F
100
AcDbEntity
  8
Make2D$visible$lines
100
AcDbSpline
210
0.0
220
0.0
230
1.0
 70
    24
 71
     2
 72
     6
 73
     3
 74
     0
 42
0.000000001
 43
0.0000000001
 40
0.0
 40
0.0
 40
0.0
 40
48.0
 40
48.0
 40
48.0
 10
-1146.0
 20
120.0
 30
0.0
 10
-1122.0
 20
120.0
 30
0.0
 10
-1098.0
 20
120.0
 30
0.0
  0
SPLINE
  5
236
330
1F
100
AcDbEntity
  8
Make2D$visible$lines
100
AcDbSpline
210
0.0
220
0.0
230
1.0
 70
    24
 71
     2
 72
     6
 73
     3
 74
     0
 42
0.000000001
 43
0.0000000001
 40
0.0
 40
0.0
 40
0.0
 40
48.0
 40
48.0
 40
48.0
 10
-1098.0
 20
120.0
 30
0.0
 10
-1074.0
 20
120.0
 30
0.0
 10
-1050.0
 20
120.0
 30
0.0
  0
SPLINE
  5
237
330
1F
100
AcDbEntity
  8
Make2D$visible$lines
100
AcDbSpline
210
0.0
220
0.0
230
1.0
 70
    24
 71
     2
 72
     6
 73
     3
 74
     0
 42
0.000000001
 43
0.0000000001
 40
0.0
 40
0.0
 40
0.0
 40
48.0
 40
48.0
 40
48.0
 10
-1338.0
 20
168.0
 30
0.0
 10
-1314.0
 20
168.0
 30
0.0
 10
-1290.0
 20
168.0
 30
0.0
  0
SPLINE
  5
238
330
1F
100
AcDbEntity
  8
Make2D$visible$lines
100
AcDbSpline
210
0.0
220
0.0
230
1.0
 70
    24
 71
     2
 72
     6
 73
     3
 74
     0
 42
0.000000001
 43
0.0000000001
 40
0.0
 40
0.0
 40
0.0
 40
48.0
 40
48.0
 40
48.0
 10
-1290.0
 20
168.0
 30
0.0
 10
-1266.0
 20
168.0
 30
0.0
 10
-1242.0
 20
168.0
 30
0.0
  0
SPLINE
  5
239
330
1F
100
AcDbEntity
  8
Make2D$visible$lines
100
AcDbSpline
210
0.0
220
0.0
230
1.0
 70
    24
 71
     2
 72
     6
 73
     3
 74
     0
 42
0.000000001
 43
0.0000000001
 40
0.0
 40
0.0
 40
0.0
 40
48.0
 40
48.0
 40
48.0
 10
-1242.0
 20
168.0
 30
0.0
 10
-1218.0
 20
168.0
 30
0.0
 10
-1194.0
 20
168.0
 30
0.0
  0
SPLINE
  5
23A
330
1F
100
AcDbEntity
  8
Make2D$visible$lines
100
AcDbSpline
210
0.0
220
0.0
230
1.0
 70
    24
 71
     2
 72
     6
 73
     3
 74
     0
 42
0.000000001
 43
0.0000000001
 40
0.0
 40
0.0
 40
0.0
 40
48.0
 40
48.0
 40
48.0
 10
-1194.0
 20
168.0
 30
0.0
 10
-1170.0
 20
168.0
 30
0.0
 10
-1146.0
 20
168.0
 30
0.0
  0
SPLINE
  5
23B
330
1F
100
AcDbEntity
  8
Make2D$visible$lines
100
AcDbSpline
210
0.0
220
0.0
230
1.0
 70
    24
 71
     2
 72
     6
 73
     3
 74
     0
 42
0.000000001
 43
0.0000000001
 40
0.0
 40
0.0
 40
0.0
 40
48.0
 40
48.0
 40
48.0
 10
-1146.0
 20
168.0
 30
0.0
 10
-1122.0
 20
168.0
 30
0.0
 10
-1098.0
 20
168.0
 30
0.0
  0
SPLINE
  5
23C
330
1F
100
AcDbEntity
  8
Make2D$visible$lines
100
AcDbSpline
210
0.0
220
0.0
230
1.0
 70
    24
 71
     2
 72
     6
 73
     3
 74
     0
 42
0.000000001
 43
0.0000000001
 40
0.0
 40
0.0
 40
0.0
 40
48.0
 40
48.0
 40
48.0
 10
-1098.0
 20
168.0
 30
0.0
 10
-1074.0
 20
168.0
 30
0.0
 10
-1050.0
 20
168.0
 30
0.0
  0
SPLINE
  5
23D
330
1F
100
AcDbEntity
  8
Make2D$visible$lines
100
AcDbSpline
210
0.0
220
0.0
230
1.0
 70
    24
 71
     2
 72
     6
 73
     3
 74
     0
 42
0.000000001
 43
0.0000000001
 40
0.0
 40
0.0
 40
0.0
 40
6.96752425540533
 40
6.96752425540533
 40
6.96752425540533
 10
-1295.220341871074
 20
19.38541171947288
 30
0.0
 10
-1292.610170935537
 20
21.69270585973644
 30
0.0
 10
-1290.0
 20
24.0
 30
0.0
  0
SPLINE
  5
23E
330
1F
100
AcDbEntity
  8
Make2D$visible$lines
100
AcDbSpline
210
0.0
220
0.0
230
1.0
 70
    24
 71
     2
 72
     6
 73
     3
 74
     0
 42
0.000000001
 43
0.0000000001
 40
0.0
 40
0.0
 40
0.0
 40
6.96752425540533
 40
6.96752425540533
 40
6.96752425540533
 10
-1247.220341871074
 20
19.38541171947288
 30
0.0
 10
-1244.610170935537
 20
21.69270585973644
 30
0.0
 10
-1242.0
 20
24.0
 30
0.0
  0
SPLINE
  5
23F
330
1F
100
AcDbEntity
  8
Make2D$visible$lines
100
AcDbSpline
210
0.0
220
0.0
230
1.0
 70
    24
 71
     2
 72
     6
 73
     3
 74
     0
 42
0.000000001
 43
0.0000000001
 40
0.0
 40
0.0
 40
0.0
 40
6.96752425540533
 40
6.96752425540533
 40
6.96752425540533
 10
-1199.220341871074
 20
19.38541171947288
 30
0.0
 10
-1196.610170935537
 20
21.69270585973644
 30
0.0
 10
-1194.0
 20
24.0
 30
0.0
  0
SPLINE
  5
240
330
1F
100
AcDbEntity
  8
Make2D$visible$lines
100
AcDbSpline
210
0.0
220
0.0
230
1.0
 70
    24
 71
     2
 72
     6
 73
     3
 74
     0
 42
0.000000001
 43
0.0000000001
 40
0.0
 40
0.0
 40
0.0
 40
6.96752425540533
 40
6.96752425540533
 40
6.96752425540533
 10
-1151.220341871074
 20
19.38541171947288
 30
0.0
 10
-1148.610170935537
 20
21.69270585973644
 30
0.0
 10
-1146.0
 20
24.0
 30
0.0
  0
SPLINE
  5
241
330
1F
100
AcDbEntity
  8
Make2D$visible$lines
100
AcDbSpline
210
0.0
220
0.0
230
1.0
 70
    24
 71
     2
 72
     6
 73
     3
 74
     0
 42
0.000000001
 43
0.0000000001
 40
0.0
 40
0.0
 40
0.0
 40
6.96752425540533
 40
6.96752425540533
 40
6.96752425540533
 10
-1103.220341871074
 20
19.38541171947288
 30
0.0
 10
-1100.610170935537
 20
21.69270585973644
 30
0.0
 10
-1098.0
 20
24.0
 30
0.0
  0
SPLINE
  5
242
330
1F
100
AcDbEntity
  8
Make2D$visible$lines
100
AcDbSpline
210
0.0
220
0.0
230
1.0
 70
    24
 71
     2
 72
     6
 73
     3
 74
     0
 42
0.000000001
 43
0.0000000001
 40
0.0
 40
0.0
 40
0.0
 40
6.96752425540533
 40
6.96752425540533
 40
6.96752425540533
 10
-1055.220341871074
 20
19.38541171947288
 30
0.0
 10
-1052.610170935537
 20
21.69270585973644
 30
0.0
 10
-1050.0
 20
24.0
 30
0.0
  0
SPLINE
  5
243
330
1F
100
AcDbEntity
  8
Make2D$visible$lines
100
AcDbSpline
210
0.0
220
0.0
230
1.0
 70
    24
 71
     2
 72
     6
 73
     3
 74
     0
 42
0.000000001
 43
0.0000000001
 40
0.0
 40
0.0
 40
0.0
 40
6.967524255405334
 40
6.967524255405334
 40
6.967524255405334
 10
-1295.220341871074
 20
67.38541171947287
 30
0.0
 10
-1292.610170935537
 20
69.69270585973644
 30
0.0
 10
-1290.0
 20
72.0
 30
0.0
  0
SPLINE
  5
244
330
1F
100
AcDbEntity
  8
Make2D$visible$lines
100
AcDbSpline
210
0.0
220
0.0
230
1.0
 70
    24
 71
     2
 72
     6
 73
     3
 74
     0
 42
0.000000001
 43
0.0000000001
 40
0.0
 40
0.0
 40
0.0
 40
6.967524255405334
 40
6.967524255405334
 40
6.967524255405334
 10
-1247.220341871074
 20
67.38541171947287
 30
0.0
 10
-1244.610170935537
 20
69.69270585973644
 30
0.0
 10
-1242.0
 20
72.0
 30
0.0
  0
SPLINE
  5
245
330
1F
100
AcDbEntity
  8
Make2D$visible$lines
100
AcDbSpline
210
0.0
220
0.0
230
1.0
 70
    24
 71
     2
 72
     6
 73
     3
 74
     0
 42
0.000000001
 43
0.0000000001
 40
0.0
 40
0.0
 40
0.0
 40
6.967524255405334
 40
6.967524255405334
 40
6.967524255405334
 10
-1199.220341871074
 20
67.38541171947287
 30
0.0
 10
-1196.610170935537
 20
69.69270585973644
 30
0.0
 10
-1194.0
 20
72.0
 30
0.0
  0
SPLINE
  5
246
330
1F
100
AcDbEntity
  8
Make2D$visible$lines
100
AcDbSpline
210
0.0
220
0.0
230
1.0
 70
    24
 71
     2
 72
     6
 73
     3
 74
     0
 42
0.000000001
 43
0.0000000001
 40
0.0
 40
0.0
 40
0.0
 40
6.967524255405334
 40
6.967524255405334
 40
6.967524255405334
 10
-1151.220341871074
 20
67.38541171947287
 30
0.0
 10
-1148.610170935537
 20
69.69270585973644
 30
0.0
 10
-1146.0
 20
72.0
 30
0.0
  0
SPLINE
  5
247
330
1F
100
AcDbEntity
  8
Make2D$visible$lines
100
AcDbSpline
210
0.0
220
0.0
230
1.0
 70
    24
 71
     2
 72
     6
 73
     3
 74
     0
 42
0.000000001
 43
0.0000000001
 40
0.0
 40
0.0
 40
0.0
 40
6.967524255405334
 40
6.967524255405334
 40
6.967524255405334
 10
-1103.220341871074
 20
67.38541171947287
 30
0.0
 10
-1100.610170935537
 20
69.69270585973644
 30
0.0
 10
-1098.0
 20
72.0
 30
0.0
  0
SPLINE
  5
248
330
1F
100
AcDbEntity
  8
Make2D$visible$lines
100
AcDbSpline
210
0.0
220
0.0
230
1.0
 70
    24
 71
     2
 72
     6
 73
     3
 74
     0
 42
0.000000001
 43
0.0000000001
 40
0.0
 40
0.0
 40
0.0
 40
6.967524255405334
 40
6.967524255405334
 40
6.967524255405334
 10
-1055.220341871074
 20
67.38541171947287
 30
0.0
 10
-1052.610170935537
 20
69.69270585973644
 30
0.0
 10
-1050.0
 20
72.0
 30
0.0
  0
SPLINE
  5
249
330
1F
100
AcDbEntity
  8
Make2D$visible$lines
100
AcDbSpline
210
0.0
220
0.0
230
1.0
 70
    24
 71
     2
 72
     6
 73
     3
 74
     0
 42
0.000000001
 43
0.0000000001
 40
0.0
 40
0.0
 40
0.0
 40
6.967524255405334
 40
6.967524255405334
 40
6.967524255405334
 10
-1295.220341871074
 20
115.3854117194729
 30
0.0
 10
-1292.610170935537
 20
117.6927058597364
 30
0.0
 10
-1290.0
 20
120.0
 30
0.0
  0
SPLINE
  5
24A
330
1F
100
AcDbEntity
  8
Make2D$visible$lines
100
AcDbSpline
210
0.0
220
0.0
230
1.0
 70
    24
 71
     2
 72
     6
 73
     3
 74
     0
 42
0.000000001
 43
0.0000000001
 40
0.0
 40
0.0
 40
0.0
 40
6.967524255405334
 40
6.967524255405334
 40
6.967524255405334
 10
-1247.220341871074
 20
115.3854117194729
 30
0.0
 10
-1244.610170935537
 20
117.6927058597364
 30
0.0
 10
-1242.0
 20
120.0
 30
0.0
  0
SPLINE
  5
24B
330
1F
100
AcDbEntity
  8
Make2D$visible$lines
100
AcDbSpline
210
0.0
220
0.0
230
1.0
 70
    24
 71
     2
 72
     6
 73
     3
 74
     0
 42
0.000000001
 43
0.0000000001
 40
0.0
 40
0.0
 40
0.0
 40
6.967524255405334
 40
6.967524255405334
 40
6.967524255405334
 10
-1199.220341871074
 20
115.3854117194729
 30
0.0
 10
-1196.610170935537
 20
117.6927058597364
 30
0.0
 10
-1194.0
 20
120.0
 30
0.0
  0
SPLINE
  5
24C
330
1F
100
AcDbEntity
  8
Make2D$visible$lines
100
AcDbSpline
210
0.0
220
0.0
230
1.0
 70
    24
 71
     2
 72
     6
 73
     3
 74
     0
 42
0.000000001
 43
0.0000000001
 40
0.0
 40
0.0
 40
0.0
 40
6.967524255405334
 40
6.967524255405334
 40
6.967524255405334
 10
-1151.220341871074
 20
115.3854117194729
 30
0.0
 10
-1148.610170935537
 20
117.6927058597364
 30
0.0
 10
-1146.0
 20
120.0
 30
0.0
  0
SPLINE
  5
24D
330
1F
100
AcDbEntity
  8
Make2D$visible$lines
100
AcDbSpline
210
0.0
220
0.0
230
1.0
 70
    24
 71
     2
 72
     6
 73
     3
 74
     0
 42
0.000000001
 43
0.0000000001
 40
0.0
 40
0.0
 40
0.0
 40
6.967524255405334
 40
6.967524255405334
 40
6.967524255405334
 10
-1103.220341871074
 20
115.3854117194729
 30
0.0
 10
-1100.610170935537
 20
117.6927058597364
 30
0.0
 10
-1098.0
 20
120.0
 30
0.0
  0
SPLINE
  5
24E
330
1F
100
AcDbEntity
  8
Make2D$visible$lines
100
AcDbSpline
210
0.0
220
0.0
230
1.0
 70
    24
 71
     2
 72
     6
 73
     3
 74
     0
 42
0.000000001
 43
0.0000000001
 40
0.0
 40
0.0
 40
0.0
 40
6.967524255405334
 40
6.967524255405334
 40
6.967524255405334
 10
-1055.220341871074
 20
115.3854117194729
 30
0.0
 10
-1052.610170935537
 20
117.6927058597364
 30
0.0
 10
-1050.0
 20
120.0
 30
0.0
  0
SPLINE
  5
24F
330
1F
100
AcDbEntity
  8
Make2D$visible$lines
100
AcDbSpline
210
0.0
220
0.0
230
1.0
 70
    24
 71
     2
 72
     6
 73
     3
 74
     0
 42
0.000000001
 43
0.0000000001
 40
0.0
 40
0.0
 40
0.0
 40
6.967524255405334
 40
6.967524255405334
 40
6.967524255405334
 10
-1295.220341871074
 20
163.3854117194729
 30
0.0
 10
-1292.610170935537
 20
165.6927058597364
 30
0.0
 10
-1290.0
 20
168.0
 30
0.0
  0
SPLINE
  5
250
330
1F
100
AcDbEntity
  8
Make2D$visible$lines
100
AcDbSpline
210
0.0
220
0.0
230
1.0
 70
    24
 71
     2
 72
     6
 73
     3
 74
     0
 42
0.000000001
 43
0.0000000001
 40
0.0
 40
0.0
 40
0.0
 40
6.967524255405334
 40
6.967524255405334
 40
6.967524255405334
 10
-1247.220341871074
 20
163.3854117194729
 30
0.0
 10
-1244.610170935537
 20
165.6927058597364
 30
0.0
 10
-1242.0
 20
168.0
 30
0.0
  0
SPLINE
  5
251
330
1F
100
AcDbEntity
  8
Make2D$visible$lines
100
AcDbSpline
210
0.0
220
0.0
230
1.0
 70
    24
 71
     2
 72
     6
 73
     3
 74
     0
 42
0.000000001
 43
0.0000000001
 40
0.0
 40
0.0
 40
0.0
 40
6.967524255405334
 40
6.967524255405334
 40
6.967524255405334
 10
-1199.220341871074
 20
163.3854117194729
 30
0.0
 10
-1196.610170935537
 20
165.6927058597364
 30
0.0
 10
-1194.0
 20
168.0
 30
0.0
  0
SPLINE
  5
252
330
1F
100
AcDbEntity
  8
Make2D$visible$lines
100
AcDbSpline
210
0.0
220
0.0
230
1.0
 70
    24
 71
     2
 72
     6
 73
     3
 74
     0
 42
0.000000001
 43
0.0000000001
 40
0.0
 40
0.0
 40
0.0
 40
6.967524255405334
 40
6.967524255405334
 40
6.967524255405334
 10
-1151.220341871074
 20
163.3854117194729
 30
0.0
 10
-1148.610170935537
 20
165.6927058597364
 30
0.0
 10
-1146.0
 20
168.0
 30
0.0
  0
SPLINE
  5
253
330
1F
100
AcDbEntity
  8
Make2D$visible$lines
100
AcDbSpline
210
0.0
220
0.0
230
1.0
 70
    24
 71
     2
 72
     6
 73
     3
 74
     0
 42
0.000000001
 43
0.0000000001
 40
0.0
 40
0.0
 40
0.0
 40
6.967524255405334
 40
6.967524255405334
 40
6.967524255405334
 10
-1103.220341871074
 20
163.3854117194729
 30
0.0
 10
-1100.610170935537
 20
165.6927058597364
 30
0.0
 10
-1098.0
 20
168.0
 30
0.0
  0
SPLINE
  5
254
330
1F
100
AcDbEntity
  8
Make2D$visible$lines
100
AcDbSpline
210
0.0
220
0.0
230
1.0
 70
    24
 71
     2
 72
     6
 73
     3
 74
     0
 42
0.000000001
 43
0.0000000001
 40
0.0
 40
0.0
 40
0.0
 40
6.967524255405334
 40
6.967524255405334
 40
6.967524255405334
 10
-1055.220341871074
 20
163.3854117194729
 30
0.0
 10
-1052.610170935537
 20
165.6927058597364
 30
0.0
 10
-1050.0
 20
168.0
 30
0.0
  0
SPLINE
  5
255
330
1F
100
AcDbEntity
  8
Make2D$visible$lines
100
AcDbSpline
210
0.0
220
0.0
230
1.0
 70
    24
 71
     2
 72
     6
 73
     3
 74
     0
 42
0.000000001
 43
0.0000000001
 40
0.0
 40
0.0
 40
0.0
 40
20.10881764651493
 40
20.10881764651493
 40
20.10881764651493
 10
-1295.220341871074
 20
19.38541171947288
 30
0.0
 10
-1297.892904293511
 20
9.692705859736439
 30
0.0
 10
-1300.56546671595
 20
0.0
 30
0.0
  0
SPLINE
  5
256
330
1F
100
AcDbEntity
  8
Make2D$visible$lines
100
AcDbSpline
210
0.0
220
0.0
230
1.0
 70
    24
 71
     2
 72
     6
 73
     3
 74
     0
 42
0.000000001
 43
0.0000000001
 40
0.0
 40
0.0
 40
0.0
 40
20.10881764651493
 40
20.10881764651493
 40
20.10881764651493
 10
-1247.220341871074
 20
19.38541171947288
 30
0.0
 10
-1249.892904293511
 20
9.692705859736439
 30
0.0
 10
-1252.56546671595
 20
0.0
 30
0.0
  0
SPLINE
  5
257
330
1F
100
AcDbEntity
  8
Make2D$visible$lines
100
AcDbSpline
210
0.0
220
0.0
230
1.0
 70
    24
 71
     2
 72
     6
 73
     3
 74
     0
 42
0.000000001
 43
0.0000000001
 40
0.0
 40
0.0
 40
0.0
 40
20.10881764651493
 40
20.10881764651493
 40
20.10881764651493
 10
-1199.220341871074
 20
19.38541171947288
 30
0.0
 10
-1201.892904293511
 20
9.692705859736439
 30
0.0
 10
-1204.56546671595
 20
0.0
 30
0.0
  0
SPLINE
  5
258
330
1F
100
AcDbEntity
  8
Make2D$visible$lines
100
AcDbSpline
210
0.0
220
0.0
230
1.0
 70
    24
 71
     2
 72
     6
 73
     3
 74
     0
 42
0.000000001
 43
0.0000000001
 40
0.0
 40
0.0
 40
0.0
 40
20.10881764651493
 40
20.10881764651493
 40
20.10881764651493
 10
-1151.220341871074
 20
19.38541171947288
 30
0.0
 10
-1153.892904293511
 20
9.692705859736439
 30
0.0
 10
-1156.56546671595
 20
0.0
 30
0.0
  0
SPLINE
  5
259
330
1F
100
AcDbEntity
  8
Make2D$visible$lines
100
AcDbSpline
210
0.0
220
0.0
230
1.0
 70
    24
 71
     2
 72
     6
 73
     3
 74
     0
 42
0.000000001
 43
0.0000000001
 40
0.0
 40
0.0
 40
0.0
 40
20.10881764651493
 40
20.10881764651493
 40
20.10881764651493
 10
-1103.220341871074
 20
19.38541171947288
 30
0.0
 10
-1105.892904293511
 20
9.692705859736439
 30
0.0
 10
-1108.56546671595
 20
0.0
 30
0.0
  0
SPLINE
  5
25A
330
1F
100
AcDbEntity
  8
Make2D$visible$lines
100
AcDbSpline
210
0.0
220
0.0
230
1.0
 70
    24
 71
     2
 72
     6
 73
     3
 74
     0
 42
0.000000001
 43
0.0000000001
 40
0.0
 40
0.0
 40
0.0
 40
20.10881764651493
 40
20.10881764651493
 40
20.10881764651493
 10
-1055.220341871074
 20
19.38541171947288
 30
0.0
 10
-1057.892904293511
 20
9.692705859736439
 30
0.0
 10
-1060.56546671595
 20
0.0
 30
0.0
  0
SPLINE
  5
25B
330
1F
100
AcDbEntity
  8
Make2D$visible$lines
100
AcDbSpline
210
0.0
220
0.0
230
1.0
 70
    24
 71
     2
 72
     6
 73
     3
 74
     0
 42
0.000000001
 43
0.0000000001
 40
0.0
 40
0.0
 40
0.0
 40
20.10881764651492
 40
20.10881764651492
 40
20.10881764651492
 10
-1295.220341871074
 20
67.38541171947287
 30
0.0
 10
-1297.892904293511
 20
57.69270585973644
 30
0.0
 10
-1300.56546671595
 20
48.0
 30
0.0
  0
SPLINE
  5
25C
330
1F
100
AcDbEntity
  8
Make2D$visible$lines
100
AcDbSpline
210
0.0
220
0.0
230
1.0
 70
    24
 71
     2
 72
     6
 73
     3
 74
     0
 42
0.000000001
 43
0.0000000001
 40
0.0
 40
0.0
 40
0.0
 40
20.10881764651492
 40
20.10881764651492
 40
20.10881764651492
 10
-1247.220341871074
 20
67.38541171947287
 30
0.0
 10
-1249.892904293511
 20
57.69270585973644
 30
0.0
 10
-1252.56546671595
 20
48.0
 30
0.0
  0
SPLINE
  5
25D
330
1F
100
AcDbEntity
  8
Make2D$visible$lines
100
AcDbSpline
210
0.0
220
0.0
230
1.0
 70
    24
 71
     2
 72
     6
 73
     3
 74
     0
 42
0.000000001
 43
0.0000000001
 40
0.0
 40
0.0
 40
0.0
 40
20.10881764651492
 40
20.10881764651492
 40
20.10881764651492
 10
-1199.220341871074
 20
67.38541171947287
 30
0.0
 10
-1201.892904293511
 20
57.69270585973644
 30
0.0
 10
-1204.56546671595
 20
48.0
 30
0.0
  0
SPLINE
  5
25E
330
1F
100
AcDbEntity
  8
Make2D$visible$lines
100
AcDbSpline
210
0.0
220
0.0
230
1.0
 70
    24
 71
     2
 72
     6
 73
     3
 74
     0
 42
0.000000001
 43
0.0000000001
 40
0.0
 40
0.0
 40
0.0
 40
20.10881764651492
 40
20.10881764651492
 40
20.10881764651492
 10
-1151.220341871074
 20
67.38541171947287
 30
0.0
 10
-1153.892904293511
 20
57.69270585973644
 30
0.0
 10
-1156.56546671595
 20
48.0
 30
0.0
  0
SPLINE
  5
25F
330
1F
100
AcDbEntity
  8
Make2D$visible$lines
100
AcDbSpline
210
0.0
220
0.0
230
1.0
 70
    24
 71
     2
 72
     6
 73
     3
 74
     0
 42
0.000000001
 43
0.0000000001
 40
0.0
 40
0.0
 40
0.0
 40
20.10881764651492
 40
20.10881764651492
 40
20.10881764651492
 10
-1103.220341871074
 20
67.38541171947287
 30
0.0
 10
-1105.892904293511
 20
57.69270585973644
 30
0.0
 10
-1108.56546671595
 20
48.0
 30
0.0
  0
SPLINE
  5
260
330
1F
100
AcDbEntity
  8
Make2D$visible$lines
100
AcDbSpline
210
0.0
220
0.0
230
1.0
 70
    24
 71
     2
 72
     6
 73
     3
 74
     0
 42
0.000000001
 43
0.0000000001
 40
0.0
 40
0.0
 40
0.0
 40
20.10881764651492
 40
20.10881764651492
 40
20.10881764651492
 10
-1055.220341871074
 20
67.38541171947287
 30
0.0
 10
-1057.892904293511
 20
57.69270585973644
 30
0.0
 10
-1060.56546671595
 20
48.0
 30
0.0
  0
SPLINE
  5
261
330
1F
100
AcDbEntity
  8
Make2D$visible$lines
100
AcDbSpline
210
0.0
220
0.0
230
1.0
 70
    24
 71
     2
 72
     6
 73
     3
 74
     0
 42
0.000000001
 43
0.0000000001
 40
0.0
 40
0.0
 40
0.0
 40
20.10881764651492
 40
20.10881764651492
 40
20.10881764651492
 10
-1295.220341871074
 20
115.3854117194729
 30
0.0
 10
-1297.892904293511
 20
105.6927058597364
 30
0.0
 10
-1300.56546671595
 20
96.0
 30
0.0
  0
SPLINE
  5
262
330
1F
100
AcDbEntity
  8
Make2D$visible$lines
100
AcDbSpline
210
0.0
220
0.0
230
1.0
 70
    24
 71
     2
 72
     6
 73
     3
 74
     0
 42
0.000000001
 43
0.0000000001
 40
0.0
 40
0.0
 40
0.0
 40
20.10881764651492
 40
20.10881764651492
 40
20.10881764651492
 10
-1247.220341871074
 20
115.3854117194729
 30
0.0
 10
-1249.892904293511
 20
105.6927058597364
 30
0.0
 10
-1252.56546671595
 20
96.0
 30
0.0
  0
SPLINE
  5
263
330
1F
100
AcDbEntity
  8
Make2D$visible$lines
100
AcDbSpline
210
0.0
220
0.0
230
1.0
 70
    24
 71
     2
 72
     6
 73
     3
 74
     0
 42
0.000000001
 43
0.0000000001
 40
0.0
 40
0.0
 40
0.0
 40
20.10881764651492
 40
20.10881764651492
 40
20.10881764651492
 10
-1199.220341871074
 20
115.3854117194729
 30
0.0
 10
-1201.892904293511
 20
105.6927058597364
 30
0.0
 10
-1204.56546671595
 20
96.0
 30
0.0
  0
SPLINE
  5
264
330
1F
100
AcDbEntity
  8
Make2D$visible$lines
100
AcDbSpline
210
0.0
220
0.0
230
1.0
 70
    24
 71
     2
 72
     6
 73
     3
 74
     0
 42
0.000000001
 43
0.0000000001
 40
0.0
 40
0.0
 40
0.0
 40
20.10881764651492
 40
20.10881764651492
 40
20.10881764651492
 10
-1151.220341871074
 20
115.3854117194729
 30
0.0
 10
-1153.892904293511
 20
105.6927058597364
 30
0.0
 10
-1156.56546671595
 20
96.0
 30
0.0
  0
SPLINE
  5
265
330
1F
100
AcDbEntity
  8
Make2D$visible$lines
100
AcDbSpline
210
0.0
220
0.0
230
1.0
 70
    24
 71
     2
 72
     6
 73
     3
 74
     0
 42
0.000000001
 43
0.0000000001
 40
0.0
 40
0.0
 40
0.0
 40
20.10881764651492
 40
20.10881764651492
 40
20.10881764651492
 10
-1103.220341871074
 20
115.3854117194729
 30
0.0
 10
-1105.892904293511
 20
105.6927058597364
 30
0.0
 10
-1108.56546671595
 20
96.0
 30
0.0
  0
SPLINE
  5
266
330
1F
100
AcDbEntity
  8
Make2D$visible$lines
100
AcDbSpline
210
0.0
220
0.0
230
1.0
 70
    24
 71
     2
 72
     6
 73
     3
 74
     0
 42
0.000000001
 43
0.0000000001
 40
0.0
 40
0.0
 40
0.0
 40
20.10881764651492
 40
20.10881764651492
 40
20.10881764651492
 10
-1055.220341871074
 20
115.3854117194729
 30
0.0
 10
-1057.892904293511
 20
105.6927058597364
 30
0.0
 10
-1060.56546671595
 20
96.0
 30
0.0
  0
SPLINE
  5
267
330
1F
100
AcDbEntity
  8
Make2D$visible$lines
100
AcDbSpline
210
0.0
220
0.0
230
1.0
 70
    24
 71
     2
 72
     6
 73
     3
 74
     0
 42
0.000000001
 43
0.0000000001
 40
0.0
 40
0.0
 40
0.0
 40
20.10881764651492
 40
20.10881764651492
 40
20.10881764651492
 10
-1295.220341871074
 20
163.3854117194729
 30
0.0
 10
-1297.892904293511
 20
153.6927058597364
 30
0.0
 10
-1300.56546671595
 20
144.0
 30
0.0
  0
SPLINE
  5
268
330
1F
100
AcDbEntity
  8
Make2D$visible$lines
100
AcDbSpline
210
0.0
220
0.0
230
1.0
 70
    24
 71
     2
 72
     6
 73
     3
 74
     0
 42
0.000000001
 43
0.0000000001
 40
0.0
 40
0.0
 40
0.0
 40
20.10881764651492
 40
20.10881764651492
 40
20.10881764651492
 10
-1247.220341871074
 20
163.3854117194729
 30
0.0
 10
-1249.892904293511
 20
153.6927058597364
 30
0.0
 10
-1252.56546671595
 20
144.0
 30
0.0
  0
SPLINE
  5
269
330
1F
100
AcDbEntity
  8
Make2D$visible$lines
100
AcDbSpline
210
0.0
220
0.0
230
1.0
 70
    24
 71
     2
 72
     6
 73
     3
 74
     0
 42
0.000000001
 43
0.0000000001
 40
0.0
 40
0.0
 40
0.0
 40
20.10881764651492
 40
20.10881764651492
 40
20.10881764651492
 10
-1199.220341871074
 20
163.3854117194729
 30
0.0
 10
-1201.892904293511
 20
153.6927058597364
 30
0.0
 10
-1204.56546671595
 20
144.0
 30
0.0
  0
SPLINE
  5
26A
330
1F
100
AcDbEntity
  8
Make2D$visible$lines
100
AcDbSpline
210
0.0
220
0.0
230
1.0
 70
    24
 71
     2
 72
     6
 73
     3
 74
     0
 42
0.000000001
 43
0.0000000001
 40
0.0
 40
0.0
 40
0.0
 40
20.10881764651492
 40
20.10881764651492
 40
20.10881764651492
 10
-1151.220341871074
 20
163.3854117194729
 30
0.0
 10
-1153.892904293511
 20
153.6927058597364
 30
0.0
 10
-1156.56546671595
 20
144.0
 30
0.0
  0
SPLINE
  5
26B
330
1F
100
AcDbEntity
  8
Make2D$visible$lines
100
AcDbSpline
210
0.0
220
0.0
230
1.0
 70
    24
 71
     2
 72
     6
 73
     3
 74
     0
 42
0.000000001
 43
0.0000000001
 40
0.0
 40
0.0
 40
0.0
 40
20.10881764651492
 40
20.10881764651492
 40
20.10881764651492
 10
-1103.220341871074
 20
163.3854117194729
 30
0.0
 10
-1105.892904293511
 20
153.6927058597364
 30
0.0
 10
-1108.56546671595
 20
144.0
 30
0.0
  0
SPLINE
  5
26C
330
1F
100
AcDbEntity
  8
Make2D$visible$lines
100
AcDbSpline
210
0.0
220
0.0
230
1.0
 70
    24
 71
     2
 72
     6
 73
     3
 74
     0
 42
0.000000001
 43
0.0000000001
 40
0.0
 40
0.0
 40
0.0
 40
20.10881764651492
 40
20.10881764651492
 40
20.10881764651492
 10
-1055.220341871074
 20
163.3854117194729
 30
0.0
 10
-1057.892904293511
 20
153.6927058597364
 30
0.0
 10
-1060.56546671595
 20
144.0
 30
0.0
  0
SPLINE
  5
26D
330
1F
100
AcDbEntity
  8
Make2D$visible$lines
100
AcDbSpline
210
0.0
220
0.0
230
1.0
 70
    24
 71
     2
 72
     6
 73
     3
 74
     0
 42
0.000000001
 43
0.0000000001
 40
0.0
 40
0.0
 40
0.0
 40
26.22268267980687
 40
26.22268267980687
 40
26.22268267980687
 10
-1290.0
 20
24.0
 30
0.0
 10
-1295.282733357975
 20
12.0
 30
0.0
 10
-1300.56546671595
 20
0.0
 30
0.0
  0
SPLINE
  5
26E
330
1F
100
AcDbEntity
  8
Make2D$visible$lines
100
AcDbSpline
210
0.0
220
0.0
230
1.0
 70
    24
 71
     2
 72
     6
 73
     3
 74
     0
 42
0.000000001
 43
0.0000000001
 40
0.0
 40
0.0
 40
0.0
 40
26.22268267980687
 40
26.22268267980687
 40
26.22268267980687
 10
-1242.0
 20
24.0
 30
0.0
 10
-1247.282733357975
 20
12.0
 30
0.0
 10
-1252.56546671595
 20
0.0
 30
0.0
  0
SPLINE
  5
26F
330
1F
100
AcDbEntity
  8
Make2D$visible$lines
100
AcDbSpline
210
0.0
220
0.0
230
1.0
 70
    24
 71
     2
 72
     6
 73
     3
 74
     0
 42
0.000000001
 43
0.0000000001
 40
0.0
 40
0.0
 40
0.0
 40
26.22268267980687
 40
26.22268267980687
 40
26.22268267980687
 10
-1194.0
 20
24.0
 30
0.0
 10
-1199.282733357975
 20
12.0
 30
0.0
 10
-1204.56546671595
 20
0.0
 30
0.0
  0
SPLINE
  5
270
330
1F
100
AcDbEntity
  8
Make2D$visible$lines
100
AcDbSpline
210
0.0
220
0.0
230
1.0
 70
    24
 71
     2
 72
     6
 73
     3
 74
     0
 42
0.000000001
 43
0.0000000001
 40
0.0
 40
0.0
 40
0.0
 40
26.22268267980687
 40
26.22268267980687
 40
26.22268267980687
 10
-1146.0
 20
24.0
 30
0.0
 10
-1151.282733357975
 20
12.0
 30
0.0
 10
-1156.56546671595
 20
0.0
 30
0.0
  0
SPLINE
  5
271
330
1F
100
AcDbEntity
  8
Make2D$visible$lines
100
AcDbSpline
210
0.0
220
0.0
230
1.0
 70
    24
 71
     2
 72
     6
 73
     3
 74
     0
 42
0.000000001
 43
0.0000000001
 40
0.0
 40
0.0
 40
0.0
 40
26.22268267980687
 40
26.22268267980687
 40
26.22268267980687
 10
-1098.0
 20
24.0
 30
0.0
 10
-1103.282733357975
 20
12.0
 30
0.0
 10
-1108.56546671595
 20
0.0
 30
0.0
  0
SPLINE
  5
272
330
1F
100
AcDbEntity
  8
Make2D$visible$lines
100
AcDbSpline
210
0.0
220
0.0
230
1.0
 70
    24
 71
     2
 72
     6
 73
     3
 74
     0
 42
0.000000001
 43
0.0000000001
 40
0.0
 40
0.0
 40
0.0
 40
26.22268267980687
 40
26.22268267980687
 40
26.22268267980687
 10
-1050.0
 20
24.0
 30
0.0
 10
-1055.282733357975
 20
12.0
 30
0.0
 10
-1060.56546671595
 20
0.0
 30
0.0
  0
SPLINE
  5
273
330
1F
100
AcDbEntity
  8
Make2D$visible$lines
100
AcDbSpline
210
0.0
220
0.0
230
1.0
 70
    24
 71
     2
 72
     6
 73
     3
 74
     0
 42
0.000000001
 43
0.0000000001
 40
0.0
 40
0.0
 40
0.0
 40
26.22268267980687
 40
26.22268267980687
 40
26.22268267980687
 10
-1290.0
 20
72.0
 30
0.0
 10
-1295.282733357975
 20
60.0
 30
0.0
 10
-1300.56546671595
 20
48.0
 30
0.0
  0
SPLINE
  5
274
330
1F
100
AcDbEntity
  8
Make2D$visible$lines
100
AcDbSpline
210
0.0
220
0.0
230
1.0
 70
    24
 71
     2
 72
     6
 73
     3
 74
     0
 42
0.000000001
 43
0.0000000001
 40
0.0
 40
0.0
 40
0.0
 40
26.22268267980687
 40
26.22268267980687
 40
26.22268267980687
 10
-1242.0
 20
72.0
 30
0.0
 10
-1247.282733357975
 20
60.0
 30
0.0
 10
-1252.56546671595
 20
48.0
 30
0.0
  0
SPLINE
  5
275
330
1F
100
AcDbEntity
  8
Make2D$visible$lines
100
AcDbSpline
210
0.0
220
0.0
230
1.0
 70
    24
 71
     2
 72
     6
 73
     3
 74
     0
 42
0.000000001
 43
0.0000000001
 40
0.0
 40
0.0
 40
0.0
 40
26.22268267980687
 40
26.22268267980687
 40
26.22268267980687
 10
-1194.0
 20
72.0
 30
0.0
 10
-1199.282733357975
 20
60.0
 30
0.0
 10
-1204.56546671595
 20
48.0
 30
0.0
  0
SPLINE
  5
276
330
1F
100
AcDbEntity
  8
Make2D$visible$lines
100
AcDbSpline
210
0.0
220
0.0
230
1.0
 70
    24
 71
     2
 72
     6
 73
     3
 74
     0
 42
0.000000001
 43
0.0000000001
 40
0.0
 40
0.0
 40
0.0
 40
26.22268267980687
 40
26.22268267980687
 40
26.22268267980687
 10
-1146.0
 20
72.0
 30
0.0
 10
-1151.282733357975
 20
60.0
 30
0.0
 10
-1156.56546671595
 20
48.0
 30
0.0
  0
SPLINE
  5
277
330
1F
100
AcDbEntity
  8
Make2D$visible$lines
100
AcDbSpline
210
0.0
220
0.0
230
1.0
 70
    24
 71
     2
 72
     6
 73
     3
 74
     0
 42
0.000000001
 43
0.0000000001
 40
0.0
 40
0.0
 40
0.0
 40
26.22268267980687
 40
26.22268267980687
 40
26.22268267980687
 10
-1098.0
 20
72.0
 30
0.0
 10
-1103.282733357975
 20
60.0
 30
0.0
 10
-1108.56546671595
 20
48.0
 30
0.0
  0
SPLINE
  5
278
330
1F
100
AcDbEntity
  8
Make2D$visible$lines
100
AcDbSpline
210
0.0
220
0.0
230
1.0
 70
    24
 71
     2
 72
     6
 73
     3
 74
     0
 42
0.000000001
 43
0.0000000001
 40
0.0
 40
0.0
 40
0.0
 40
26.22268267980687
 40
26.22268267980687
 40
26.22268267980687
 10
-1050.0
 20
72.0
 30
0.0
 10
-1055.282733357975
 20
60.0
 30
0.0
 10
-1060.56546671595
 20
48.0
 30
0.0
  0
SPLINE
  5
279
330
1F
100
AcDbEntity
  8
Make2D$visible$lines
100
AcDbSpline
210
0.0
220
0.0
230
1.0
 70
    24
 71
     2
 72
     6
 73
     3
 74
     0
 42
0.000000001
 43
0.0000000001
 40
0.0
 40
0.0
 40
0.0
 40
26.22268267980687
 40
26.22268267980687
 40
26.22268267980687
 10
-1290.0
 20
120.0
 30
0.0
 10
-1295.282733357975
 20
108.0
 30
0.0
 10
-1300.56546671595
 20
96.0
 30
0.0
  0
SPLINE
  5
27A
330
1F
100
AcDbEntity
  8
Make2D$visible$lines
100
AcDbSpline
210
0.0
220
0.0
230
1.0
 70
    24
 71
     2
 72
     6
 73
     3
 74
     0
 42
0.000000001
 43
0.0000000001
 40
0.0
 40
0.0
 40
0.0
 40
26.22268267980687
 40
26.22268267980687
 40
26.22268267980687
 10
-1242.0
 20
120.0
 30
0.0
 10
-1247.282733357975
 20
108.0
 30
0.0
 10
-1252.56546671595
 20
96.0
 30
0.0
  0
SPLINE
  5
27B
330
1F
100
AcDbEntity
  8
Make2D$visible$lines
100
AcDbSpline
210
0.0
220
0.0
230
1.0
 70
    24
 71
     2
 72
     6
 73
     3
 74
     0
 42
0.000000001
 43
0.0000000001
 40
0.0
 40
0.0
 40
0.0
 40
26.22268267980687
 40
26.22268267980687
 40
26.22268267980687
 10
-1194.0
 20
120.0
 30
0.0
 10
-1199.282733357975
 20
108.0
 30
0.0
 10
-1204.56546671595
 20
96.0
 30
0.0
  0
SPLINE
  5
27C
330
1F
100
AcDbEntity
  8
Make2D$visible$lines
100
AcDbSpline
210
0.0
220
0.0
230
1.0
 70
    24
 71
     2
 72
     6
 73
     3
 74
     0
 42
0.000000001
 43
0.0000000001
 40
0.0
 40
0.0
 40
0.0
 40
26.22268267980687
 40
26.22268267980687
 40
26.22268267980687
 10
-1146.0
 20
120.0
 30
0.0
 10
-1151.282733357975
 20
108.0
 30
0.0
 10
-1156.56546671595
 20
96.0
 30
0.0
  0
SPLINE
  5
27D
330
1F
100
AcDbEntity
  8
Make2D$visible$lines
100
AcDbSpline
210
0.0
220
0.0
230
1.0
 70
    24
 71
     2
 72
     6
 73
     3
 74
     0
 42
0.000000001
 43
0.0000000001
 40
0.0
 40
0.0
 40
0.0
 40
26.22268267980687
 40
26.22268267980687
 40
26.22268267980687
 10
-1098.0
 20
120.0
 30
0.0
 10
-1103.282733357975
 20
108.0
 30
0.0
 10
-1108.56546671595
 20
96.0
 30
0.0
  0
SPLINE
  5
27E
330
1F
100
AcDbEntity
  8
Make2D$visible$lines
100
AcDbSpline
210
0.0
220
0.0
230
1.0
 70
    24
 71
     2
 72
     6
 73
     3
 74
     0
 42
0.000000001
 43
0.0000000001
 40
0.0
 40
0.0
 40
0.0
 40
26.22268267980687
 40
26.22268267980687
 40
26.22268267980687
 10
-1050.0
 20
120.0
 30
0.0
 10
-1055.282733357975
 20
108.0
 30
0.0
 10
-1060.56546671595
 20
96.0
 30
0.0
  0
SPLINE
  5
27F
330
1F
100
AcDbEntity
  8
Make2D$visible$lines
100
AcDbSpline
210
0.0
220
0.0
230
1.0
 70
    24
 71
     2
 72
     6
 73
     3
 74
     0
 42
0.000000001
 43
0.0000000001
 40
0.0
 40
0.0
 40
0.0
 40
26.22268267980687
 40
26.22268267980687
 40
26.22268267980687
 10
-1290.0
 20
168.0
 30
0.0
 10
-1295.282733357975
 20
156.0
 30
0.0
 10
-1300.56546671595
 20
144.0
 30
0.0
  0
SPLINE
  5
280
330
1F
100
AcDbEntity
  8
Make2D$visible$lines
100
AcDbSpline
210
0.0
220
0.0
230
1.0
 70
    24
 71
     2
 72
     6
 73
     3
 74
     0
 42
0.000000001
 43
0.0000000001
 40
0.0
 40
0.0
 40
0.0
 40
26.22268267980687
 40
26.22268267980687
 40
26.22268267980687
 10
-1242.0
 20
168.0
 30
0.0
 10
-1247.282733357975
 20
156.0
 30
0.0
 10
-1252.56546671595
 20
144.0
 30
0.0
  0
SPLINE
  5
281
330
1F
100
AcDbEntity
  8
Make2D$visible$lines
100
AcDbSpline
210
0.0
220
0.0
230
1.0
 70
    24
 71
     2
 72
     6
 73
     3
 74
     0
 42
0.000000001
 43
0.0000000001
 40
0.0
 40
0.0
 40
0.0
 40
26.22268267980687
 40
26.22268267980687
 40
26.22268267980687
 10
-1194.0
 20
168.0
 30
0.0
 10
-1199.282733357975
 20
156.0
 30
0.0
 10
-1204.56546671595
 20
144.0
 30
0.0
  0
SPLINE
  5
282
330
1F
100
AcDbEntity
  8
Make2D$visible$lines
100
AcDbSpline
210
0.0
220
0.0
230
1.0
 70
    24
 71
     2
 72
     6
 73
     3
 74
     0
 42
0.000000001
 43
0.0000000001
 40
0.0
 40
0.0
 40
0.0
 40
26.22268267980687
 40
26.22268267980687
 40
26.22268267980687
 10
-1146.0
 20
168.0
 30
0.0
 10
-1151.282733357975
 20
156.0
 30
0.0
 10
-1156.56546671595
 20
144.0
 30
0.0
  0
SPLINE
  5
283
330
1F
100
AcDbEntity
  8
Make2D$visible$lines
100
AcDbSpline
210
0.0
220
0.0
230
1.0
 70
    24
 71
     2
 72
     6
 73
     3
 74
     0
 42
0.000000001
 43
0.0000000001
 40
0.0
 40
0.0
 40
0.0
 40
26.22268267980687
 40
26.22268267980687
 40
26.22268267980687
 10
-1098.0
 20
168.0
 30
0.0
 10
-1103.282733357975
 20
156.0
 30
0.0
 10
-1108.56546671595
 20
144.0
 30
0.0
  0
SPLINE
  5
284
330
1F
100
AcDbEntity
  8
Make2D$visible$lines
100
AcDbSpline
210
0.0
220
0.0
230
1.0
 70
    24
 71
     2
 72
     6
 73
     3
 74
     0
 42
0.000000001
 43
0.0000000001
 40
0.0
 40
0.0
 40
0.0
 40
26.22268267980687
 40
26.22268267980687
 40
26.22268267980687
 10
-1050.0
 20
168.0
 30
0.0
 10
-1055.282733357975
 20
156.0
 30
0.0
 10
-1060.56546671595
 20
144.0
 30
0.0
  0
SPLINE
  5
285
330
1F
100
AcDbEntity
  8
Make2D$visible$lines
100
AcDbSpline
210
0.0
220
0.0
230
1.0
 70
    24
 71
     2
 72
     6
 73
     3
 74
     0
 42
0.000000001
 43
0.0000000001
 40
0.0
 40
0.0
 40
0.0
 40
48.0
 40
48.0
 40
48.0
 10
-1290.0
 20
24.0
 30
0.0
 10
-1290.0
 20
0.0
 30
0.0
 10
-1290.0
 20
-24.0
 30
0.0
  0
SPLINE
  5
286
330
1F
100
AcDbEntity
  8
Make2D$visible$lines
100
AcDbSpline
210
0.0
220
0.0
230
1.0
 70
    24
 71
     2
 72
     6
 73
     3
 74
     0
 42
0.000000001
 43
0.0000000001
 40
0.0
 40
0.0
 40
0.0
 40
48.0
 40
48.0
 40
48.0
 10
-1242.0
 20
24.0
 30
0.0
 10
-1242.0
 20
0.0
 30
0.0
 10
-1242.0
 20
-24.0
 30
0.0
  0
SPLINE
  5
287
330
1F
100
AcDbEntity
  8
Make2D$visible$lines
100
AcDbSpline
210
0.0
220
0.0
230
1.0
 70
    24
 71
     2
 72
     6
 73
     3
 74
     0
 42
0.000000001
 43
0.0000000001
 40
0.0
 40
0.0
 40
0.0
 40
48.0
 40
48.0
 40
48.0
 10
-1194.0
 20
24.0
 30
0.0
 10
-1194.0
 20
0.0
 30
0.0
 10
-1194.0
 20
-24.0
 30
0.0
  0
SPLINE
  5
288
330
1F
100
AcDbEntity
  8
Make2D$visible$lines
100
AcDbSpline
210
0.0
220
0.0
230
1.0
 70
    24
 71
     2
 72
     6
 73
     3
 74
     0
 42
0.000000001
 43
0.0000000001
 40
0.0
 40
0.0
 40
0.0
 40
48.0
 40
48.0
 40
48.0
 10
-1146.0
 20
24.0
 30
0.0
 10
-1146.0
 20
0.0
 30
0.0
 10
-1146.0
 20
-24.0
 30
0.0
  0
SPLINE
  5
289
330
1F
100
AcDbEntity
  8
Make2D$visible$lines
100
AcDbSpline
210
0.0
220
0.0
230
1.0
 70
    24
 71
     2
 72
     6
 73
     3
 74
     0
 42
0.000000001
 43
0.0000000001
 40
0.0
 40
0.0
 40
0.0
 40
48.0
 40
48.0
 40
48.0
 10
-1098.0
 20
24.0
 30
0.0
 10
-1098.0
 20
0.0
 30
0.0
 10
-1098.0
 20
-24.0
 30
0.0
  0
SPLINE
  5
28A
330
1F
100
AcDbEntity
  8
Make2D$visible$lines
100
AcDbSpline
210
0.0
220
0.0
230
1.0
 70
    24
 71
     2
 72
     6
 73
     3
 74
     0
 42
0.000000001
 43
0.0000000001
 40
0.0
 40
0.0
 40
0.0
 40
48.0
 40
48.0
 40
48.0
 10
-1050.0
 20
24.0
 30
0.0
 10
-1050.0
 20
0.0
 30
0.0
 10
-1050.0
 20
-24.0
 30
0.0
  0
SPLINE
  5
28B
330
1F
100
AcDbEntity
  8
Make2D$visible$lines
100
AcDbSpline
210
0.0
220
0.0
230
1.0
 70
    24
 71
     2
 72
     6
 73
     3
 74
     0
 42
0.000000001
 43
0.0000000001
 40
0.0
 40
0.0
 40
0.0
 40
48.0
 40
48.0
 40
48.0
 10
-1290.0
 20
72.0
 30
0.0
 10
-1290.0
 20
48.0
 30
0.0
 10
-1290.0
 20
24.0
 30
0.0
  0
SPLINE
  5
28C
330
1F
100
AcDbEntity
  8
Make2D$visible$lines
100
AcDbSpline
210
0.0
220
0.0
230
1.0
 70
    24
 71
     2
 72
     6
 73
     3
 74
     0
 42
0.000000001
 43
0.0000000001
 40
0.0
 40
0.0
 40
0.0
 40
48.0
 40
48.0
 40
48.0
 10
-1242.0
 20
72.0
 30
0.0
 10
-1242.0
 20
48.0
 30
0.0
 10
-1242.0
 20
24.0
 30
0.0
  0
SPLINE
  5
28D
330
1F
100
AcDbEntity
  8
Make2D$visible$lines
100
AcDbSpline
210
0.0
220
0.0
230
1.0
 70
    24
 71
     2
 72
     6
 73
     3
 74
     0
 42
0.000000001
 43
0.0000000001
 40
0.0
 40
0.0
 40
0.0
 40
48.0
 40
48.0
 40
48.0
 10
-1194.0
 20
72.0
 30
0.0
 10
-1194.0
 20
48.0
 30
0.0
 10
-1194.0
 20
24.0
 30
0.0
  0
SPLINE
  5
28E
330
1F
100
AcDbEntity
  8
Make2D$visible$lines
100
AcDbSpline
210
0.0
220
0.0
230
1.0
 70
    24
 71
     2
 72
     6
 73
     3
 74
     0
 42
0.000000001
 43
0.0000000001
 40
0.0
 40
0.0
 40
0.0
 40
48.0
 40
48.0
 40
48.0
 10
-1146.0
 20
72.0
 30
0.0
 10
-1146.0
 20
48.0
 30
0.0
 10
-1146.0
 20
24.0
 30
0.0
  0
SPLINE
  5
28F
330
1F
100
AcDbEntity
  8
Make2D$visible$lines
100
AcDbSpline
210
0.0
220
0.0
230
1.0
 70
    24
 71
     2
 72
     6
 73
     3
 74
     0
 42
0.000000001
 43
0.0000000001
 40
0.0
 40
0.0
 40
0.0
 40
48.0
 40
48.0
 40
48.0
 10
-1098.0
 20
72.0
 30
0.0
 10
-1098.0
 20
48.0
 30
0.0
 10
-1098.0
 20
24.0
 30
0.0
  0
SPLINE
  5
290
330
1F
100
AcDbEntity
  8
Make2D$visible$lines
100
AcDbSpline
210
0.0
220
0.0
230
1.0
 70
    24
 71
     2
 72
     6
 73
     3
 74
     0
 42
0.000000001
 43
0.0000000001
 40
0.0
 40
0.0
 40
0.0
 40
48.0
 40
48.0
 40
48.0
 10
-1050.0
 20
72.0
 30
0.0
 10
-1050.0
 20
48.0
 30
0.0
 10
-1050.0
 20
24.0
 30
0.0
  0
SPLINE
  5
291
330
1F
100
AcDbEntity
  8
Make2D$visible$lines
100
AcDbSpline
210
0.0
220
0.0
230
1.0
 70
    24
 71
     2
 72
     6
 73
     3
 74
     0
 42
0.000000001
 43
0.0000000001
 40
0.0
 40
0.0
 40
0.0
 40
48.0
 40
48.0
 40
48.0
 10
-1290.0
 20
120.0
 30
0.0
 10
-1290.0
 20
96.0
 30
0.0
 10
-1290.0
 20
72.0
 30
0.0
  0
SPLINE
  5
292
330
1F
100
AcDbEntity
  8
Make2D$visible$lines
100
AcDbSpline
210
0.0
220
0.0
230
1.0
 70
    24
 71
     2
 72
     6
 73
     3
 74
     0
 42
0.000000001
 43
0.0000000001
 40
0.0
 40
0.0
 40
0.0
 40
48.0
 40
48.0
 40
48.0
 10
-1242.0
 20
120.0
 30
0.0
 10
-1242.0
 20
96.0
 30
0.0
 10
-1242.0
 20
72.0
 30
0.0
  0
SPLINE
  5
293
330
1F
100
AcDbEntity
  8
Make2D$visible$lines
100
AcDbSpline
210
0.0
220
0.0
230
1.0
 70
    24
 71
     2
 72
     6
 73
     3
 74
     0
 42
0.000000001
 43
0.0000000001
 40
0.0
 40
0.0
 40
0.0
 40
48.0
 40
48.0
 40
48.0
 10
-1194.0
 20
120.0
 30
0.0
 10
-1194.0
 20
96.0
 30
0.0
 10
-1194.0
 20
72.0
 30
0.0
  0
SPLINE
  5
294
330
1F
100
AcDbEntity
  8
Make2D$visible$lines
100
AcDbSpline
210
0.0
220
0.0
230
1.0
 70
    24
 71
     2
 72
     6
 73
     3
 74
     0
 42
0.000000001
 43
0.0000000001
 40
0.0
 40
0.0
 40
0.0
 40
48.0
 40
48.0
 40
48.0
 10
-1146.0
 20
120.0
 30
0.0
 10
-1146.0
 20
96.0
 30
0.0
 10
-1146.0
 20
72.0
 30
0.0
  0
SPLINE
  5
295
330
1F
100
AcDbEntity
  8
Make2D$visible$lines
100
AcDbSpline
210
0.0
220
0.0
230
1.0
 70
    24
 71
     2
 72
     6
 73
     3
 74
     0
 42
0.000000001
 43
0.0000000001
 40
0.0
 40
0.0
 40
0.0
 40
48.0
 40
48.0
 40
48.0
 10
-1098.0
 20
120.0
 30
0.0
 10
-1098.0
 20
96.0
 30
0.0
 10
-1098.0
 20
72.0
 30
0.0
  0
SPLINE
  5
296
330
1F
100
AcDbEntity
  8
Make2D$visible$lines
100
AcDbSpline
210
0.0
220
0.0
230
1.0
 70
    24
 71
     2
 72
     6
 73
     3
 74
     0
 42
0.000000001
 43
0.0000000001
 40
0.0
 40
0.0
 40
0.0
 40
48.0
 40
48.0
 40
48.0
 10
-1050.0
 20
120.0
 30
0.0
 10
-1050.0
 20
96.0
 30
0.0
 10
-1050.0
 20
72.0
 30
0.0
  0
SPLINE
  5
297
330
1F
100
AcDbEntity
  8
Make2D$visible$lines
100
AcDbSpline
210
0.0
220
0.0
230
1.0
 70
    24
 71
     2
 72
     6
 73
     3
 74
     0
 42
0.000000001
 43
0.0000000001
 40
0.0
 40
0.0
 40
0.0
 40
48.0
 40
48.0
 40
48.0
 10
-1290.0
 20
168.0
 30
0.0
 10
-1290.0
 20
144.0
 30
0.0
 10
-1290.0
 20
120.0
 30
0.0
  0
SPLINE
  5
298
330
1F
100
AcDbEntity
  8
Make2D$visible$lines
100
AcDbSpline
210
0.0
220
0.0
230
1.0
 70
    24
 71
     2
 72
     6
 73
     3
 74
     0
 42
0.000000001
 43
0.0000000001
 40
0.0
 40
0.0
 40
0.0
 40
48.0
 40
48.0
 40
48.0
 10
-1242.0
 20
168.0
 30
0.0
 10
-1242.0
 20
144.0
 30
0.0
 10
-1242.0
 20
120.0
 30
0.0
  0
SPLINE
  5
299
330
1F
100
AcDbEntity
  8
Make2D$visible$lines
100
AcDbSpline
210
0.0
220
0.0
230
1.0
 70
    24
 71
     2
 72
     6
 73
     3
 74
     0
 42
0.000000001
 43
0.0000000001
 40
0.0
 40
0.0
 40
0.0
 40
48.0
 40
48.0
 40
48.0
 10
-1194.0
 20
168.0
 30
0.0
 10
-1194.0
 20
144.0
 30
0.0
 10
-1194.0
 20
120.0
 30
0.0
  0
SPLINE
  5
29A
330
1F
100
AcDbEntity
  8
Make2D$visible$lines
100
AcDbSpline
210
0.0
220
0.0
230
1.0
 70
    24
 71
     2
 72
     6
 73
     3
 74
     0
 42
0.000000001
 43
0.0000000001
 40
0.0
 40
0.0
 40
0.0
 40
48.0
 40
48.0
 40
48.0
 10
-1146.0
 20
168.0
 30
0.0
 10
-1146.0
 20
144.0
 30
0.0
 10
-1146.0
 20
120.0
 30
0.0
  0
SPLINE
  5
29B
330
1F
100
AcDbEntity
  8
Make2D$visible$lines
100
AcDbSpline
210
0.0
220
0.0
230
1.0
 70
    24
 71
     2
 72
     6
 73
     3
 74
     0
 42
0.000000001
 43
0.0000000001
 40
0.0
 40
0.0
 40
0.0
 40
48.0
 40
48.0
 40
48.0
 10
-1098.0
 20
168.0
 30
0.0
 10
-1098.0
 20
144.0
 30
0.0
 10
-1098.0
 20
120.0
 30
0.0
  0
SPLINE
  5
29C
330
1F
100
AcDbEntity
  8
Make2D$visible$lines
100
AcDbSpline
210
0.0
220
0.0
230
1.0
 70
    24
 71
     2
 72
     6
 73
     3
 74
     0
 42
0.000000001
 43
0.0000000001
 40
0.0
 40
0.0
 40
0.0
 40
48.0
 40
48.0
 40
48.0
 10
-1050.0
 20
168.0
 30
0.0
 10
-1050.0
 20
144.0
 30
0.0
 10
-1050.0
 20
120.0
 30
0.0
  0
SPLINE
  5
29D
330
1F
100
AcDbEntity
  8
Make2D$visible$lines
100
AcDbSpline
210
0.0
220
0.0
230
1.0
 70
    24
 71
     2
 72
     6
 73
     3
 74
     0
 42
0.000000001
 43
0.0000000001
 40
0.0
 40
0.0
 40
0.0
 40
26.22268267980687
 40
26.22268267980687
 40
26.22268267980687
 10
-1300.56546671595
 20
0.0
 30
0.0
 10
-1295.282733357975
 20
-12.0
 30
0.0
 10
-1290.0
 20
-24.0
 30
0.0
  0
SPLINE
  5
29E
330
1F
100
AcDbEntity
  8
Make2D$visible$lines
100
AcDbSpline
210
0.0
220
0.0
230
1.0
 70
    24
 71
     2
 72
     6
 73
     3
 74
     0
 42
0.000000001
 43
0.0000000001
 40
0.0
 40
0.0
 40
0.0
 40
26.22268267980687
 40
26.22268267980687
 40
26.22268267980687
 10
-1252.56546671595
 20
0.0
 30
0.0
 10
-1247.282733357975
 20
-12.0
 30
0.0
 10
-1242.0
 20
-24.0
 30
0.0
  0
SPLINE
  5
29F
330
1F
100
AcDbEntity
  8
Make2D$visible$lines
100
AcDbSpline
210
0.0
220
0.0
230
1.0
 70
    24
 71
     2
 72
     6
 73
     3
 74
     0
 42
0.000000001
 43
0.0000000001
 40
0.0
 40
0.0
 40
0.0
 40
26.22268267980687
 40
26.22268267980687
 40
26.22268267980687
 10
-1204.56546671595
 20
0.0
 30
0.0
 10
-1199.282733357975
 20
-12.0
 30
0.0
 10
-1194.0
 20
-24.0
 30
0.0
  0
SPLINE
  5
2A0
330
1F
100
AcDbEntity
  8
Make2D$visible$lines
100
AcDbSpline
210
0.0
220
0.0
230
1.0
 70
    24
 71
     2
 72
     6
 73
     3
 74
     0
 42
0.000000001
 43
0.0000000001
 40
0.0
 40
0.0
 40
0.0
 40
26.22268267980687
 40
26.22268267980687
 40
26.22268267980687
 10
-1156.56546671595
 20
0.0
 30
0.0
 10
-1151.282733357975
 20
-12.0
 30
0.0
 10
-1146.0
 20
-24.0
 30
0.0
  0
SPLINE
  5
2A1
330
1F
100
AcDbEntity
  8
Make2D$visible$lines
100
AcDbSpline
210
0.0
220
0.0
230
1.0
 70
    24
 71
     2
 72
     6
 73
     3
 74
     0
 42
0.000000001
 43
0.0000000001
 40
0.0
 40
0.0
 40
0.0
 40
26.22268267980687
 40
26.22268267980687
 40
26.22268267980687
 10
-1108.56546671595
 20
0.0
 30
0.0
 10
-1103.282733357975
 20
-12.0
 30
0.0
 10
-1098.0
 20
-24.0
 30
0.0
  0
SPLINE
  5
2A2
330
1F
100
AcDbEntity
  8
Make2D$visible$lines
100
AcDbSpline
210
0.0
220
0.0
230
1.0
 70
    24
 71
     2
 72
     6
 73
     3
 74
     0
 42
0.000000001
 43
0.0000000001
 40
0.0
 40
0.0
 40
0.0
 40
26.22268267980687
 40
26.22268267980687
 40
26.22268267980687
 10
-1060.56546671595
 20
0.0
 30
0.0
 10
-1055.282733357975
 20
-12.0
 30
0.0
 10
-1050.0
 20
-24.0
 30
0.0
  0
SPLINE
  5
2A3
330
1F
100
AcDbEntity
  8
Make2D$visible$lines
100
AcDbSpline
210
0.0
220
0.0
230
1.0
 70
    24
 71
     2
 72
     6
 73
     3
 74
     0
 42
0.000000001
 43
0.0000000001
 40
0.0
 40
0.0
 40
0.0
 40
26.22268267980687
 40
26.22268267980687
 40
26.22268267980687
 10
-1300.56546671595
 20
48.0
 30
0.0
 10
-1295.282733357975
 20
36.0
 30
0.0
 10
-1290.0
 20
24.0
 30
0.0
  0
SPLINE
  5
2A4
330
1F
100
AcDbEntity
  8
Make2D$visible$lines
100
AcDbSpline
210
0.0
220
0.0
230
1.0
 70
    24
 71
     2
 72
     6
 73
     3
 74
     0
 42
0.000000001
 43
0.0000000001
 40
0.0
 40
0.0
 40
0.0
 40
26.22268267980687
 40
26.22268267980687
 40
26.22268267980687
 10
-1252.56546671595
 20
48.0
 30
0.0
 10
-1247.282733357975
 20
36.0
 30
0.0
 10
-1242.0
 20
24.0
 30
0.0
  0
SPLINE
  5
2A5
330
1F
100
AcDbEntity
  8
Make2D$visible$lines
100
AcDbSpline
210
0.0
220
0.0
230
1.0
 70
    24
 71
     2
 72
     6
 73
     3
 74
     0
 42
0.000000001
 43
0.0000000001
 40
0.0
 40
0.0
 40
0.0
 40
26.22268267980687
 40
26.22268267980687
 40
26.22268267980687
 10
-1204.56546671595
 20
48.0
 30
0.0
 10
-1199.282733357975
 20
36.0
 30
0.0
 10
-1194.0
 20
24.0
 30
0.0
  0
SPLINE
  5
2A6
330
1F
100
AcDbEntity
  8
Make2D$visible$lines
100
AcDbSpline
210
0.0
220
0.0
230
1.0
 70
    24
 71
     2
 72
     6
 73
     3
 74
     0
 42
0.000000001
 43
0.0000000001
 40
0.0
 40
0.0
 40
0.0
 40
26.22268267980687
 40
26.22268267980687
 40
26.22268267980687
 10
-1156.56546671595
 20
48.0
 30
0.0
 10
-1151.282733357975
 20
36.0
 30
0.0
 10
-1146.0
 20
24.0
 30
0.0
  0
SPLINE
  5
2A7
330
1F
100
AcDbEntity
  8
Make2D$visible$lines
100
AcDbSpline
210
0.0
220
0.0
230
1.0
 70
    24
 71
     2
 72
     6
 73
     3
 74
     0
 42
0.000000001
 43
0.0000000001
 40
0.0
 40
0.0
 40
0.0
 40
26.22268267980687
 40
26.22268267980687
 40
26.22268267980687
 10
-1108.56546671595
 20
48.0
 30
0.0
 10
-1103.282733357975
 20
36.0
 30
0.0
 10
-1098.0
 20
24.0
 30
0.0
  0
SPLINE
  5
2A8
330
1F
100
AcDbEntity
  8
Make2D$visible$lines
100
AcDbSpline
210
0.0
220
0.0
230
1.0
 70
    24
 71
     2
 72
     6
 73
     3
 74
     0
 42
0.000000001
 43
0.0000000001
 40
0.0
 40
0.0
 40
0.0
 40
26.22268267980687
 40
26.22268267980687
 40
26.22268267980687
 10
-1060.56546671595
 20
48.0
 30
0.0
 10
-1055.282733357975
 20
36.0
 30
0.0
 10
-1050.0
 20
24.0
 30
0.0
  0
SPLINE
  5
2A9
330
1F
100
AcDbEntity
  8
Make2D$visible$lines
100
AcDbSpline
210
0.0
220
0.0
230
1.0
 70
    24
 71
     2
 72
     6
 73
     3
 74
     0
 42
0.000000001
 43
0.0000000001
 40
0.0
 40
0.0
 40
0.0
 40
26.22268267980687
 40
26.22268267980687
 40
26.22268267980687
 10
-1300.56546671595
 20
96.0
 30
0.0
 10
-1295.282733357975
 20
84.0
 30
0.0
 10
-1290.0
 20
72.0
 30
0.0
  0
SPLINE
  5
2AA
330
1F
100
AcDbEntity
  8
Make2D$visible$lines
100
AcDbSpline
210
0.0
220
0.0
230
1.0
 70
    24
 71
     2
 72
     6
 73
     3
 74
     0
 42
0.000000001
 43
0.0000000001
 40
0.0
 40
0.0
 40
0.0
 40
26.22268267980687
 40
26.22268267980687
 40
26.22268267980687
 10
-1252.56546671595
 20
96.0
 30
0.0
 10
-1247.282733357975
 20
84.0
 30
0.0
 10
-1242.0
 20
72.0
 30
0.0
  0
SPLINE
  5
2AB
330
1F
100
AcDbEntity
  8
Make2D$visible$lines
100
AcDbSpline
210
0.0
220
0.0
230
1.0
 70
    24
 71
     2
 72
     6
 73
     3
 74
     0
 42
0.000000001
 43
0.0000000001
 40
0.0
 40
0.0
 40
0.0
 40
26.22268267980687
 40
26.22268267980687
 40
26.22268267980687
 10
-1204.56546671595
 20
96.0
 30
0.0
 10
-1199.282733357975
 20
84.0
 30
0.0
 10
-1194.0
 20
72.0
 30
0.0
  0
SPLINE
  5
2AC
330
1F
100
AcDbEntity
  8
Make2D$visible$lines
100
AcDbSpline
210
0.0
220
0.0
230
1.0
 70
    24
 71
     2
 72
     6
 73
     3
 74
     0
 42
0.000000001
 43
0.0000000001
 40
0.0
 40
0.0
 40
0.0
 40
26.22268267980687
 40
26.22268267980687
 40
26.22268267980687
 10
-1156.56546671595
 20
96.0
 30
0.0
 10
-1151.282733357975
 20
84.0
 30
0.0
 10
-1146.0
 20
72.0
 30
0.0
  0
SPLINE
  5
2AD
330
1F
100
AcDbEntity
  8
Make2D$visible$lines
100
AcDbSpline
210
0.0
220
0.0
230
1.0
 70
    24
 71
     2
 72
     6
 73
     3
 74
     0
 42
0.000000001
 43
0.0000000001
 40
0.0
 40
0.0
 40
0.0
 40
26.22268267980687
 40
26.22268267980687
 40
26.22268267980687
 10
-1108.56546671595
 20
96.0
 30
0.0
 10
-1103.282733357975
 20
84.0
 30
0.0
 10
-1098.0
 20
72.0
 30
0.0
  0
SPLINE
  5
2AE
330
1F
100
AcDbEntity
  8
Make2D$visible$lines
100
AcDbSpline
210
0.0
220
0.0
230
1.0
 70
    24
 71
     2
 72
     6
 73
     3
 74
     0
 42
0.000000001
 43
0.0000000001
 40
0.0
 40
0.0
 40
0.0
 40
26.22268267980687
 40
26.22268267980687
 40
26.22268267980687
 10
-1060.56546671595
 20
96.0
 30
0.0
 10
-1055.282733357975
 20
84.0
 30
0.0
 10
-1050.0
 20
72.0
 30
0.0
  0
SPLINE
  5
2AF
330
1F
100
AcDbEntity
  8
Make2D$visible$lines
100
AcDbSpline
210
0.0
220
0.0
230
1.0
 70
    24
 71
     2
 72
     6
 73
     3
 74
     0
 42
0.000000001
 43
0.0000000001
 40
0.0
 40
0.0
 40
0.0
 40
26.22268267980687
 40
26.22268267980687
 40
26.22268267980687
 10
-1300.56546671595
 20
144.0
 30
0.0
 10
-1295.282733357975
 20
132.0
 30
0.0
 10
-1290.0
 20
120.0
 30
0.0
  0
SPLINE
  5
2B0
330
1F
100
AcDbEntity
  8
Make2D$visible$lines
100
AcDbSpline
210
0.0
220
0.0
230
1.0
 70
    24
 71
     2
 72
     6
 73
     3
 74
     0
 42
0.000000001
 43
0.0000000001
 40
0.0
 40
0.0
 40
0.0
 40
26.22268267980687
 40
26.22268267980687
 40
26.22268267980687
 10
-1252.56546671595
 20
144.0
 30
0.0
 10
-1247.282733357975
 20
132.0
 30
0.0
 10
-1242.0
 20
120.0
 30
0.0
  0
SPLINE
  5
2B1
330
1F
100
AcDbEntity
  8
Make2D$visible$lines
100
AcDbSpline
210
0.0
220
0.0
230
1.0
 70
    24
 71
     2
 72
     6
 73
     3
 74
     0
 42
0.000000001
 43
0.0000000001
 40
0.0
 40
0.0
 40
0.0
 40
26.22268267980687
 40
26.22268267980687
 40
26.22268267980687
 10
-1204.56546671595
 20
144.0
 30
0.0
 10
-1199.282733357975
 20
132.0
 30
0.0
 10
-1194.0
 20
120.0
 30
0.0
  0
SPLINE
  5
2B2
330
1F
100
AcDbEntity
  8
Make2D$visible$lines
100
AcDbSpline
210
0.0
220
0.0
230
1.0
 70
    24
 71
     2
 72
     6
 73
     3
 74
     0
 42
0.000000001
 43
0.0000000001
 40
0.0
 40
0.0
 40
0.0
 40
26.22268267980687
 40
26.22268267980687
 40
26.22268267980687
 10
-1156.56546671595
 20
144.0
 30
0.0
 10
-1151.282733357975
 20
132.0
 30
0.0
 10
-1146.0
 20
120.0
 30
0.0
  0
SPLINE
  5
2B3
330
1F
100
AcDbEntity
  8
Make2D$visible$lines
100
AcDbSpline
210
0.0
220
0.0
230
1.0
 70
    24
 71
     2
 72
     6
 73
     3
 74
     0
 42
0.000000001
 43
0.0000000001
 40
0.0
 40
0.0
 40
0.0
 40
26.22268267980687
 40
26.22268267980687
 40
26.22268267980687
 10
-1108.56546671595
 20
144.0
 30
0.0
 10
-1103.282733357975
 20
132.0
 30
0.0
 10
-1098.0
 20
120.0
 30
0.0
  0
SPLINE
  5
2B4
330
1F
100
AcDbEntity
  8
Make2D$visible$lines
100
AcDbSpline
210
0.0
220
0.0
230
1.0
 70
    24
 71
     2
 72
     6
 73
     3
 74
     0
 42
0.000000001
 43
0.0000000001
 40
0.0
 40
0.0
 40
0.0
 40
26.22268267980687
 40
26.22268267980687
 40
26.22268267980687
 10
-1060.56546671595
 20
144.0
 30
0.0
 10
-1055.282733357975
 20
132.0
 30
0.0
 10
-1050.0
 20
120.0
 30
0.0
  0
ENDSEC
  0
SECTION
  2
OBJECTS
  0
DICTIONARY
  5
C
330
0
100
AcDbDictionary
281
     1
  3
ACAD_DETAILVIEWSTYLE
350
2F0
  3
ACAD_GROUP
350
D
  3
ACAD_LAYOUT
350
1A
  3
ACAD_MATERIAL
350
43
  3
ACAD_MLEADERSTYLE
350
2EF
  3
ACAD_MLINESTYLE
350
17
  3
ACAD_PLOTSETTINGS
350
19
  3
ACAD_PLOTSTYLENAME
350
E
  3
ACAD_SCALELIST
350
47
  3
ACAD_SECTIONVIEWSTYLE
350
2F1
  3
ACAD_TABLESTYLE
350
2EE
  3
ACAD_VISUALSTYLE
350
2A
  3
AcDbVariableDictionary
350
2B5
  0
DICTIONARY
  5
2F0
102
{ACAD_REACTORS
330
C
102
}
330
C
100
AcDbDictionary
281
     1
  0
DICTIONARY
  5
D
102
{ACAD_REACTORS
330
C
102
}
330
C
100
AcDbDictionary
281
     1
  0
DICTIONARY
  5
1A
102
{ACAD_REACTORS
330
C
102
}
330
C
100
AcDbDictionary
281
     1
  3
Layout1
350
1E
  3
Layout2
350
26
  3
Model
350
22
  0
DICTIONARY
  5
43
102
{ACAD_REACTORS
330
C
102
}
330
C
100
AcDbDictionary
281
     1
  3
ByBlock
350
45
  3
ByLayer
350
44
  3
Global
350
46
  0
DICTIONARY
  5
2EF
102
{ACAD_REACTORS
330
C
102
}
330
C
100
AcDbDictionary
281
     1
  0
DICTIONARY
  5
17
102
{ACAD_REACTORS
330
C
102
}
330
C
100
AcDbDictionary
281
     1
  3
Standard
350
18
  0
DICTIONARY
  5
19
102
{ACAD_REACTORS
330
C
102
}
330
C
100
AcDbDictionary
281
     1
  0
ACDBDICTIONARYWDFLT
  5
E
102
{ACAD_REACTORS
330
C
102
}
330
C
100
AcDbDictionary
281
     1
  3
Normal
350
F
100
AcDbDictionaryWithDefault
340
F
  0
DICTIONARY
  5
47
102
{ACAD_REACTORS
330
C
102
}
330
C
100
AcDbDictionary
281
     1
  3
A0
350
48
  3
A1
350
49
  3
A2
350
4A
  3
A3
350
4B
  3
A4
350
4C
  3
A5
350
4D
  3
A6
350
4E
  3
A7
350
4F
  3
A8
350
50
  3
A9
350
51
  3
B0
350
52
  3
B1
350
53
  3
B2
350
54
  3
B3
350
55
  3
B4
350
56
  3
B5
350
57
  3
B6
350
58
  3
B7
350
59
  3
B8
350
5A
  3
B9
350
5B
  3
C0
350
5C
  3
C1
350
5D
  3
C2
350
5E
  3
C3
350
5F
  3
C4
350
60
  3
C5
350
61
  3
C6
350
62
  3
C7
350
63
  3
C8
350
64
  3
C9
350
65
  3
D0
350
66
  3
D1
350
67
  3
D2
350
68
  0
DICTIONARY
  5
2F1
102
{ACAD_REACTORS
330
C
102
}
330
C
100
AcDbDictionary
281
     1
  0
DICTIONARY
  5
2EE
102
{ACAD_REACTORS
330
C
102
}
330
C
100
AcDbDictionary
281
     1
  0
DICTIONARY
  5
2A
102
{ACAD_REACTORS
330
C
102
}
330
C
100
AcDbDictionary
281
     1
  3
2dWireframe
350
2F
  3
Basic
350
32
  3
Brighten
350
36
  3
ColorChange
350
3A
  3
Conceptual
350
34
  3
Dim
350
35
  3
EdgeColorOff
350
3D
  3
Facepattern
350
39
  3
Flat
350
2B
  3
FlatWithEdges
350
2C
  3
Gouraud
350
2D
  3
GouraudWithEdges
350
2E
  3
Hidden
350
31
  3
JitterOff
350
3B
  3
Linepattern
350
38
  3
OverhangOff
350
3C
  3
Realistic
350
33
  3
Shaded
350
42
  3
Shaded with edges
350
41
  3
Shades of Gray
350
3E
  3
Sketchy
350
3F
  3
Thicken
350
37
  3
Wireframe
350
30
  3
X-Ray
350
40
  0
DICTIONARY
  5
2B5
102
{ACAD_REACTORS
330
C
102
}
330
C
100
AcDbDictionary
281
     1
  3
CANNOSCALE
350
2B6
  3
MSLTSCALE
350
2B7
  0
LAYOUT
  5
1E
102
{ACAD_REACTORS
330
1A
102
}
330
1A
100
AcDbPlotSettings
  1

  2
none_device
  4

  6

 40
0.0
 41
0.0
 42
0.0
 43
0.0
 44
0.0
 45
0.0
 46
0.0
 47
0.0
 48
0.0
 49
0.0
140
0.0
141
0.0
142
1.0
143
1.0
 70
   688
 72
     0
 73
     0
 74
     5
  7

 75
    16
 76
     0
 77
     2
 78
   300
147
1.0
148
0.0
149
0.0
100
AcDbLayout
  1
Layout1
 70
     1
 71
     1
 10
0.0
 20
0.0
 11
12.0
 21
9.0
 12
0.0
 22
0.0
 32
0.0
 14
1.000000000000000E+20
 24
1.000000000000000E+20
 34
1.000000000000000E+20
 15
-1.000000000000000E+20
 25
-1.000000000000000E+20
 35
-1.000000000000000E+20
146
0.0
 13
0.0
 23
0.0
 33
0.0
 16
1.0
 26
0.0
 36
0.0
 17
0.0
 27
1.0
 37
0.0
 76
     0
330
1B
  0
LAYOUT
  5
26
102
{ACAD_REACTORS
330
1A
102
}
330
1A
100
AcDbPlotSettings
  1

  2
none_device
  4

  6

 40
0.0
 41
0.0
 42
0.0
 43
0.0
 44
0.0
 45
0.0
 46
0.0
 47
0.0
 48
0.0
 49
0.0
140
0.0
141
0.0
142
1.0
143
1.0
 70
   688
 72
     0
 73
     0
 74
     5
  7

 75
    16
 76
     0
 77
     2
 78
   300
147
1.0
148
0.0
149
0.0
100
AcDbLayout
  1
Layout2
 70
     1
 71
     2
 10
0.0
 20
0.0
 11
0.0
 21
0.0
 12
0.0
 22
0.0
 32
0.0
 14
0.0
 24
0.0
 34
0.0
 15
0.0
 25
0.0
 35
0.0
146
0.0
 13
0.0
 23
0.0
 33
0.0
 16
1.0
 26
0.0
 36
0.0
 17
0.0
 27
1.0
 37
0.0
 76
     0
330
23
  0
LAYOUT
  5
22
102
{ACAD_REACTORS
330
1A
102
}
330
1A
100
AcDbPlotSettings
  1

  2
none_device
  4
Letter_(8.50_x_11.00_Inches)
  6

 40
6.35
 41
6.35
 42
6.35000508
 43
6.35000508
 44
215.9
 45
279.4
 46
0.0
 47
0.0
 48
0.0
 49
0.0
140
0.0
141
0.0
142
1.0
143
1.0
 70
  1712
 72
     0
 73
     0
 74
     0
  7

 75
     0
 76
     0
 77
     2
 78
   300
147
1.0
148
0.0
149
0.0
100
AcDbLayout
  1
Model
 70
     1
 71
     0
 10
0.0
 20
0.0
 11
12.0
 21
9.0
 12
0.0
 22
0.0
 32
0.0
 14
-1338.0
 24
-24.0
 34
0.0
 15
-1050.0
 25
168.0
 35
0.0
146
0.0
 13
0.0
 23
0.0
 33
0.0
 16
1.0
 26
0.0
 36
0.0
 17
0.0
 27
1.0
 37
0.0
 76
     0
330
1F
331
29
  0
MATERIAL
  5
45
102
{ACAD_REACTORS
330
43
102
}
102
{ACAD_XDICTIONARY
360
2EA
102
}
330
43
100
AcDbMaterial
  1
ByBlock
  0
MATERIAL
  5
44
102
{ACAD_REACTORS
330
43
102
}
102
{ACAD_XDICTIONARY
360
2E8
102
}
330
43
100
AcDbMaterial
  1
ByLayer
  0
MATERIAL
  5
46
102
{ACAD_REACTORS
330
43
102
}
102
{ACAD_XDICTIONARY
360
2EC
102
}
330
43
100
AcDbMaterial
  1
Global
  0
MLINESTYLE
  5
18
102
{ACAD_REACTORS
330
17
102
}
330
17
100
AcDbMlineStyle
  2
Standard
 70
     0
  3

 62
   256
 51
90.0
 52
90.0
 71
     2
 49
0.5
 62
   256
  6
BYLAYER
 49
-0.5
 62
   256
  6
BYLAYER
  0
ACDBPLACEHOLDER
  5
F
102
{ACAD_REACTORS
330
E
102
}
330
E
  0
SCALE
  5
48
102
{ACAD_REACTORS
330
47
102
}
330
47
100
AcDbScale
 70
     0
300
1:1
140
1.0
141
1.0
290
     1
  0
SCALE
  5
49
102
{ACAD_REACTORS
330
47
102
}
330
47
100
AcDbScale
 70
     0
300
1:2
140
1.0
141
2.0
290
     0
  0
SCALE
  5
4A
102
{ACAD_REACTORS
330
47
102
}
330
47
100
AcDbScale
 70
     0
300
1:4
140
1.0
141
4.0
290
     0
  0
SCALE
  5
4B
102
{ACAD_REACTORS
330
47
102
}
330
47
100
AcDbScale
 70
     0
300
1:5
140
1.0
141
5.0
290
     0
  0
SCALE
  5
4C
102
{ACAD_REACTORS
330
47
102
}
330
47
100
AcDbScale
 70
     0
300
1:8
140
1.0
141
8.0
290
     0
  0
SCALE
  5
4D
102
{ACAD_REACTORS
330
47
102
}
330
47
100
AcDbScale
 70
     0
300
1:10
140
1.0
141
10.0
290
     0
  0
SCALE
  5
4E
102
{ACAD_REACTORS
330
47
102
}
330
47
100
AcDbScale
 70
     0
300
1:16
140
1.0
141
16.0
290
     0
  0
SCALE
  5
4F
102
{ACAD_REACTORS
330
47
102
}
330
47
100
AcDbScale
 70
     0
300
1:20
140
1.0
141
20.0
290
     0
  0
SCALE
  5
50
102
{ACAD_REACTORS
330
47
102
}
330
47
100
AcDbScale
 70
     0
300
1:30
140
1.0
141
30.0
290
     0
  0
SCALE
  5
51
102
{ACAD_REACTORS
330
47
102
}
330
47
100
AcDbScale
 70
     0
300
1:40
140
1.0
141
40.0
290
     0
  0
SCALE
  5
52
102
{ACAD_REACTORS
330
47
102
}
330
47
100
AcDbScale
 70
     0
300
1:50
140
1.0
141
50.0
290
     0
  0
SCALE
  5
53
102
{ACAD_REACTORS
330
47
102
}
330
47
100
AcDbScale
 70
     0
300
1:100
140
1.0
141
100.0
290
     0
  0
SCALE
  5
54
102
{ACAD_REACTORS
330
47
102
}
330
47
100
AcDbScale
 70
     0
300
2:1
140
2.0
141
1.0
290
     0
  0
SCALE
  5
55
102
{ACAD_REACTORS
330
47
102
}
330
47
100
AcDbScale
 70
     0
300
4:1
140
4.0
141
1.0
290
     0
  0
SCALE
  5
56
102
{ACAD_REACTORS
330
47
102
}
330
47
100
AcDbScale
 70
     0
300
8:1
140
8.0
141
1.0
290
     0
  0
SCALE
  5
57
102
{ACAD_REACTORS
330
47
102
}
330
47
100
AcDbScale
 70
     0
300
10:1
140
10.0
141
1.0
290
     0
  0
SCALE
  5
58
102
{ACAD_REACTORS
330
47
102
}
330
47
100
AcDbScale
 70
     0
300
100:1
140
100.0
141
1.0
290
     0
  0
SCALE
  5
59
102
{ACAD_REACTORS
330
47
102
}
330
47
100
AcDbScale
 70
     0
300
1/128" = 1'-0"
140
0.0078125
141
12.0
290
     0
  0
SCALE
  5
5A
102
{ACAD_REACTORS
330
47
102
}
330
47
100
AcDbScale
 70
     0
300
1/64" = 1'-0"
140
0.015625
141
12.0
290
     0
  0
SCALE
  5
5B
102
{ACAD_REACTORS
330
47
102
}
330
47
100
AcDbScale
 70
     0
300
1/32" = 1'-0"
140
0.03125
141
12.0
290
     0
  0
SCALE
  5
5C
102
{ACAD_REACTORS
330
47
102
}
330
47
100
AcDbScale
 70
     0
300
1/16" = 1'-0"
140
0.0625
141
12.0
290
     0
  0
SCALE
  5
5D
102
{ACAD_REACTORS
330
47
102
}
330
47
100
AcDbScale
 70
     0
300
3/32" = 1'-0"
140
0.09375
141
12.0
290
     0
  0
SCALE
  5
5E
102
{ACAD_REACTORS
330
47
102
}
330
47
100
AcDbScale
 70
     0
300
1/8" = 1'-0"
140
0.125
141
12.0
290
     0
  0
SCALE
  5
5F
102
{ACAD_REACTORS
330
47
102
}
330
47
100
AcDbScale
 70
     0
300
3/16" = 1'-0"
140
0.1875
141
12.0
290
     0
  0
SCALE
  5
60
102
{ACAD_REACTORS
330
47
102
}
330
47
100
AcDbScale
 70
     0
300
1/4" = 1'-0"
140
0.25
141
12.0
290
     0
  0
SCALE
  5
61
102
{ACAD_REACTORS
330
47
102
}
330
47
100
AcDbScale
 70
     0
300
3/8" = 1'-0"
140
0.375
141
12.0
290
     0
  0
SCALE
  5
62
102
{ACAD_REACTORS
330
47
102
}
330
47
100
AcDbScale
 70
     0
300
1/2" = 1'-0"
140
0.5
141
12.0
290
     0
  0
SCALE
  5
63
102
{ACAD_REACTORS
330
47
102
}
330
47
100
AcDbScale
 70
     0
300
3/4" = 1'-0"
140
0.75
141
12.0
290
     0
  0
SCALE
  5
64
102
{ACAD_REACTORS
330
47
102
}
330
47
100
AcDbScale
 70
     0
300
1" = 1'-0"
140
1.0
141
12.0
290
     0
  0
SCALE
  5
65
102
{ACAD_REACTORS
330
47
102
}
330
47
100
AcDbScale
 70
     0
300
1-1/2" = 1'-0"
140
1.5
141
12.0
290
     0
  0
SCALE
  5
66
102
{ACAD_REACTORS
330
47
102
}
330
47
100
AcDbScale
 70
     0
300
3" = 1'-0"
140
3.0
141
12.0
290
     0
  0
SCALE
  5
67
102
{ACAD_REACTORS
330
47
102
}
330
47
100
AcDbScale
 70
     0
300
6" = 1'-0"
140
6.0
141
12.0
290
     0
  0
SCALE
  5
68
102
{ACAD_REACTORS
330
47
102
}
330
47
100
AcDbScale
 70
     0
300
1'-0" = 1'-0"
140
12.0
141
12.0
290
     0
  0
VISUALSTYLE
  5
2F
102
{ACAD_REACTORS
330
2A
102
}
102
{ACAD_XDICTIONARY
360
2C0
102
}
330
2A
100
AcDbVisualStyle
  2
2dWireframe
 70
     4
 71
     0
 72
     2
 73
     0
 90
        0
 40
0.6
 41
30.0
 62
     5
 63
     7
421
 16777215
 74
     1
 91
        4
 64
     7
 65
   257
 75
     1
175
     1
 42
1.0
 92
        0
 66
   257
 43
1.0
 76
     1
 77
     6
 78
     2
 67
     7
 79
     5
170
     0
171
     0
290
     0
174
     0
 93
        1
 44
0.0
173
     0
291
     0
 45
0.0
1001
ACAD
1000
AcDbSavedByObjectVersion
1070
     0
  0
VISUALSTYLE
  5
32
102
{ACAD_REACTORS
330
2A
102
}
102
{ACAD_XDICTIONARY
360
2C6
102
}
330
2A
100
AcDbVisualStyle
  2
Basic
 70
     7
 71
     1
 72
     0
 73
     1
 90
        0
 40
0.6
 41
30.0
 62
     5
 63
     7
421
 16777215
 74
     0
 91
        4
 64
     7
 65
   257
 75
     1
175
     1
 42
1.0
 92
        8
 66
     7
 43
1.0
 76
     1
 77
     6
 78
     2
 67
     7
 79
     5
170
     0
171
     0
290
     0
174
     0
 93
        1
 44
0.0
173
     0
291
     1
 45
0.0
1001
ACAD
1000
AcDbSavedByObjectVersion
1070
     0
  0
VISUALSTYLE
  5
36
102
{ACAD_REACTORS
330
2A
102
}
102
{ACAD_XDICTIONARY
360
2CE
102
}
330
2A
100
AcDbVisualStyle
  2
Brighten
 70
    12
 71
     2
 72
     2
 73
     0
 90
        0
 40
0.6
 41
30.0
 62
     5
 63
     7
421
 16777215
 74
     1
 91
        4
 64
     7
 65
   257
 75
     1
175
     1
 42
1.0
 92
        8
 66
     7
 43
1.0
 76
     1
 77
     6
 78
     2
 67
     7
 79
     5
170
     0
171
     0
290
     0
174
     0
 93
        1
 44
50.0
173
     0
291
     1
 45
0.0
1001
ACAD
1000
AcDbSavedByObjectVersion
1070
     0
  0
VISUALSTYLE
  5
3A
102
{ACAD_REACTORS
330
2A
102
}
102
{ACAD_XDICTIONARY
360
2D6
102
}
330
2A
100
AcDbVisualStyle
  2
ColorChange
 70
    16
 71
     2
 72
     2
 73
     3
 90
        0
 40
0.6
 41
30.0
 62
     5
 63
     8
421
  8421504
 74
     1
 91
        4
 64
     7
 65
   257
 75
     1
175
     1
 42
1.0
 92
        8
 66
     8
424
  8421504
 43
1.0
 76
     1
 77
     6
 78
     2
 67
     7
 79
     5
170
     0
171
     0
290
     0
174
     0
 93
        1
 44
0.0
173
     0
291
     1
 45
0.0
1001
ACAD
1000
AcDbSavedByObjectVersion
1070
     0
  0
VISUALSTYLE
  5
34
102
{ACAD_REACTORS
330
2A
102
}
102
{ACAD_XDICTIONARY
360
2CA
102
}
330
2A
100
AcDbVisualStyle
  2
Conceptual
 70
     9
 71
     3
 72
     2
 73
     0
 90
        0
 40
0.6
 41
30.0
 62
     5
 63
     7
421
 16777215
 74
     2
 91
        2
 64
     7
 65
   257
 75
     1
175
     1
 42
179.0
 92
        8
 66
     7
 43
1.0
 76
     1
 77
     6
 78
     2
 67
     7
 79
     3
170
     0
171
     0
290
     0
174
     0
 93
        1
 44
0.0
173
     0
291
     0
 45
0.0
1001
ACAD
1000
AcDbSavedByObjectVersion
1070
     0
  0
VISUALSTYLE
  5
35
102
{ACAD_REACTORS
330
2A
102
}
102
{ACAD_XDICTIONARY
360
2CC
102
}
330
2A
100
AcDbVisualStyle
  2
Dim
 70
    11
 71
     2
 72
     2
 73
     0
 90
        0
 40
0.6
 41
30.0
 62
     5
 63
     7
421
 16777215
 74
     1
 91
        4
 64
     7
 65
   257
 75
     1
175
     1
 42
1.0
 92
        8
 66
     7
 43
1.0
 76
     1
 77
     6
 78
     2
 67
     7
 79
     5
170
     0
171
     0
290
     0
174
     0
 93
        1
 44
-50.0
173
     0
291
     1
 45
0.0
1001
ACAD
1000
AcDbSavedByObjectVersion
1070
     0
  0
VISUALSTYLE
  5
3D
102
{ACAD_REACTORS
330
2A
102
}
102
{ACAD_XDICTIONARY
360
2DC
102
}
330
2A
100
AcDbVisualStyle
  2
EdgeColorOff
 70
    22
 71
     2
 72
     2
 73
     0
 90
        0
 40
0.6
 41
30.0
 62
     5
 63
     7
421
 16777215
 74
     1
 91
        4
 64
     7
 65
   257
 75
     1
175
     1
 42
1.0
 92
        8
 66
     7
 43
1.0
 76
     1
 77
     6
 78
     2
 67
     7
 79
     5
170
     0
171
     0
290
     0
174
     0
 93
        1
 44
0.0
173
     0
291
     1
 45
0.0
1001
ACAD
1000
AcDbSavedByObjectVersion
1070
     0
  0
VISUALSTYLE
  5
39
102
{ACAD_REACTORS
330
2A
102
}
102
{ACAD_XDICTIONARY
360
2D4
102
}
330
2A
100
AcDbVisualStyle
  2
Facepattern
 70
    15
 71
     2
 72
     2
 73
     0
 90
        0
 40
0.6
 41
30.0
 62
     5
 63
     7
421
 16777215
 74
     1
 91
        4
 64
     7
 65
   257
 75
     1
175
     1
 42
1.0
 92
        8
 66
     7
 43
1.0
 76
     1
 77
     6
 78
     2
 67
     7
 79
     5
170
     0
171
     0
290
     0
174
     0
 93
        1
 44
0.0
173
     0
291
     1
 45
0.0
1001
ACAD
1000
AcDbSavedByObjectVersion
1070
     0
  0
VISUALSTYLE
  5
2B
102
{ACAD_REACTORS
330
2A
102
}
102
{ACAD_XDICTIONARY
360
2B8
102
}
330
2A
100
AcDbVisualStyle
  2
Flat
 70
     0
 71
     2
 72
     1
 73
     1
 90
        2
 40
0.6
 41
30.0
 62
     5
 63
     7
421
 16777215
 74
     0
 91
        0
 64
     7
 65
   257
 75
     1
175
     1
 42
1.0
 92
        8
 66
     7
 43
1.0
 76
     1
 77
     6
 78
     2
 67
     7
 79
     5
170
     0
171
     0
290
     0
174
     0
 93
       13
 44
0.0
173
     0
291
     1
 45
0.0
1001
ACAD
1000
AcDbSavedByObjectVersion
1070
     0
  0
VISUALSTYLE
  5
2C
102
{ACAD_REACTORS
330
2A
102
}
102
{ACAD_XDICTIONARY
360
2BA
102
}
330
2A
100
AcDbVisualStyle
  2
FlatWithEdges
 70
     1
 71
     2
 72
     1
 73
     1
 90
        2
 40
0.6
 41
30.0
 62
     5
 63
     7
421
 16777215
 74
     1
 91
        0
 64
     7
 65
   257
 75
     1
175
     1
 42
1.0
 92
        0
 66
   257
 43
1.0
 76
     1
 77
     6
 78
     2
 67
     7
 79
     5
170
     0
171
     0
290
     0
174
     0
 93
       13
 44
0.0
173
     0
291
     1
 45
0.0
1001
ACAD
1000
AcDbSavedByObjectVersion
1070
     0
  0
VISUALSTYLE
  5
2D
102
{ACAD_REACTORS
330
2A
102
}
102
{ACAD_XDICTIONARY
360
2BC
102
}
330
2A
100
AcDbVisualStyle
  2
Gouraud
 70
     2
 71
     2
 72
     2
 73
     1
 90
        2
 40
0.6
 41
30.0
 62
     5
 63
     7
421
 16777215
 74
     0
 91
        0
 64
     7
 65
   257
 75
     1
175
     1
 42
1.0
 92
        0
 66
     7
 43
1.0
 76
     1
 77
     6
 78
     2
 67
     7
 79
     5
170
     0
171
     0
290
     0
174
     0
 93
       13
 44
0.0
173
     0
291
     1
 45
0.0
1001
ACAD
1000
AcDbSavedByObjectVersion
1070
     0
  0
VISUALSTYLE
  5
2E
102
{ACAD_REACTORS
330
2A
102
}
102
{ACAD_XDICTIONARY
360
2BE
102
}
330
2A
100
AcDbVisualStyle
  2
GouraudWithEdges
 70
     3
 71
     2
 72
     2
 73
     1
 90
        2
 40
0.6
 41
30.0
 62
     5
 63
     7
421
 16777215
 74
     1
 91
        0
 64
     7
 65
   257
 75
     1
175
     1
 42
1.0
 92
        0
 66
   257
 43
1.0
 76
     1
 77
     6
 78
     2
 67
     7
 79
     5
170
     0
171
     0
290
     0
174
     0
 93
       13
 44
0.0
173
     0
291
     1
 45
0.0
1001
ACAD
1000
AcDbSavedByObjectVersion
1070
     0
  0
VISUALSTYLE
  5
31
102
{ACAD_REACTORS
330
2A
102
}
102
{ACAD_XDICTIONARY
360
2C4
102
}
330
2A
100
AcDbVisualStyle
  2
Hidden
 70
     6
 71
     1
 72
     2
 73
     2
 90
        0
 40
0.6
 41
30.0
 62
     5
 63
     7
421
 16777215
 74
     2
 91
        2
 64
     7
 65
   257
 75
     2
175
     1
 42
40.0
 92
        0
 66
   257
 43
1.0
 76
     1
 77
     6
 78
     2
 67
     7
 79
     3
170
     0
171
     0
290
     0
174
     0
 93
        1
 44
0.0
173
     0
291
     0
 45
0.0
1001
ACAD
1000
AcDbSavedByObjectVersion
1070
     0
  0
VISUALSTYLE
  5
3B
102
{ACAD_REACTORS
330
2A
102
}
102
{ACAD_XDICTIONARY
360
2D8
102
}
330
2A
100
AcDbVisualStyle
  2
JitterOff
 70
    20
 71
     2
 72
     2
 73
     0
 90
        0
 40
0.6
 41
30.0
 62
     5
 63
     7
421
 16777215
 74
     1
 91
        4
 64
     7
 65
   257
 75
     1
175
     1
 42
1.0
 92
       10
 66
     7
 43
1.0
 76
     1
 77
     6
 78
     2
 67
     7
 79
     5
170
     0
171
     0
290
     0
174
     0
 93
        1
 44
0.0
173
     0
291
     1
 45
0.0
1001
ACAD
1000
AcDbSavedByObjectVersion
1070
     0
  0
VISUALSTYLE
  5
38
102
{ACAD_REACTORS
330
2A
102
}
102
{ACAD_XDICTIONARY
360
2D2
102
}
330
2A
100
AcDbVisualStyle
  2
Linepattern
 70
    14
 71
     2
 72
     2
 73
     0
 90
        0
 40
0.6
 41
30.0
 62
     5
 63
     7
421
 16777215
 74
     1
 91
        4
 64
     7
 65
   257
 75
     7
175
     7
 42
1.0
 92
        8
 66
     7
 43
1.0
 76
     1
 77
     6
 78
     2
 67
     7
 79
     5
170
     0
171
     0
290
     0
174
     0
 93
        1
 44
0.0
173
     0
291
     1
 45
0.0
1001
ACAD
1000
AcDbSavedByObjectVersion
1070
     0
  0
VISUALSTYLE
  5
3C
102
{ACAD_REACTORS
330
2A
102
}
102
{ACAD_XDICTIONARY
360
2DA
102
}
330
2A
100
AcDbVisualStyle
  2
OverhangOff
 70
    21
 71
     2
 72
     2
 73
     0
 90
        0
 40
0.6
 41
30.0
 62
     5
 63
     7
421
 16777215
 74
     1
 91
        4
 64
     7
 65
   257
 75
     1
175
     1
 42
1.0
 92
        9
 66
     7
 43
1.0
 76
     1
 77
     6
 78
     2
 67
     7
 79
     5
170
     0
171
     0
290
     0
174
     0
 93
        1
 44
0.0
173
     0
291
     1
 45
0.0
1001
ACAD
1000
AcDbSavedByObjectVersion
1070
     0
  0
VISUALSTYLE
  5
33
102
{ACAD_REACTORS
330
2A
102
}
102
{ACAD_XDICTIONARY
360
2C8
102
}
330
2A
100
AcDbVisualStyle
  2
Realistic
 70
     8
 71
     2
 72
     3
 73
     0
 90
        2
 40
0.6
 41
30.0
 62
     5
 63
     7
421
 16777215
 74
     0
 91
        0
 64
     7
 65
   257
 75
     1
175
     1
 42
1.0
 92
        8
 66
   257
 43
1.0
 76
     1
 77
     6
 78
     2
 67
     7
 79
     3
170
     0
171
     0
290
     0
174
     0
 93
       13
 44
0.0
173
     0
291
     0
 45
0.0
1001
ACAD
1000
AcDbSavedByObjectVersion
1070
     0
  0
VISUALSTYLE
  5
42
102
{ACAD_REACTORS
330
2A
102
}
102
{ACAD_XDICTIONARY
360
2E6
102
}
330
2A
100
AcDbVisualStyle
  2
Shaded
 70
    27
 71
     2
 72
     2
 73
     1
 90
        2
 40
0.6
 41
30.0
 62
     5
 63
     7
421
 16777215
 74
     0
 91
        4
 64
     7
 65
   257
 75
     1
175
     1
 42
1.0
 92
        8
 66
   257
 43
1.0
 76
     1
 77
     6
 78
     2
 67
     8
425
  7895160
 79
     3
170
     0
171
     0
290
     0
174
     0
 93
        5
 44
0.0
173
     0
291
     0
 45
0.0
1001
ACAD
1000
AcDbSavedByObjectVersion
1070
     0
  0
VISUALSTYLE
  5
41
102
{ACAD_REACTORS
330
2A
102
}
102
{ACAD_XDICTIONARY
360
2E4
102
}
330
2A
100
AcDbVisualStyle
  2
Shaded with edges
 70
    26
 71
     2
 72
     2
 73
     1
 90
        2
 40
0.6
 41
30.0
 62
     5
 63
     7
421
 16777215
 74
     1
 91
       10
 64
     7
 65
   257
 75
     2
175
     1
 42
1.0
 92
        8
 66
   257
 43
1.0
 76
     1
 77
     6
 78
     2
 67
     7
 79
     3
170
     0
171
     0
290
     0
174
     0
 93
        5
 44
0.0
173
     0
291
     0
 45
0.0
1001
ACAD
1000
AcDbSavedByObjectVersion
1070
     0
  0
VISUALSTYLE
  5
3E
102
{ACAD_REACTORS
330
2A
102
}
102
{ACAD_XDICTIONARY
360
2DE
102
}
330
2A
100
AcDbVisualStyle
  2
Shades of Gray
 70
    23
 71
     2
 72
     2
 73
     3
 90
        0
 40
0.6
 41
30.0
 62
     5
 63
     7
421
 16777215
 74
     2
 91
        2
 64
     7
 65
     7
 75
     1
175
     1
 42
40.0
 92
        8
 66
     7
 43
1.0
 76
     1
 77
     6
 78
     2
 67
     7
 79
     3
170
     0
171
     0
290
     0
174
     0
 93
        1
 44
0.0
173
     0
291
     0
 45
0.0
1001
ACAD
1000
AcDbSavedByObjectVersion
1070
     0
  0
VISUALSTYLE
  5
3F
102
{ACAD_REACTORS
330
2A
102
}
102
{ACAD_XDICTIONARY
360
2E0
102
}
330
2A
100
AcDbVisualStyle
  2
Sketchy
 70
    24
 71
     1
 72
     2
 73
     2
 90
        0
 40
0.6
 41
30.0
 62
     5
 63
     7
421
 16777215
 74
     2
 91
        2
 64
     7
 65
     7
 75
     1
175
     1
 42
40.0
 92
       11
 66
     7
 43
1.0
 76
     1
 77
     6
 78
     2
 67
     7
 79
     6
170
     0
171
     0
290
     0
174
     0
 93
        1
 44
0.0
173
     0
291
     0
 45
0.0
1001
ACAD
1000
AcDbSavedByObjectVersion
1070
     0
  0
VISUALSTYLE
  5
37
102
{ACAD_REACTORS
330
2A
102
}
102
{ACAD_XDICTIONARY
360
2D0
102
}
330
2A
100
AcDbVisualStyle
  2
Thicken
 70
    13
 71
     2
 72
     2
 73
     0
 90
        0
 40
0.6
 41
30.0
 62
     5
 63
     7
421
 16777215
 74
     1
 91
        4
 64
     7
 65
   257
 75
     1
175
     1
 42
1.0
 92
       12
 66
     7
 43
1.0
 76
     1
 77
     6
 78
     2
 67
     7
 79
     5
170
     0
171
     0
290
     0
174
     0
 93
        1
 44
0.0
173
     0
291
     1
 45
0.0
1001
ACAD
1000
AcDbSavedByObjectVersion
1070
     0
  0
VISUALSTYLE
  5
30
102
{ACAD_REACTORS
330
2A
102
}
102
{ACAD_XDICTIONARY
360
2C2
102
}
330
2A
100
AcDbVisualStyle
  2
Wireframe
 70
     5
 71
     0
 72
     2
 73
     0
 90
        0
 40
0.6
 41
30.0
 62
     5
 63
     7
421
 16777215
 74
     1
 91
        4
 64
     7
 65
   257
 75
     1
175
     1
 42
1.0
 92
        0
 66
   257
 43
1.0
 76
     1
 77
     6
 78
     2
 67
     7
 79
     3
170
     0
171
     0
290
     0
174
     0
 93
        1
 44
0.0
173
     0
291
     0
 45
0.0
1001
ACAD
1000
AcDbSavedByObjectVersion
1070
     0
  0
VISUALSTYLE
  5
40
102
{ACAD_REACTORS
330
2A
102
}
102
{ACAD_XDICTIONARY
360
2E2
102
}
330
2A
100
AcDbVisualStyle
  2
X-Ray
 70
    25
 71
     2
 72
     2
 73
     1
 90
        1
 40
0.5
 41
30.0
 62
     5
 63
     7
421
 16777215
 74
     1
 91
        0
 64
     7
 65
   257
 75
     1
175
     1
 42
1.0
 92
        8
 66
     7
 43
1.0
 76
     1
 77
     6
 78
     2
 67
     7
 79
     3
170
     0
171
     0
290
     0
174
     0
 93
       13
 44
0.0
173
     0
291
     0
 45
0.0
1001
ACAD
1000
AcDbSavedByObjectVersion
1070
     0
  0
DICTIONARYVAR
  5
2B6
102
{ACAD_REACTORS
330
2B5
102
}
330
2B5
100
DictionaryVariables
280
     0
  1
1:1
  0
DICTIONARYVAR
  5
2B7
102
{ACAD_REACTORS
330
2B5
102
}
330
2B5
100
DictionaryVariables
280
     0
  1
1
  0
DICTIONARY
  5
2EA
330
45
100
AcDbDictionary
280
     1
281
     1
  3
ACAD_XREC_ROUNDTRIP
360
2EB
  0
DICTIONARY
  5
2E8
330
44
100
AcDbDictionary
280
     1
281
     1
  3
ACAD_XREC_ROUNDTRIP
360
2E9
  0
DICTIONARY
  5
2EC
330
46
100
AcDbDictionary
280
     1
281
     1
  3
ACAD_XREC_ROUNDTRIP
360
2ED
  0
DICTIONARY
  5
2C0
330
2F
100
AcDbDictionary
280
     1
281
     1
  3
ACAD_XREC_ROUNDTRIP
360
2C1
  0
DICTIONARY
  5
2C6
330
32
100
AcDbDictionary
280
     1
281
     1
  3
ACAD_XREC_ROUNDTRIP
360
2C7
  0
DICTIONARY
  5
2CE
330
36
100
AcDbDictionary
280
     1
281
     1
  3
ACAD_XREC_ROUNDTRIP
360
2CF
  0
DICTIONARY
  5
2D6
330
3A
100
AcDbDictionary
280
     1
281
     1
  3
ACAD_XREC_ROUNDTRIP
360
2D7
  0
DICTIONARY
  5
2CA
330
34
100
AcDbDictionary
280
     1
281
     1
  3
ACAD_XREC_ROUNDTRIP
360
2CB
  0
DICTIONARY
  5
2CC
330
35
100
AcDbDictionary
280
     1
281
     1
  3
ACAD_XREC_ROUNDTRIP
360
2CD
  0
DICTIONARY
  5
2DC
330
3D
100
AcDbDictionary
280
     1
281
     1
  3
ACAD_XREC_ROUNDTRIP
360
2DD
  0
DICTIONARY
  5
2D4
330
39
100
AcDbDictionary
280
     1
281
     1
  3
ACAD_XREC_ROUNDTRIP
360
2D5
  0
DICTIONARY
  5
2B8
330
2B
100
AcDbDictionary
280
     1
281
     1
  3
ACAD_XREC_ROUNDTRIP
360
2B9
  0
DICTIONARY
  5
2BA
330
2C
100
AcDbDictionary
280
     1
281
     1
  3
ACAD_XREC_ROUNDTRIP
360
2BB
  0
DICTIONARY
  5
2BC
330
2D
100
AcDbDictionary
280
     1
281
     1
  3
ACAD_XREC_ROUNDTRIP
360
2BD
  0
DICTIONARY
  5
2BE
330
2E
100
AcDbDictionary
280
     1
281
     1
  3
ACAD_XREC_ROUNDTRIP
360
2BF
  0
DICTIONARY
  5
2C4
330
31
100
AcDbDictionary
280
     1
281
     1
  3
ACAD_XREC_ROUNDTRIP
360
2C5
  0
DICTIONARY
  5
2D8
330
3B
100
AcDbDictionary
280
     1
281
     1
  3
ACAD_XREC_ROUNDTRIP
360
2D9
  0
DICTIONARY
  5
2D2
330
38
100
AcDbDictionary
280
     1
281
     1
  3
ACAD_XREC_ROUNDTRIP
360
2D3
  0
DICTIONARY
  5
2DA
330
3C
100
AcDbDictionary
280
     1
281
     1
  3
ACAD_XREC_ROUNDTRIP
360
2DB
  0
DICTIONARY
  5
2C8
330
33
100
AcDbDictionary
280
     1
281
     1
  3
ACAD_XREC_ROUNDTRIP
360
2C9
  0
DICTIONARY
  5
2E6
330
42
100
AcDbDictionary
280
     1
281
     1
  3
ACAD_XREC_ROUNDTRIP
360
2E7
  0
DICTIONARY
  5
2E4
330
41
100
AcDbDictionary
280
     1
281
     1
  3
ACAD_XREC_ROUNDTRIP
360
2E5
  0
DICTIONARY
  5
2DE
330
3E
100
AcDbDictionary
280
     1
281
     1
  3
ACAD_XREC_ROUNDTRIP
360
2DF
  0
DICTIONARY
  5
2E0
330
3F
100
AcDbDictionary
280
     1
281
     1
  3
ACAD_XREC_ROUNDTRIP
360
2E1
  0
DICTIONARY
  5
2D0
330
37
100
AcDbDictionary
280
     1
281
     1
  3
ACAD_XREC_ROUNDTRIP
360
2D1
  0
DICTIONARY
  5
2C2
330
30
100
AcDbDictionary
280
     1
281
     1
  3
ACAD_XREC_ROUNDTRIP
360
2C3
  0
DICTIONARY
  5
2E2
330
40
100
AcDbDictionary
280
     1
281
     1
  3
ACAD_XREC_ROUNDTRIP
360
2E3
  0
XRECORD
  5
2EB
102
{ACAD_REACTORS
330
2EA
102
}
330
2EA
100
AcDbXrecord
280
     1
102
MATERIAL
148
0.0
149
0.0
149
0.0
 93
        0
 94
      127
282
     0
 72
     1
 77
     1
171
     1
175
     1
179
     1
273
     0
  0
XRECORD
  5
2E9
102
{ACAD_REACTORS
330
2E8
102
}
330
2E8
100
AcDbXrecord
280
     1
102
MATERIAL
148
0.0
149
0.0
149
0.0
 93
        0
 94
      127
282
     0
 72
     1
 77
     1
171
     1
175
     1
179
     1
273
     0
  0
XRECORD
  5
2ED
102
{ACAD_REACTORS
330
2EC
102
}
330
2EC
100
AcDbXrecord
280
     1
102
MATERIAL
148
0.0
149
0.0
149
0.0
 93
        0
 94
      127
282
     0
 72
     1
 77
     1
171
     1
175
     1
179
     1
273
     0
  0
XRECORD
  5
2C1
102
{ACAD_REACTORS
330
2C0
102
}
330
2C0
100
AcDbXrecord
280
     1
102
RTVSPropertyOp0
 70
     1
102
RTVSPropertyOp1
 70
     1
102
RTVSPropertyOp2
 70
     1
102
RTVSPropertyOp3
 70
     1
102
RTVSPropertyOp4
 70
     1
102
RTVSPropertyOp5
 70
     1
102
RTVSPropertyOp6
 70
     1
102
RTVSPropertyOp7
 70
     1
102
RTVSPropertyOp8
 70
     1
102
RTVSPropertyOp9
 70
     1
102
RTVSPropertyOp10
 70
     1
102
RTVSPropertyOp11
 70
     1
102
RTVSPropertyOp12
 70
     1
102
RTVSPropertyOp13
 70
     1
102
RTVSPropertyOp14
 70
     1
102
RTVSPropertyOp15
 70
     1
102
RTVSPropertyOp16
 70
     1
102
RTVSPropertyOp17
 70
     1
102
RTVSPropertyOp18
 70
     1
102
RTVSPropertyOp19
 70
     1
102
RTVSPropertyOp20
 70
     1
102
RTVSPropertyOp21
 70
     1
102
RTVSPropertyOp22
 70
     1
102
RTVSPropertyOp23
 70
     1
102
RTVSPropertyOp24
 70
     1
102
RTVSPropertyOp25
 70
     1
102
RTVSPropertyOp26
 70
     1
102
RTVSPropertyOp27
 70
     1
102
RTVSPropertyOp28
 70
     1
102
RTVSPropertyOp29
 70
     1
102
RTVSPropertyOp30
 70
     1
102
RTVSPropertyOp31
 70
     1
102
RTVSPropertyOp32
 70
     1
102
RTVSPropertyOp33
 70
     1
102
RTVSPropertyOp34
 70
     1
102
RTVSPropertyOp35
 70
     1
102
RTVSPropertyOp36
 70
     1
102
RTVSPropertyOp37
 70
     1
102
RTVSPropertyOp38
 70
     1
102
RTVSPropertyOp39
 70
     1
102
RTVSPropertyOp40
 70
     1
102
RTVSPropertyOp41
 70
     1
102
RTVSPropertyOp42
 70
     1
102
RTVSPropertyOp43
 70
     1
102
RTVSPropertyOp44
 70
     1
102
RTVSPropertyOp45
 70
     1
102
RTVSPropertyOp46
 70
     1
102
RTVSPropertyOp47
 70
     1
102
RTVSPropertyOp48
 70
     1
102
RTVSPropertyOp49
 70
     1
102
RTVSPropertyOp50
 70
     1
102
RTVSPropertyOp51
 70
     0
102
RTVSPropertyOp52
 70
     0
102
RTVSPropertyOp53
 70
     1
102
RTVSPropertyOp54
 70
     1
102
RTVSPropertyOp55
 70
     1
102
RTVSPropertyOp56
 70
     1
102
RTVSPropertyOp57
 70
     1
102
RTVSPost2010Prop28
280
     1
102
RTVSPost2010PropOp28
 70
     1
102
RTVSPost2010Prop29
280
     1
102
RTVSPost2010PropOp29
 70
     1
102
RTVSPost2010Prop30
280
     0
102
RTVSPost2010PropOp30
 70
     1
102
RTVSPost2010Prop31
280
     0
102
RTVSPost2010PropOp31
 70
     1
102
RTVSPost2010Prop32
280
     0
102
RTVSPost2010PropOp32
 70
     1
102
RTVSPost2010Prop33
280
     0
102
RTVSPost2010PropOp33
 70
     1
102
RTVSPost2010Prop34
280
     0
102
RTVSPost2010PropOp34
 70
     1
102
RTVSPost2010Prop35
280
     0
102
RTVSPost2010PropOp35
 70
     1
102
RTVSPost2010Prop36
280
     0
102
RTVSPost2010PropOp36
 70
     1
102
RTVSPost2010Prop37
 90
       50
102
RTVSPost2010PropOp37
 70
     1
102
RTVSPost2010Prop38
140
0.0
102
RTVSPost2010PropOp38
 70
     1
102
RTVSPost2010Prop39
140
1.0
102
RTVSPost2010PropOp39
 70
     1
102
RTVSPost2010Prop40
 90
        0
102
RTVSPost2010PropOp40
 70
     1
102
RTVSPost2010Prop41ColorIndex
 90
       18
102
RTVSPost2010Prop41ColorRGB
 90
        0
102
RTVSPost2010PropOp41
 70
     1
102
RTVSPost2010Prop42
 90
       50
102
RTVSPost2010PropOp42
 70
     1
102
RTVSPost2010Prop43
 90
        3
102
RTVSPost2010PropOp43
 70
     1
102
RTVSPost2010Prop44ColorIndex
 90
        5
102
RTVSPost2010Prop44ColorRGB
 90
      255
102
RTVSPost2010PropOp44
 70
     1
102
RTVSPost2010Prop45
280
     0
102
RTVSPost2010PropOp45
 70
     1
102
RTVSPost2010Prop46
 90
       50
102
RTVSPost2010PropOp46
 70
     1
102
RTVSPost2010Prop47
 90
       50
102
RTVSPost2010PropOp47
 70
     1
102
RTVSPost2010Prop48
 90
       50
102
RTVSPost2010PropOp48
 70
     1
102
RTVSPost2010Prop49
280
     0
102
RTVSPost2010PropOp49
 70
     1
102
RTVSPost2010Prop50
 90
       50
102
RTVSPost2010PropOp50
 70
     1
102
RTVSPost2010Prop51ColorIndex
 90
      256
102
RTVSPost2010Prop51ColorRGB
 90
-16777216
102
RTVSPost2010PropOp51
 70
     0
102
RTVSPost2010Prop52
140
1.0
102
RTVSPost2010PropOp52
 70
     0
102
RTVSPost2010Prop53
 90
        2
102
RTVSPost2010PropOp53
 70
     1
102
RTVSPost2010Prop54
  1
strokes_ogs.tif
102
RTVSPost2010PropOp54
 70
     1
102
RTVSPost2010Prop55
280
     0
102
RTVSPost2010PropOp55
 70
     1
102
RTVSPost2010Prop56
140
1.0
102
RTVSPost2010PropOp56
 70
     1
102
RTVSPost2010Prop57
140
1.0
102
RTVSPost2010PropOp57
 70
     1
  0
XRECORD
  5
2C7
102
{ACAD_REACTORS
330
2C6
102
}
330
2C6
100
AcDbXrecord
280
     1
102
RTVSPropertyOp0
 70
     1
102
RTVSPropertyOp1
 70
     1
102
RTVSPropertyOp2
 70
     1
102
RTVSPropertyOp3
 70
     1
102
RTVSPropertyOp4
 70
     1
102
RTVSPropertyOp5
 70
     1
102
RTVSPropertyOp6
 70
     1
102
RTVSPropertyOp7
 70
     1
102
RTVSPropertyOp8
 70
     1
102
RTVSPropertyOp9
 70
     1
102
RTVSPropertyOp10
 70
     1
102
RTVSPropertyOp11
 70
     1
102
RTVSPropertyOp12
 70
     1
102
RTVSPropertyOp13
 70
     1
102
RTVSPropertyOp14
 70
     1
102
RTVSPropertyOp15
 70
     1
102
RTVSPropertyOp16
 70
     1
102
RTVSPropertyOp17
 70
     1
102
RTVSPropertyOp18
 70
     1
102
RTVSPropertyOp19
 70
     1
102
RTVSPropertyOp20
 70
     1
102
RTVSPropertyOp21
 70
     1
102
RTVSPropertyOp22
 70
     1
102
RTVSPropertyOp23
 70
     1
102
RTVSPropertyOp24
 70
     1
102
RTVSPropertyOp25
 70
     1
102
RTVSPropertyOp26
 70
     1
102
RTVSPropertyOp27
 70
     1
102
RTVSPropertyOp28
 70
     1
102
RTVSPropertyOp29
 70
     1
102
RTVSPropertyOp30
 70
     1
102
RTVSPropertyOp31
 70
     1
102
RTVSPropertyOp32
 70
     1
102
RTVSPropertyOp33
 70
     1
102
RTVSPropertyOp34
 70
     1
102
RTVSPropertyOp35
 70
     1
102
RTVSPropertyOp36
 70
     1
102
RTVSPropertyOp37
 70
     1
102
RTVSPropertyOp38
 70
     1
102
RTVSPropertyOp39
 70
     1
102
RTVSPropertyOp40
 70
     1
102
RTVSPropertyOp41
 70
     1
102
RTVSPropertyOp42
 70
     1
102
RTVSPropertyOp43
 70
     1
102
RTVSPropertyOp44
 70
     1
102
RTVSPropertyOp45
 70
     1
102
RTVSPropertyOp46
 70
     1
102
RTVSPropertyOp47
 70
     1
102
RTVSPropertyOp48
 70
     1
102
RTVSPropertyOp49
 70
     1
102
RTVSPropertyOp50
 70
     1
102
RTVSPropertyOp51
 70
     0
102
RTVSPropertyOp52
 70
     0
102
RTVSPropertyOp53
 70
     1
102
RTVSPropertyOp54
 70
     1
102
RTVSPropertyOp55
 70
     1
102
RTVSPropertyOp56
 70
     1
102
RTVSPropertyOp57
 70
     1
102
RTVSPost2010Prop28
280
     0
102
RTVSPost2010PropOp28
 70
     1
102
RTVSPost2010Prop29
280
     1
102
RTVSPost2010PropOp29
 70
     1
102
RTVSPost2010Prop30
280
     1
102
RTVSPost2010PropOp30
 70
     1
102
RTVSPost2010Prop31
280
     0
102
RTVSPost2010PropOp31
 70
     1
102
RTVSPost2010Prop32
280
     0
102
RTVSPost2010PropOp32
 70
     1
102
RTVSPost2010Prop33
280
     0
102
RTVSPost2010PropOp33
 70
     1
102
RTVSPost2010Prop34
280
     0
102
RTVSPost2010PropOp34
 70
     1
102
RTVSPost2010Prop35
280
     0
102
RTVSPost2010PropOp35
 70
     1
102
RTVSPost2010Prop36
280
     0
102
RTVSPost2010PropOp36
 70
     1
102
RTVSPost2010Prop37
 90
       50
102
RTVSPost2010PropOp37
 70
     1
102
RTVSPost2010Prop38
140
0.0
102
RTVSPost2010PropOp38
 70
     1
102
RTVSPost2010Prop39
140
1.0
102
RTVSPost2010PropOp39
 70
     1
102
RTVSPost2010Prop40
 90
        0
102
RTVSPost2010PropOp40
 70
     1
102
RTVSPost2010Prop41ColorIndex
 90
       18
102
RTVSPost2010Prop41ColorRGB
 90
        0
102
RTVSPost2010PropOp41
 70
     1
102
RTVSPost2010Prop42
 90
       50
102
RTVSPost2010PropOp42
 70
     1
102
RTVSPost2010Prop43
 90
        3
102
RTVSPost2010PropOp43
 70
     1
102
RTVSPost2010Prop44ColorIndex
 90
        5
102
RTVSPost2010Prop44ColorRGB
 90
      255
102
RTVSPost2010PropOp44
 70
     1
102
RTVSPost2010Prop45
280
     0
102
RTVSPost2010PropOp45
 70
     1
102
RTVSPost2010Prop46
 90
       50
102
RTVSPost2010PropOp46
 70
     1
102
RTVSPost2010Prop47
 90
       50
102
RTVSPost2010PropOp47
 70
     1
102
RTVSPost2010Prop48
 90
       50
102
RTVSPost2010PropOp48
 70
     1
102
RTVSPost2010Prop49
280
     0
102
RTVSPost2010PropOp49
 70
     1
102
RTVSPost2010Prop50
 90
       50
102
RTVSPost2010PropOp50
 70
     1
102
RTVSPost2010Prop51ColorIndex
 90
      256
102
RTVSPost2010Prop51ColorRGB
 90
-16777216
102
RTVSPost2010PropOp51
 70
     0
102
RTVSPost2010Prop52
140
1.0
102
RTVSPost2010PropOp52
 70
     0
102
RTVSPost2010Prop53
 90
        2
102
RTVSPost2010PropOp53
 70
     1
102
RTVSPost2010Prop54
  1
strokes_ogs.tif
102
RTVSPost2010PropOp54
 70
     1
102
RTVSPost2010Prop55
280
     0
102
RTVSPost2010PropOp55
 70
     1
102
RTVSPost2010Prop56
140
1.0
102
RTVSPost2010PropOp56
 70
     1
102
RTVSPost2010Prop57
140
1.0
102
RTVSPost2010PropOp57
 70
     1
  0
XRECORD
  5
2CF
102
{ACAD_REACTORS
330
2CE
102
}
330
2CE
100
AcDbXrecord
280
     1
102
RTVSPropertyOp0
 70
     1
102
RTVSPropertyOp1
 70
     1
102
RTVSPropertyOp2
 70
     1
102
RTVSPropertyOp3
 70
     1
102
RTVSPropertyOp4
 70
     1
102
RTVSPropertyOp5
 70
     1
102
RTVSPropertyOp6
 70
     1
102
RTVSPropertyOp7
 70
     1
102
RTVSPropertyOp8
 70
     1
102
RTVSPropertyOp9
 70
     1
102
RTVSPropertyOp10
 70
     1
102
RTVSPropertyOp11
 70
     1
102
RTVSPropertyOp12
 70
     1
102
RTVSPropertyOp13
 70
     1
102
RTVSPropertyOp14
 70
     1
102
RTVSPropertyOp15
 70
     1
102
RTVSPropertyOp16
 70
     1
102
RTVSPropertyOp17
 70
     1
102
RTVSPropertyOp18
 70
     1
102
RTVSPropertyOp19
 70
     1
102
RTVSPropertyOp20
 70
     1
102
RTVSPropertyOp21
 70
     1
102
RTVSPropertyOp22
 70
     1
102
RTVSPropertyOp23
 70
     1
102
RTVSPropertyOp24
 70
     1
102
RTVSPropertyOp25
 70
     1
102
RTVSPropertyOp26
 70
     1
102
RTVSPropertyOp27
 70
     1
102
RTVSPropertyOp28
 70
     1
102
RTVSPropertyOp29
 70
     1
102
RTVSPropertyOp30
 70
     1
102
RTVSPropertyOp31
 70
     1
102
RTVSPropertyOp32
 70
     1
102
RTVSPropertyOp33
 70
     1
102
RTVSPropertyOp34
 70
     1
102
RTVSPropertyOp35
 70
     1
102
RTVSPropertyOp36
 70
     1
102
RTVSPropertyOp37
 70
     1
102
RTVSPropertyOp38
 70
     1
102
RTVSPropertyOp39
 70
     1
102
RTVSPropertyOp40
 70
     1
102
RTVSPropertyOp41
 70
     1
102
RTVSPropertyOp42
 70
     1
102
RTVSPropertyOp43
 70
     1
102
RTVSPropertyOp44
 70
     1
102
RTVSPropertyOp45
 70
     1
102
RTVSPropertyOp46
 70
     1
102
RTVSPropertyOp47
 70
     1
102
RTVSPropertyOp48
 70
     1
102
RTVSPropertyOp49
 70
     1
102
RTVSPropertyOp50
 70
     1
102
RTVSPropertyOp51
 70
     0
102
RTVSPropertyOp52
 70
     0
102
RTVSPropertyOp53
 70
     1
102
RTVSPropertyOp54
 70
     1
102
RTVSPropertyOp55
 70
     1
102
RTVSPropertyOp56
 70
     1
102
RTVSPropertyOp57
 70
     1
102
RTVSPost2010Prop28
280
     0
102
RTVSPost2010PropOp28
 70
     1
102
RTVSPost2010Prop29
280
     1
102
RTVSPost2010PropOp29
 70
     1
102
RTVSPost2010Prop30
280
     1
102
RTVSPost2010PropOp30
 70
     1
102
RTVSPost2010Prop31
280
     0
102
RTVSPost2010PropOp31
 70
     1
102
RTVSPost2010Prop32
280
     0
102
RTVSPost2010PropOp32
 70
     1
102
RTVSPost2010Prop33
280
     0
102
RTVSPost2010PropOp33
 70
     1
102
RTVSPost2010Prop34
280
     0
102
RTVSPost2010PropOp34
 70
     1
102
RTVSPost2010Prop35
280
     0
102
RTVSPost2010PropOp35
 70
     1
102
RTVSPost2010Prop36
280
     0
102
RTVSPost2010PropOp36
 70
     1
102
RTVSPost2010Prop37
 90
       50
102
RTVSPost2010PropOp37
 70
     1
102
RTVSPost2010Prop38
140
0.0
102
RTVSPost2010PropOp38
 70
     1
102
RTVSPost2010Prop39
140
1.0
102
RTVSPost2010PropOp39
 70
     1
102
RTVSPost2010Prop40
 90
        0
102
RTVSPost2010PropOp40
 70
     1
102
RTVSPost2010Prop41ColorIndex
 90
       18
102
RTVSPost2010Prop41ColorRGB
 90
        0
102
RTVSPost2010PropOp41
 70
     1
102
RTVSPost2010Prop42
 90
       50
102
RTVSPost2010PropOp42
 70
     1
102
RTVSPost2010Prop43
 90
        3
102
RTVSPost2010PropOp43
 70
     1
102
RTVSPost2010Prop44ColorIndex
 90
        5
102
RTVSPost2010Prop44ColorRGB
 90
      255
102
RTVSPost2010PropOp44
 70
     1
102
RTVSPost2010Prop45
280
     0
102
RTVSPost2010PropOp45
 70
     1
102
RTVSPost2010Prop46
 90
       50
102
RTVSPost2010PropOp46
 70
     1
102
RTVSPost2010Prop47
 90
       50
102
RTVSPost2010PropOp47
 70
     1
102
RTVSPost2010Prop48
 90
       50
102
RTVSPost2010PropOp48
 70
     1
102
RTVSPost2010Prop49
280
     0
102
RTVSPost2010PropOp49
 70
     1
102
RTVSPost2010Prop50
 90
       50
102
RTVSPost2010PropOp50
 70
     1
102
RTVSPost2010Prop51ColorIndex
 90
      256
102
RTVSPost2010Prop51ColorRGB
 90
-16777216
102
RTVSPost2010PropOp51
 70
     0
102
RTVSPost2010Prop52
140
1.0
102
RTVSPost2010PropOp52
 70
     0
102
RTVSPost2010Prop53
 90
        2
102
RTVSPost2010PropOp53
 70
     1
102
RTVSPost2010Prop54
  1
strokes_ogs.tif
102
RTVSPost2010PropOp54
 70
     1
102
RTVSPost2010Prop55
280
     0
102
RTVSPost2010PropOp55
 70
     1
102
RTVSPost2010Prop56
140
1.0
102
RTVSPost2010PropOp56
 70
     1
102
RTVSPost2010Prop57
140
1.0
102
RTVSPost2010PropOp57
 70
     1
  0
XRECORD
  5
2D7
102
{ACAD_REACTORS
330
2D6
102
}
330
2D6
100
AcDbXrecord
280
     1
102
RTVSPropertyOp0
 70
     1
102
RTVSPropertyOp1
 70
     1
102
RTVSPropertyOp2
 70
     1
102
RTVSPropertyOp3
 70
     1
102
RTVSPropertyOp4
 70
     1
102
RTVSPropertyOp5
 70
     1
102
RTVSPropertyOp6
 70
     1
102
RTVSPropertyOp7
 70
     1
102
RTVSPropertyOp8
 70
     1
102
RTVSPropertyOp9
 70
     1
102
RTVSPropertyOp10
 70
     1
102
RTVSPropertyOp11
 70
     1
102
RTVSPropertyOp12
 70
     1
102
RTVSPropertyOp13
 70
     1
102
RTVSPropertyOp14
 70
     1
102
RTVSPropertyOp15
 70
     1
102
RTVSPropertyOp16
 70
     1
102
RTVSPropertyOp17
 70
     1
102
RTVSPropertyOp18
 70
     1
102
RTVSPropertyOp19
 70
     1
102
RTVSPropertyOp20
 70
     1
102
RTVSPropertyOp21
 70
     1
102
RTVSPropertyOp22
 70
     1
102
RTVSPropertyOp23
 70
     1
102
RTVSPropertyOp24
 70
     1
102
RTVSPropertyOp25
 70
     1
102
RTVSPropertyOp26
 70
     1
102
RTVSPropertyOp27
 70
     1
102
RTVSPropertyOp28
 70
     1
102
RTVSPropertyOp29
 70
     1
102
RTVSPropertyOp30
 70
     1
102
RTVSPropertyOp31
 70
     1
102
RTVSPropertyOp32
 70
     1
102
RTVSPropertyOp33
 70
     1
102
RTVSPropertyOp34
 70
     1
102
RTVSPropertyOp35
 70
     1
102
RTVSPropertyOp36
 70
     1
102
RTVSPropertyOp37
 70
     1
102
RTVSPropertyOp38
 70
     1
102
RTVSPropertyOp39
 70
     1
102
RTVSPropertyOp40
 70
     1
102
RTVSPropertyOp41
 70
     1
102
RTVSPropertyOp42
 70
     1
102
RTVSPropertyOp43
 70
     1
102
RTVSPropertyOp44
 70
     1
102
RTVSPropertyOp45
 70
     1
102
RTVSPropertyOp46
 70
     1
102
RTVSPropertyOp47
 70
     1
102
RTVSPropertyOp48
 70
     1
102
RTVSPropertyOp49
 70
     1
102
RTVSPropertyOp50
 70
     1
102
RTVSPropertyOp51
 70
     0
102
RTVSPropertyOp52
 70
     0
102
RTVSPropertyOp53
 70
     1
102
RTVSPropertyOp54
 70
     1
102
RTVSPropertyOp55
 70
     1
102
RTVSPropertyOp56
 70
     1
102
RTVSPropertyOp57
 70
     1
102
RTVSPost2010Prop28
280
     0
102
RTVSPost2010PropOp28
 70
     1
102
RTVSPost2010Prop29
280
     1
102
RTVSPost2010PropOp29
 70
     1
102
RTVSPost2010Prop30
280
     1
102
RTVSPost2010PropOp30
 70
     1
102
RTVSPost2010Prop31
280
     0
102
RTVSPost2010PropOp31
 70
     1
102
RTVSPost2010Prop32
280
     0
102
RTVSPost2010PropOp32
 70
     1
102
RTVSPost2010Prop33
280
     0
102
RTVSPost2010PropOp33
 70
     1
102
RTVSPost2010Prop34
280
     0
102
RTVSPost2010PropOp34
 70
     1
102
RTVSPost2010Prop35
280
     0
102
RTVSPost2010PropOp35
 70
     1
102
RTVSPost2010Prop36
280
     0
102
RTVSPost2010PropOp36
 70
     1
102
RTVSPost2010Prop37
 90
       50
102
RTVSPost2010PropOp37
 70
     1
102
RTVSPost2010Prop38
140
0.0
102
RTVSPost2010PropOp38
 70
     1
102
RTVSPost2010Prop39
140
1.0
102
RTVSPost2010PropOp39
 70
     1
102
RTVSPost2010Prop40
 90
        0
102
RTVSPost2010PropOp40
 70
     1
102
RTVSPost2010Prop41ColorIndex
 90
       18
102
RTVSPost2010Prop41ColorRGB
 90
        0
102
RTVSPost2010PropOp41
 70
     1
102
RTVSPost2010Prop42
 90
       50
102
RTVSPost2010PropOp42
 70
     1
102
RTVSPost2010Prop43
 90
        3
102
RTVSPost2010PropOp43
 70
     1
102
RTVSPost2010Prop44ColorIndex
 90
        5
102
RTVSPost2010Prop44ColorRGB
 90
      255
102
RTVSPost2010PropOp44
 70
     1
102
RTVSPost2010Prop45
280
     0
102
RTVSPost2010PropOp45
 70
     1
102
RTVSPost2010Prop46
 90
       50
102
RTVSPost2010PropOp46
 70
     1
102
RTVSPost2010Prop47
 90
       50
102
RTVSPost2010PropOp47
 70
     1
102
RTVSPost2010Prop48
 90
       50
102
RTVSPost2010PropOp48
 70
     1
102
RTVSPost2010Prop49
280
     0
102
RTVSPost2010PropOp49
 70
     1
102
RTVSPost2010Prop50
 90
       50
102
RTVSPost2010PropOp50
 70
     1
102
RTVSPost2010Prop51ColorIndex
 90
      256
102
RTVSPost2010Prop51ColorRGB
 90
-16777216
102
RTVSPost2010PropOp51
 70
     0
102
RTVSPost2010Prop52
140
1.0
102
RTVSPost2010PropOp52
 70
     0
102
RTVSPost2010Prop53
 90
        2
102
RTVSPost2010PropOp53
 70
     1
102
RTVSPost2010Prop54
  1
strokes_ogs.tif
102
RTVSPost2010PropOp54
 70
     1
102
RTVSPost2010Prop55
280
     0
102
RTVSPost2010PropOp55
 70
     1
102
RTVSPost2010Prop56
140
1.0
102
RTVSPost2010PropOp56
 70
     1
102
RTVSPost2010Prop57
140
1.0
102
RTVSPost2010PropOp57
 70
     1
  0
XRECORD
  5
2CB
102
{ACAD_REACTORS
330
2CA
102
}
330
2CA
100
AcDbXrecord
280
     1
102
RTVSPropertyOp0
 70
     1
102
RTVSPropertyOp1
 70
     1
102
RTVSPropertyOp2
 70
     1
102
RTVSPropertyOp3
 70
     1
102
RTVSPropertyOp4
 70
     1
102
RTVSPropertyOp5
 70
     1
102
RTVSPropertyOp6
 70
     1
102
RTVSPropertyOp7
 70
     1
102
RTVSPropertyOp8
 70
     1
102
RTVSPropertyOp9
 70
     1
102
RTVSPropertyOp10
 70
     1
102
RTVSPropertyOp11
 70
     1
102
RTVSPropertyOp12
 70
     1
102
RTVSPropertyOp13
 70
     1
102
RTVSPropertyOp14
 70
     1
102
RTVSPropertyOp15
 70
     1
102
RTVSPropertyOp16
 70
     1
102
RTVSPropertyOp17
 70
     1
102
RTVSPropertyOp18
 70
     1
102
RTVSPropertyOp19
 70
     1
102
RTVSPropertyOp20
 70
     1
102
RTVSPropertyOp21
 70
     1
102
RTVSPropertyOp22
 70
     1
102
RTVSPropertyOp23
 70
     1
102
RTVSPropertyOp24
 70
     1
102
RTVSPropertyOp25
 70
     1
102
RTVSPropertyOp26
 70
     1
102
RTVSPropertyOp27
 70
     1
102
RTVSPropertyOp28
 70
     1
102
RTVSPropertyOp29
 70
     1
102
RTVSPropertyOp30
 70
     1
102
RTVSPropertyOp31
 70
     1
102
RTVSPropertyOp32
 70
     1
102
RTVSPropertyOp33
 70
     1
102
RTVSPropertyOp34
 70
     1
102
RTVSPropertyOp35
 70
     1
102
RTVSPropertyOp36
 70
     1
102
RTVSPropertyOp37
 70
     1
102
RTVSPropertyOp38
 70
     1
102
RTVSPropertyOp39
 70
     1
102
RTVSPropertyOp40
 70
     1
102
RTVSPropertyOp41
 70
     1
102
RTVSPropertyOp42
 70
     1
102
RTVSPropertyOp43
 70
     1
102
RTVSPropertyOp44
 70
     1
102
RTVSPropertyOp45
 70
     1
102
RTVSPropertyOp46
 70
     1
102
RTVSPropertyOp47
 70
     1
102
RTVSPropertyOp48
 70
     1
102
RTVSPropertyOp49
 70
     1
102
RTVSPropertyOp50
 70
     1
102
RTVSPropertyOp51
 70
     0
102
RTVSPropertyOp52
 70
     0
102
RTVSPropertyOp53
 70
     1
102
RTVSPropertyOp54
 70
     1
102
RTVSPropertyOp55
 70
     1
102
RTVSPropertyOp56
 70
     1
102
RTVSPropertyOp57
 70
     1
102
RTVSPost2010Prop28
280
     0
102
RTVSPost2010PropOp28
 70
     1
102
RTVSPost2010Prop29
280
     1
102
RTVSPost2010PropOp29
 70
     1
102
RTVSPost2010Prop30
280
     1
102
RTVSPost2010PropOp30
 70
     1
102
RTVSPost2010Prop31
280
     0
102
RTVSPost2010PropOp31
 70
     1
102
RTVSPost2010Prop32
280
     0
102
RTVSPost2010PropOp32
 70
     1
102
RTVSPost2010Prop33
280
     0
102
RTVSPost2010PropOp33
 70
     1
102
RTVSPost2010Prop34
280
     0
102
RTVSPost2010PropOp34
 70
     1
102
RTVSPost2010Prop35
280
     0
102
RTVSPost2010PropOp35
 70
     1
102
RTVSPost2010Prop36
280
     0
102
RTVSPost2010PropOp36
 70
     1
102
RTVSPost2010Prop37
 90
       50
102
RTVSPost2010PropOp37
 70
     1
102
RTVSPost2010Prop38
140
0.0
102
RTVSPost2010PropOp38
 70
     1
102
RTVSPost2010Prop39
140
1.0
102
RTVSPost2010PropOp39
 70
     1
102
RTVSPost2010Prop40
 90
        0
102
RTVSPost2010PropOp40
 70
     1
102
RTVSPost2010Prop41ColorIndex
 90
       18
102
RTVSPost2010Prop41ColorRGB
 90
        0
102
RTVSPost2010PropOp41
 70
     1
102
RTVSPost2010Prop42
 90
       50
102
RTVSPost2010PropOp42
 70
     1
102
RTVSPost2010Prop43
 90
        3
102
RTVSPost2010PropOp43
 70
     1
102
RTVSPost2010Prop44ColorIndex
 90
        5
102
RTVSPost2010Prop44ColorRGB
 90
      255
102
RTVSPost2010PropOp44
 70
     1
102
RTVSPost2010Prop45
280
     0
102
RTVSPost2010PropOp45
 70
     1
102
RTVSPost2010Prop46
 90
       50
102
RTVSPost2010PropOp46
 70
     1
102
RTVSPost2010Prop47
 90
       50
102
RTVSPost2010PropOp47
 70
     1
102
RTVSPost2010Prop48
 90
       50
102
RTVSPost2010PropOp48
 70
     1
102
RTVSPost2010Prop49
280
     0
102
RTVSPost2010PropOp49
 70
     1
102
RTVSPost2010Prop50
 90
       50
102
RTVSPost2010PropOp50
 70
     1
102
RTVSPost2010Prop51ColorIndex
 90
      256
102
RTVSPost2010Prop51ColorRGB
 90
-16777216
102
RTVSPost2010PropOp51
 70
     0
102
RTVSPost2010Prop52
140
1.0
102
RTVSPost2010PropOp52
 70
     0
102
RTVSPost2010Prop53
 90
        2
102
RTVSPost2010PropOp53
 70
     1
102
RTVSPost2010Prop54
  1
strokes_ogs.tif
102
RTVSPost2010PropOp54
 70
     1
102
RTVSPost2010Prop55
280
     0
102
RTVSPost2010PropOp55
 70
     1
102
RTVSPost2010Prop56
140
1.0
102
RTVSPost2010PropOp56
 70
     1
102
RTVSPost2010Prop57
140
1.0
102
RTVSPost2010PropOp57
 70
     1
  0
XRECORD
  5
2CD
102
{ACAD_REACTORS
330
2CC
102
}
330
2CC
100
AcDbXrecord
280
     1
102
RTVSPropertyOp0
 70
     1
102
RTVSPropertyOp1
 70
     1
102
RTVSPropertyOp2
 70
     1
102
RTVSPropertyOp3
 70
     1
102
RTVSPropertyOp4
 70
     1
102
RTVSPropertyOp5
 70
     1
102
RTVSPropertyOp6
 70
     1
102
RTVSPropertyOp7
 70
     1
102
RTVSPropertyOp8
 70
     1
102
RTVSPropertyOp9
 70
     1
102
RTVSPropertyOp10
 70
     1
102
RTVSPropertyOp11
 70
     1
102
RTVSPropertyOp12
 70
     1
102
RTVSPropertyOp13
 70
     1
102
RTVSPropertyOp14
 70
     1
102
RTVSPropertyOp15
 70
     1
102
RTVSPropertyOp16
 70
     1
102
RTVSPropertyOp17
 70
     1
102
RTVSPropertyOp18
 70
     1
102
RTVSPropertyOp19
 70
     1
102
RTVSPropertyOp20
 70
     1
102
RTVSPropertyOp21
 70
     1
102
RTVSPropertyOp22
 70
     1
102
RTVSPropertyOp23
 70
     1
102
RTVSPropertyOp24
 70
     1
102
RTVSPropertyOp25
 70
     1
102
RTVSPropertyOp26
 70
     1
102
RTVSPropertyOp27
 70
     1
102
RTVSPropertyOp28
 70
     1
102
RTVSPropertyOp29
 70
     1
102
RTVSPropertyOp30
 70
     1
102
RTVSPropertyOp31
 70
     1
102
RTVSPropertyOp32
 70
     1
102
RTVSPropertyOp33
 70
     1
102
RTVSPropertyOp34
 70
     1
102
RTVSPropertyOp35
 70
     1
102
RTVSPropertyOp36
 70
     1
102
RTVSPropertyOp37
 70
     1
102
RTVSPropertyOp38
 70
     1
102
RTVSPropertyOp39
 70
     1
102
RTVSPropertyOp40
 70
     1
102
RTVSPropertyOp41
 70
     1
102
RTVSPropertyOp42
 70
     1
102
RTVSPropertyOp43
 70
     1
102
RTVSPropertyOp44
 70
     1
102
RTVSPropertyOp45
 70
     1
102
RTVSPropertyOp46
 70
     1
102
RTVSPropertyOp47
 70
     1
102
RTVSPropertyOp48
 70
     1
102
RTVSPropertyOp49
 70
     1
102
RTVSPropertyOp50
 70
     1
102
RTVSPropertyOp51
 70
     0
102
RTVSPropertyOp52
 70
     0
102
RTVSPropertyOp53
 70
     1
102
RTVSPropertyOp54
 70
     1
102
RTVSPropertyOp55
 70
     1
102
RTVSPropertyOp56
 70
     1
102
RTVSPropertyOp57
 70
     1
102
RTVSPost2010Prop28
280
     0
102
RTVSPost2010PropOp28
 70
     1
102
RTVSPost2010Prop29
280
     1
102
RTVSPost2010PropOp29
 70
     1
102
RTVSPost2010Prop30
280
     1
102
RTVSPost2010PropOp30
 70
     1
102
RTVSPost2010Prop31
280
     0
102
RTVSPost2010PropOp31
 70
     1
102
RTVSPost2010Prop32
280
     0
102
RTVSPost2010PropOp32
 70
     1
102
RTVSPost2010Prop33
280
     0
102
RTVSPost2010PropOp33
 70
     1
102
RTVSPost2010Prop34
280
     0
102
RTVSPost2010PropOp34
 70
     1
102
RTVSPost2010Prop35
280
     0
102
RTVSPost2010PropOp35
 70
     1
102
RTVSPost2010Prop36
280
     0
102
RTVSPost2010PropOp36
 70
     1
102
RTVSPost2010Prop37
 90
       50
102
RTVSPost2010PropOp37
 70
     1
102
RTVSPost2010Prop38
140
0.0
102
RTVSPost2010PropOp38
 70
     1
102
RTVSPost2010Prop39
140
1.0
102
RTVSPost2010PropOp39
 70
     1
102
RTVSPost2010Prop40
 90
        0
102
RTVSPost2010PropOp40
 70
     1
102
RTVSPost2010Prop41ColorIndex
 90
       18
102
RTVSPost2010Prop41ColorRGB
 90
        0
102
RTVSPost2010PropOp41
 70
     1
102
RTVSPost2010Prop42
 90
       50
102
RTVSPost2010PropOp42
 70
     1
102
RTVSPost2010Prop43
 90
        3
102
RTVSPost2010PropOp43
 70
     1
102
RTVSPost2010Prop44ColorIndex
 90
        5
102
RTVSPost2010Prop44ColorRGB
 90
      255
102
RTVSPost2010PropOp44
 70
     1
102
RTVSPost2010Prop45
280
     0
102
RTVSPost2010PropOp45
 70
     1
102
RTVSPost2010Prop46
 90
       50
102
RTVSPost2010PropOp46
 70
     1
102
RTVSPost2010Prop47
 90
       50
102
RTVSPost2010PropOp47
 70
     1
102
RTVSPost2010Prop48
 90
       50
102
RTVSPost2010PropOp48
 70
     1
102
RTVSPost2010Prop49
280
     0
102
RTVSPost2010PropOp49
 70
     1
102
RTVSPost2010Prop50
 90
       50
102
RTVSPost2010PropOp50
 70
     1
102
RTVSPost2010Prop51ColorIndex
 90
      256
102
RTVSPost2010Prop51ColorRGB
 90
-16777216
102
RTVSPost2010PropOp51
 70
     0
102
RTVSPost2010Prop52
140
1.0
102
RTVSPost2010PropOp52
 70
     0
102
RTVSPost2010Prop53
 90
        2
102
RTVSPost2010PropOp53
 70
     1
102
RTVSPost2010Prop54
  1
strokes_ogs.tif
102
RTVSPost2010PropOp54
 70
     1
102
RTVSPost2010Prop55
280
     0
102
RTVSPost2010PropOp55
 70
     1
102
RTVSPost2010Prop56
140
1.0
102
RTVSPost2010PropOp56
 70
     1
102
RTVSPost2010Prop57
140
1.0
102
RTVSPost2010PropOp57
 70
     1
  0
XRECORD
  5
2DD
102
{ACAD_REACTORS
330
2DC
102
}
330
2DC
100
AcDbXrecord
280
     1
102
RTVSPropertyOp0
 70
     0
102
RTVSPropertyOp1
 70
     0
102
RTVSPropertyOp2
 70
     0
102
RTVSPropertyOp3
 70
     0
102
RTVSPropertyOp4
 70
     0
102
RTVSPropertyOp5
 70
     0
102
RTVSPropertyOp6
 70
     0
102
RTVSPropertyOp7
 70
     0
102
RTVSPropertyOp8
 70
     0
102
RTVSPropertyOp9
 70
     0
102
RTVSPropertyOp10
 70
     0
102
RTVSPropertyOp11
 70
     0
102
RTVSPropertyOp12
 70
     0
102
RTVSPropertyOp13
 70
     0
102
RTVSPropertyOp14
 70
     2
102
RTVSPropertyOp15
 70
     0
102
RTVSPropertyOp16
 70
     0
102
RTVSPropertyOp17
 70
     0
102
RTVSPropertyOp18
 70
     0
102
RTVSPropertyOp19
 70
     0
102
RTVSPropertyOp20
 70
     0
102
RTVSPropertyOp21
 70
     0
102
RTVSPropertyOp22
 70
     0
102
RTVSPropertyOp23
 70
     0
102
RTVSPropertyOp24
 70
     0
102
RTVSPropertyOp25
 70
     0
102
RTVSPropertyOp26
 70
     0
102
RTVSPropertyOp27
 70
     0
102
RTVSPropertyOp28
 70
     0
102
RTVSPropertyOp29
 70
     0
102
RTVSPropertyOp30
 70
     0
102
RTVSPropertyOp31
 70
     0
102
RTVSPropertyOp32
 70
     0
102
RTVSPropertyOp33
 70
     0
102
RTVSPropertyOp34
 70
     0
102
RTVSPropertyOp35
 70
     0
102
RTVSPropertyOp36
 70
     0
102
RTVSPropertyOp37
 70
     0
102
RTVSPropertyOp38
 70
     0
102
RTVSPropertyOp39
 70
     0
102
RTVSPropertyOp40
 70
     0
102
RTVSPropertyOp41
 70
     0
102
RTVSPropertyOp42
 70
     0
102
RTVSPropertyOp43
 70
     0
102
RTVSPropertyOp44
 70
     0
102
RTVSPropertyOp45
 70
     0
102
RTVSPropertyOp46
 70
     0
102
RTVSPropertyOp47
 70
     0
102
RTVSPropertyOp48
 70
     0
102
RTVSPropertyOp49
 70
     0
102
RTVSPropertyOp50
 70
     0
102
RTVSPropertyOp51
 70
     0
102
RTVSPropertyOp52
 70
     0
102
RTVSPropertyOp53
 70
     0
102
RTVSPropertyOp54
 70
     0
102
RTVSPropertyOp55
 70
     0
102
RTVSPropertyOp56
 70
     0
102
RTVSPropertyOp57
 70
     0
102
RTVSPost2010Prop28
280
     0
102
RTVSPost2010PropOp28
 70
     0
102
RTVSPost2010Prop29
280
     1
102
RTVSPost2010PropOp29
 70
     0
102
RTVSPost2010Prop30
280
     1
102
RTVSPost2010PropOp30
 70
     0
102
RTVSPost2010Prop31
280
     0
102
RTVSPost2010PropOp31
 70
     0
102
RTVSPost2010Prop32
280
     0
102
RTVSPost2010PropOp32
 70
     0
102
RTVSPost2010Prop33
280
     0
102
RTVSPost2010PropOp33
 70
     0
102
RTVSPost2010Prop34
280
     0
102
RTVSPost2010PropOp34
 70
     0
102
RTVSPost2010Prop35
280
     0
102
RTVSPost2010PropOp35
 70
     0
102
RTVSPost2010Prop36
280
     0
102
RTVSPost2010PropOp36
 70
     0
102
RTVSPost2010Prop37
 90
       50
102
RTVSPost2010PropOp37
 70
     0
102
RTVSPost2010Prop38
140
0.0
102
RTVSPost2010PropOp38
 70
     0
102
RTVSPost2010Prop39
140
1.0
102
RTVSPost2010PropOp39
 70
     0
102
RTVSPost2010Prop40
 90
        0
102
RTVSPost2010PropOp40
 70
     0
102
RTVSPost2010Prop41ColorIndex
 90
       18
102
RTVSPost2010Prop41ColorRGB
 90
        0
102
RTVSPost2010PropOp41
 70
     0
102
RTVSPost2010Prop42
 90
       50
102
RTVSPost2010PropOp42
 70
     0
102
RTVSPost2010Prop43
 90
        3
102
RTVSPost2010PropOp43
 70
     0
102
RTVSPost2010Prop44ColorIndex
 90
        5
102
RTVSPost2010Prop44ColorRGB
 90
      255
102
RTVSPost2010PropOp44
 70
     0
102
RTVSPost2010Prop45
280
     0
102
RTVSPost2010PropOp45
 70
     0
102
RTVSPost2010Prop46
 90
       50
102
RTVSPost2010PropOp46
 70
     0
102
RTVSPost2010Prop47
 90
       50
102
RTVSPost2010PropOp47
 70
     0
102
RTVSPost2010Prop48
 90
       50
102
RTVSPost2010PropOp48
 70
     0
102
RTVSPost2010Prop49
280
     0
102
RTVSPost2010PropOp49
 70
     0
102
RTVSPost2010Prop50
 90
       50
102
RTVSPost2010PropOp50
 70
     0
102
RTVSPost2010Prop51ColorIndex
 90
      256
102
RTVSPost2010Prop51ColorRGB
 90
-16777216
102
RTVSPost2010PropOp51
 70
     0
102
RTVSPost2010Prop52
140
1.0
102
RTVSPost2010PropOp52
 70
     0
102
RTVSPost2010Prop53
 90
        2
102
RTVSPost2010PropOp53
 70
     0
102
RTVSPost2010Prop54
  1
strokes_ogs.tif
102
RTVSPost2010PropOp54
 70
     0
102
RTVSPost2010Prop55
280
     0
102
RTVSPost2010PropOp55
 70
     0
102
RTVSPost2010Prop56
140
1.0
102
RTVSPost2010PropOp56
 70
     0
102
RTVSPost2010Prop57
140
1.0
102
RTVSPost2010PropOp57
 70
     0
  0
XRECORD
  5
2D5
102
{ACAD_REACTORS
330
2D4
102
}
330
2D4
100
AcDbXrecord
280
     1
102
RTVSPropertyOp0
 70
     1
102
RTVSPropertyOp1
 70
     1
102
RTVSPropertyOp2
 70
     1
102
RTVSPropertyOp3
 70
     1
102
RTVSPropertyOp4
 70
     1
102
RTVSPropertyOp5
 70
     1
102
RTVSPropertyOp6
 70
     1
102
RTVSPropertyOp7
 70
     1
102
RTVSPropertyOp8
 70
     1
102
RTVSPropertyOp9
 70
     1
102
RTVSPropertyOp10
 70
     1
102
RTVSPropertyOp11
 70
     1
102
RTVSPropertyOp12
 70
     1
102
RTVSPropertyOp13
 70
     1
102
RTVSPropertyOp14
 70
     1
102
RTVSPropertyOp15
 70
     1
102
RTVSPropertyOp16
 70
     1
102
RTVSPropertyOp17
 70
     1
102
RTVSPropertyOp18
 70
     1
102
RTVSPropertyOp19
 70
     1
102
RTVSPropertyOp20
 70
     1
102
RTVSPropertyOp21
 70
     1
102
RTVSPropertyOp22
 70
     1
102
RTVSPropertyOp23
 70
     1
102
RTVSPropertyOp24
 70
     1
102
RTVSPropertyOp25
 70
     1
102
RTVSPropertyOp26
 70
     1
102
RTVSPropertyOp27
 70
     1
102
RTVSPropertyOp28
 70
     1
102
RTVSPropertyOp29
 70
     1
102
RTVSPropertyOp30
 70
     1
102
RTVSPropertyOp31
 70
     1
102
RTVSPropertyOp32
 70
     1
102
RTVSPropertyOp33
 70
     1
102
RTVSPropertyOp34
 70
     1
102
RTVSPropertyOp35
 70
     1
102
RTVSPropertyOp36
 70
     1
102
RTVSPropertyOp37
 70
     1
102
RTVSPropertyOp38
 70
     1
102
RTVSPropertyOp39
 70
     1
102
RTVSPropertyOp40
 70
     1
102
RTVSPropertyOp41
 70
     1
102
RTVSPropertyOp42
 70
     1
102
RTVSPropertyOp43
 70
     1
102
RTVSPropertyOp44
 70
     1
102
RTVSPropertyOp45
 70
     1
102
RTVSPropertyOp46
 70
     1
102
RTVSPropertyOp47
 70
     1
102
RTVSPropertyOp48
 70
     1
102
RTVSPropertyOp49
 70
     1
102
RTVSPropertyOp50
 70
     1
102
RTVSPropertyOp51
 70
     0
102
RTVSPropertyOp52
 70
     0
102
RTVSPropertyOp53
 70
     1
102
RTVSPropertyOp54
 70
     1
102
RTVSPropertyOp55
 70
     1
102
RTVSPropertyOp56
 70
     1
102
RTVSPropertyOp57
 70
     1
102
RTVSPost2010Prop28
280
     0
102
RTVSPost2010PropOp28
 70
     1
102
RTVSPost2010Prop29
280
     1
102
RTVSPost2010PropOp29
 70
     1
102
RTVSPost2010Prop30
280
     1
102
RTVSPost2010PropOp30
 70
     1
102
RTVSPost2010Prop31
280
     0
102
RTVSPost2010PropOp31
 70
     1
102
RTVSPost2010Prop32
280
     0
102
RTVSPost2010PropOp32
 70
     1
102
RTVSPost2010Prop33
280
     0
102
RTVSPost2010PropOp33
 70
     1
102
RTVSPost2010Prop34
280
     0
102
RTVSPost2010PropOp34
 70
     1
102
RTVSPost2010Prop35
280
     0
102
RTVSPost2010PropOp35
 70
     1
102
RTVSPost2010Prop36
280
     0
102
RTVSPost2010PropOp36
 70
     1
102
RTVSPost2010Prop37
 90
       50
102
RTVSPost2010PropOp37
 70
     1
102
RTVSPost2010Prop38
140
0.0
102
RTVSPost2010PropOp38
 70
     1
102
RTVSPost2010Prop39
140
1.0
102
RTVSPost2010PropOp39
 70
     1
102
RTVSPost2010Prop40
 90
        0
102
RTVSPost2010PropOp40
 70
     1
102
RTVSPost2010Prop41ColorIndex
 90
       18
102
RTVSPost2010Prop41ColorRGB
 90
        0
102
RTVSPost2010PropOp41
 70
     1
102
RTVSPost2010Prop42
 90
       50
102
RTVSPost2010PropOp42
 70
     1
102
RTVSPost2010Prop43
 90
        3
102
RTVSPost2010PropOp43
 70
     1
102
RTVSPost2010Prop44ColorIndex
 90
        5
102
RTVSPost2010Prop44ColorRGB
 90
      255
102
RTVSPost2010PropOp44
 70
     1
102
RTVSPost2010Prop45
280
     0
102
RTVSPost2010PropOp45
 70
     1
102
RTVSPost2010Prop46
 90
       50
102
RTVSPost2010PropOp46
 70
     1
102
RTVSPost2010Prop47
 90
       50
102
RTVSPost2010PropOp47
 70
     1
102
RTVSPost2010Prop48
 90
       50
102
RTVSPost2010PropOp48
 70
     1
102
RTVSPost2010Prop49
280
     0
102
RTVSPost2010PropOp49
 70
     1
102
RTVSPost2010Prop50
 90
       50
102
RTVSPost2010PropOp50
 70
     1
102
RTVSPost2010Prop51ColorIndex
 90
      256
102
RTVSPost2010Prop51ColorRGB
 90
-16777216
102
RTVSPost2010PropOp51
 70
     0
102
RTVSPost2010Prop52
140
1.0
102
RTVSPost2010PropOp52
 70
     0
102
RTVSPost2010Prop53
 90
        2
102
RTVSPost2010PropOp53
 70
     1
102
RTVSPost2010Prop54
  1
strokes_ogs.tif
102
RTVSPost2010PropOp54
 70
     1
102
RTVSPost2010Prop55
280
     0
102
RTVSPost2010PropOp55
 70
     1
102
RTVSPost2010Prop56
140
1.0
102
RTVSPost2010PropOp56
 70
     1
102
RTVSPost2010Prop57
140
1.0
102
RTVSPost2010PropOp57
 70
     1
  0
XRECORD
  5
2B9
102
{ACAD_REACTORS
330
2B8
102
}
330
2B8
100
AcDbXrecord
280
     1
102
RTVSPropertyOp0
 70
     1
102
RTVSPropertyOp1
 70
     1
102
RTVSPropertyOp2
 70
     1
102
RTVSPropertyOp3
 70
     1
102
RTVSPropertyOp4
 70
     1
102
RTVSPropertyOp5
 70
     1
102
RTVSPropertyOp6
 70
     1
102
RTVSPropertyOp7
 70
     1
102
RTVSPropertyOp8
 70
     1
102
RTVSPropertyOp9
 70
     1
102
RTVSPropertyOp10
 70
     1
102
RTVSPropertyOp11
 70
     1
102
RTVSPropertyOp12
 70
     1
102
RTVSPropertyOp13
 70
     1
102
RTVSPropertyOp14
 70
     1
102
RTVSPropertyOp15
 70
     1
102
RTVSPropertyOp16
 70
     1
102
RTVSPropertyOp17
 70
     1
102
RTVSPropertyOp18
 70
     1
102
RTVSPropertyOp19
 70
     1
102
RTVSPropertyOp20
 70
     1
102
RTVSPropertyOp21
 70
     1
102
RTVSPropertyOp22
 70
     1
102
RTVSPropertyOp23
 70
     1
102
RTVSPropertyOp24
 70
     1
102
RTVSPropertyOp25
 70
     1
102
RTVSPropertyOp26
 70
     1
102
RTVSPropertyOp27
 70
     1
102
RTVSPropertyOp28
 70
     1
102
RTVSPropertyOp29
 70
     1
102
RTVSPropertyOp30
 70
     1
102
RTVSPropertyOp31
 70
     1
102
RTVSPropertyOp32
 70
     1
102
RTVSPropertyOp33
 70
     1
102
RTVSPropertyOp34
 70
     1
102
RTVSPropertyOp35
 70
     1
102
RTVSPropertyOp36
 70
     1
102
RTVSPropertyOp37
 70
     1
102
RTVSPropertyOp38
 70
     1
102
RTVSPropertyOp39
 70
     1
102
RTVSPropertyOp40
 70
     1
102
RTVSPropertyOp41
 70
     1
102
RTVSPropertyOp42
 70
     1
102
RTVSPropertyOp43
 70
     1
102
RTVSPropertyOp44
 70
     1
102
RTVSPropertyOp45
 70
     1
102
RTVSPropertyOp46
 70
     1
102
RTVSPropertyOp47
 70
     1
102
RTVSPropertyOp48
 70
     1
102
RTVSPropertyOp49
 70
     1
102
RTVSPropertyOp50
 70
     1
102
RTVSPropertyOp51
 70
     0
102
RTVSPropertyOp52
 70
     0
102
RTVSPropertyOp53
 70
     1
102
RTVSPropertyOp54
 70
     1
102
RTVSPropertyOp55
 70
     1
102
RTVSPropertyOp56
 70
     1
102
RTVSPropertyOp57
 70
     1
102
RTVSPost2010Prop28
280
     0
102
RTVSPost2010PropOp28
 70
     1
102
RTVSPost2010Prop29
280
     1
102
RTVSPost2010PropOp29
 70
     1
102
RTVSPost2010Prop30
280
     1
102
RTVSPost2010PropOp30
 70
     1
102
RTVSPost2010Prop31
280
     0
102
RTVSPost2010PropOp31
 70
     1
102
RTVSPost2010Prop32
280
     0
102
RTVSPost2010PropOp32
 70
     1
102
RTVSPost2010Prop33
280
     0
102
RTVSPost2010PropOp33
 70
     1
102
RTVSPost2010Prop34
280
     0
102
RTVSPost2010PropOp34
 70
     1
102
RTVSPost2010Prop35
280
     0
102
RTVSPost2010PropOp35
 70
     1
102
RTVSPost2010Prop36
280
     0
102
RTVSPost2010PropOp36
 70
     1
102
RTVSPost2010Prop37
 90
       50
102
RTVSPost2010PropOp37
 70
     1
102
RTVSPost2010Prop38
140
0.0
102
RTVSPost2010PropOp38
 70
     1
102
RTVSPost2010Prop39
140
1.0
102
RTVSPost2010PropOp39
 70
     1
102
RTVSPost2010Prop40
 90
        0
102
RTVSPost2010PropOp40
 70
     1
102
RTVSPost2010Prop41ColorIndex
 90
       18
102
RTVSPost2010Prop41ColorRGB
 90
        0
102
RTVSPost2010PropOp41
 70
     1
102
RTVSPost2010Prop42
 90
       50
102
RTVSPost2010PropOp42
 70
     1
102
RTVSPost2010Prop43
 90
        3
102
RTVSPost2010PropOp43
 70
     1
102
RTVSPost2010Prop44ColorIndex
 90
        5
102
RTVSPost2010Prop44ColorRGB
 90
      255
102
RTVSPost2010PropOp44
 70
     1
102
RTVSPost2010Prop45
280
     0
102
RTVSPost2010PropOp45
 70
     1
102
RTVSPost2010Prop46
 90
       50
102
RTVSPost2010PropOp46
 70
     1
102
RTVSPost2010Prop47
 90
       50
102
RTVSPost2010PropOp47
 70
     1
102
RTVSPost2010Prop48
 90
       50
102
RTVSPost2010PropOp48
 70
     1
102
RTVSPost2010Prop49
280
     0
102
RTVSPost2010PropOp49
 70
     1
102
RTVSPost2010Prop50
 90
       50
102
RTVSPost2010PropOp50
 70
     1
102
RTVSPost2010Prop51ColorIndex
 90
      256
102
RTVSPost2010Prop51ColorRGB
 90
-16777216
102
RTVSPost2010PropOp51
 70
     0
102
RTVSPost2010Prop52
140
1.0
102
RTVSPost2010PropOp52
 70
     0
102
RTVSPost2010Prop53
 90
        2
102
RTVSPost2010PropOp53
 70
     1
102
RTVSPost2010Prop54
  1
strokes_ogs.tif
102
RTVSPost2010PropOp54
 70
     1
102
RTVSPost2010Prop55
280
     0
102
RTVSPost2010PropOp55
 70
     1
102
RTVSPost2010Prop56
140
1.0
102
RTVSPost2010PropOp56
 70
     1
102
RTVSPost2010Prop57
140
1.0
102
RTVSPost2010PropOp57
 70
     1
  0
XRECORD
  5
2BB
102
{ACAD_REACTORS
330
2BA
102
}
330
2BA
100
AcDbXrecord
280
     1
102
RTVSPropertyOp0
 70
     1
102
RTVSPropertyOp1
 70
     1
102
RTVSPropertyOp2
 70
     1
102
RTVSPropertyOp3
 70
     1
102
RTVSPropertyOp4
 70
     1
102
RTVSPropertyOp5
 70
     1
102
RTVSPropertyOp6
 70
     1
102
RTVSPropertyOp7
 70
     1
102
RTVSPropertyOp8
 70
     1
102
RTVSPropertyOp9
 70
     1
102
RTVSPropertyOp10
 70
     1
102
RTVSPropertyOp11
 70
     1
102
RTVSPropertyOp12
 70
     1
102
RTVSPropertyOp13
 70
     1
102
RTVSPropertyOp14
 70
     1
102
RTVSPropertyOp15
 70
     1
102
RTVSPropertyOp16
 70
     1
102
RTVSPropertyOp17
 70
     1
102
RTVSPropertyOp18
 70
     1
102
RTVSPropertyOp19
 70
     1
102
RTVSPropertyOp20
 70
     1
102
RTVSPropertyOp21
 70
     1
102
RTVSPropertyOp22
 70
     1
102
RTVSPropertyOp23
 70
     1
102
RTVSPropertyOp24
 70
     1
102
RTVSPropertyOp25
 70
     1
102
RTVSPropertyOp26
 70
     1
102
RTVSPropertyOp27
 70
     1
102
RTVSPropertyOp28
 70
     1
102
RTVSPropertyOp29
 70
     1
102
RTVSPropertyOp30
 70
     1
102
RTVSPropertyOp31
 70
     1
102
RTVSPropertyOp32
 70
     1
102
RTVSPropertyOp33
 70
     1
102
RTVSPropertyOp34
 70
     1
102
RTVSPropertyOp35
 70
     1
102
RTVSPropertyOp36
 70
     1
102
RTVSPropertyOp37
 70
     1
102
RTVSPropertyOp38
 70
     1
102
RTVSPropertyOp39
 70
     1
102
RTVSPropertyOp40
 70
     1
102
RTVSPropertyOp41
 70
     1
102
RTVSPropertyOp42
 70
     1
102
RTVSPropertyOp43
 70
     1
102
RTVSPropertyOp44
 70
     1
102
RTVSPropertyOp45
 70
     1
102
RTVSPropertyOp46
 70
     1
102
RTVSPropertyOp47
 70
     1
102
RTVSPropertyOp48
 70
     1
102
RTVSPropertyOp49
 70
     1
102
RTVSPropertyOp50
 70
     1
102
RTVSPropertyOp51
 70
     0
102
RTVSPropertyOp52
 70
     0
102
RTVSPropertyOp53
 70
     1
102
RTVSPropertyOp54
 70
     1
102
RTVSPropertyOp55
 70
     1
102
RTVSPropertyOp56
 70
     1
102
RTVSPropertyOp57
 70
     1
102
RTVSPost2010Prop28
280
     0
102
RTVSPost2010PropOp28
 70
     1
102
RTVSPost2010Prop29
280
     1
102
RTVSPost2010PropOp29
 70
     1
102
RTVSPost2010Prop30
280
     1
102
RTVSPost2010PropOp30
 70
     1
102
RTVSPost2010Prop31
280
     0
102
RTVSPost2010PropOp31
 70
     1
102
RTVSPost2010Prop32
280
     0
102
RTVSPost2010PropOp32
 70
     1
102
RTVSPost2010Prop33
280
     0
102
RTVSPost2010PropOp33
 70
     1
102
RTVSPost2010Prop34
280
     0
102
RTVSPost2010PropOp34
 70
     1
102
RTVSPost2010Prop35
280
     0
102
RTVSPost2010PropOp35
 70
     1
102
RTVSPost2010Prop36
280
     0
102
RTVSPost2010PropOp36
 70
     1
102
RTVSPost2010Prop37
 90
       50
102
RTVSPost2010PropOp37
 70
     1
102
RTVSPost2010Prop38
140
0.0
102
RTVSPost2010PropOp38
 70
     1
102
RTVSPost2010Prop39
140
1.0
102
RTVSPost2010PropOp39
 70
     1
102
RTVSPost2010Prop40
 90
        0
102
RTVSPost2010PropOp40
 70
     1
102
RTVSPost2010Prop41ColorIndex
 90
       18
102
RTVSPost2010Prop41ColorRGB
 90
        0
102
RTVSPost2010PropOp41
 70
     1
102
RTVSPost2010Prop42
 90
       50
102
RTVSPost2010PropOp42
 70
     1
102
RTVSPost2010Prop43
 90
        3
102
RTVSPost2010PropOp43
 70
     1
102
RTVSPost2010Prop44ColorIndex
 90
        5
102
RTVSPost2010Prop44ColorRGB
 90
      255
102
RTVSPost2010PropOp44
 70
     1
102
RTVSPost2010Prop45
280
     0
102
RTVSPost2010PropOp45
 70
     1
102
RTVSPost2010Prop46
 90
       50
102
RTVSPost2010PropOp46
 70
     1
102
RTVSPost2010Prop47
 90
       50
102
RTVSPost2010PropOp47
 70
     1
102
RTVSPost2010Prop48
 90
       50
102
RTVSPost2010PropOp48
 70
     1
102
RTVSPost2010Prop49
280
     0
102
RTVSPost2010PropOp49
 70
     1
102
RTVSPost2010Prop50
 90
       50
102
RTVSPost2010PropOp50
 70
     1
102
RTVSPost2010Prop51ColorIndex
 90
      256
102
RTVSPost2010Prop51ColorRGB
 90
-16777216
102
RTVSPost2010PropOp51
 70
     0
102
RTVSPost2010Prop52
140
1.0
102
RTVSPost2010PropOp52
 70
     0
102
RTVSPost2010Prop53
 90
        2
102
RTVSPost2010PropOp53
 70
     1
102
RTVSPost2010Prop54
  1
strokes_ogs.tif
102
RTVSPost2010PropOp54
 70
     1
102
RTVSPost2010Prop55
280
     0
102
RTVSPost2010PropOp55
 70
     1
102
RTVSPost2010Prop56
140
1.0
102
RTVSPost2010PropOp56
 70
     1
102
RTVSPost2010Prop57
140
1.0
102
RTVSPost2010PropOp57
 70
     1
  0
XRECORD
  5
2BD
102
{ACAD_REACTORS
330
2BC
102
}
330
2BC
100
AcDbXrecord
280
     1
102
RTVSPropertyOp0
 70
     1
102
RTVSPropertyOp1
 70
     1
102
RTVSPropertyOp2
 70
     1
102
RTVSPropertyOp3
 70
     1
102
RTVSPropertyOp4
 70
     1
102
RTVSPropertyOp5
 70
     1
102
RTVSPropertyOp6
 70
     1
102
RTVSPropertyOp7
 70
     1
102
RTVSPropertyOp8
 70
     1
102
RTVSPropertyOp9
 70
     1
102
RTVSPropertyOp10
 70
     1
102
RTVSPropertyOp11
 70
     1
102
RTVSPropertyOp12
 70
     1
102
RTVSPropertyOp13
 70
     1
102
RTVSPropertyOp14
 70
     1
102
RTVSPropertyOp15
 70
     1
102
RTVSPropertyOp16
 70
     1
102
RTVSPropertyOp17
 70
     1
102
RTVSPropertyOp18
 70
     1
102
RTVSPropertyOp19
 70
     1
102
RTVSPropertyOp20
 70
     1
102
RTVSPropertyOp21
 70
     1
102
RTVSPropertyOp22
 70
     1
102
RTVSPropertyOp23
 70
     1
102
RTVSPropertyOp24
 70
     1
102
RTVSPropertyOp25
 70
     1
102
RTVSPropertyOp26
 70
     1
102
RTVSPropertyOp27
 70
     1
102
RTVSPropertyOp28
 70
     1
102
RTVSPropertyOp29
 70
     1
102
RTVSPropertyOp30
 70
     1
102
RTVSPropertyOp31
 70
     1
102
RTVSPropertyOp32
 70
     1
102
RTVSPropertyOp33
 70
     1
102
RTVSPropertyOp34
 70
     1
102
RTVSPropertyOp35
 70
     1
102
RTVSPropertyOp36
 70
     1
102
RTVSPropertyOp37
 70
     1
102
RTVSPropertyOp38
 70
     1
102
RTVSPropertyOp39
 70
     1
102
RTVSPropertyOp40
 70
     1
102
RTVSPropertyOp41
 70
     1
102
RTVSPropertyOp42
 70
     1
102
RTVSPropertyOp43
 70
     1
102
RTVSPropertyOp44
 70
     1
102
RTVSPropertyOp45
 70
     1
102
RTVSPropertyOp46
 70
     1
102
RTVSPropertyOp47
 70
     1
102
RTVSPropertyOp48
 70
     1
102
RTVSPropertyOp49
 70
     1
102
RTVSPropertyOp50
 70
     1
102
RTVSPropertyOp51
 70
     0
102
RTVSPropertyOp52
 70
     0
102
RTVSPropertyOp53
 70
     1
102
RTVSPropertyOp54
 70
     1
102
RTVSPropertyOp55
 70
     1
102
RTVSPropertyOp56
 70
     1
102
RTVSPropertyOp57
 70
     1
102
RTVSPost2010Prop28
280
     0
102
RTVSPost2010PropOp28
 70
     1
102
RTVSPost2010Prop29
280
     1
102
RTVSPost2010PropOp29
 70
     1
102
RTVSPost2010Prop30
280
     1
102
RTVSPost2010PropOp30
 70
     1
102
RTVSPost2010Prop31
280
     0
102
RTVSPost2010PropOp31
 70
     1
102
RTVSPost2010Prop32
280
     0
102
RTVSPost2010PropOp32
 70
     1
102
RTVSPost2010Prop33
280
     0
102
RTVSPost2010PropOp33
 70
     1
102
RTVSPost2010Prop34
280
     0
102
RTVSPost2010PropOp34
 70
     1
102
RTVSPost2010Prop35
280
     0
102
RTVSPost2010PropOp35
 70
     1
102
RTVSPost2010Prop36
280
     0
102
RTVSPost2010PropOp36
 70
     1
102
RTVSPost2010Prop37
 90
       50
102
RTVSPost2010PropOp37
 70
     1
102
RTVSPost2010Prop38
140
0.0
102
RTVSPost2010PropOp38
 70
     1
102
RTVSPost2010Prop39
140
1.0
102
RTVSPost2010PropOp39
 70
     1
102
RTVSPost2010Prop40
 90
        0
102
RTVSPost2010PropOp40
 70
     1
102
RTVSPost2010Prop41ColorIndex
 90
       18
102
RTVSPost2010Prop41ColorRGB
 90
        0
102
RTVSPost2010PropOp41
 70
     1
102
RTVSPost2010Prop42
 90
       50
102
RTVSPost2010PropOp42
 70
     1
102
RTVSPost2010Prop43
 90
        3
102
RTVSPost2010PropOp43
 70
     1
102
RTVSPost2010Prop44ColorIndex
 90
        5
102
RTVSPost2010Prop44ColorRGB
 90
      255
102
RTVSPost2010PropOp44
 70
     1
102
RTVSPost2010Prop45
280
     0
102
RTVSPost2010PropOp45
 70
     1
102
RTVSPost2010Prop46
 90
       50
102
RTVSPost2010PropOp46
 70
     1
102
RTVSPost2010Prop47
 90
       50
102
RTVSPost2010PropOp47
 70
     1
102
RTVSPost2010Prop48
 90
       50
102
RTVSPost2010PropOp48
 70
     1
102
RTVSPost2010Prop49
280
     0
102
RTVSPost2010PropOp49
 70
     1
102
RTVSPost2010Prop50
 90
       50
102
RTVSPost2010PropOp50
 70
     1
102
RTVSPost2010Prop51ColorIndex
 90
      256
102
RTVSPost2010Prop51ColorRGB
 90
-16777216
102
RTVSPost2010PropOp51
 70
     0
102
RTVSPost2010Prop52
140
1.0
102
RTVSPost2010PropOp52
 70
     0
102
RTVSPost2010Prop53
 90
        2
102
RTVSPost2010PropOp53
 70
     1
102
RTVSPost2010Prop54
  1
strokes_ogs.tif
102
RTVSPost2010PropOp54
 70
     1
102
RTVSPost2010Prop55
280
     0
102
RTVSPost2010PropOp55
 70
     1
102
RTVSPost2010Prop56
140
1.0
102
RTVSPost2010PropOp56
 70
     1
102
RTVSPost2010Prop57
140
1.0
102
RTVSPost2010PropOp57
 70
     1
  0
XRECORD
  5
2BF
102
{ACAD_REACTORS
330
2BE
102
}
330
2BE
100
AcDbXrecord
280
     1
102
RTVSPropertyOp0
 70
     1
102
RTVSPropertyOp1
 70
     1
102
RTVSPropertyOp2
 70
     1
102
RTVSPropertyOp3
 70
     1
102
RTVSPropertyOp4
 70
     1
102
RTVSPropertyOp5
 70
     1
102
RTVSPropertyOp6
 70
     1
102
RTVSPropertyOp7
 70
     1
102
RTVSPropertyOp8
 70
     1
102
RTVSPropertyOp9
 70
     1
102
RTVSPropertyOp10
 70
     1
102
RTVSPropertyOp11
 70
     1
102
RTVSPropertyOp12
 70
     1
102
RTVSPropertyOp13
 70
     1
102
RTVSPropertyOp14
 70
     1
102
RTVSPropertyOp15
 70
     1
102
RTVSPropertyOp16
 70
     1
102
RTVSPropertyOp17
 70
     1
102
RTVSPropertyOp18
 70
     1
102
RTVSPropertyOp19
 70
     1
102
RTVSPropertyOp20
 70
     1
102
RTVSPropertyOp21
 70
     1
102
RTVSPropertyOp22
 70
     1
102
RTVSPropertyOp23
 70
     1
102
RTVSPropertyOp24
 70
     1
102
RTVSPropertyOp25
 70
     1
102
RTVSPropertyOp26
 70
     1
102
RTVSPropertyOp27
 70
     1
102
RTVSPropertyOp28
 70
     1
102
RTVSPropertyOp29
 70
     1
102
RTVSPropertyOp30
 70
     1
102
RTVSPropertyOp31
 70
     1
102
RTVSPropertyOp32
 70
     1
102
RTVSPropertyOp33
 70
     1
102
RTVSPropertyOp34
 70
     1
102
RTVSPropertyOp35
 70
     1
102
RTVSPropertyOp36
 70
     1
102
RTVSPropertyOp37
 70
     1
102
RTVSPropertyOp38
 70
     1
102
RTVSPropertyOp39
 70
     1
102
RTVSPropertyOp40
 70
     1
102
RTVSPropertyOp41
 70
     1
102
RTVSPropertyOp42
 70
     1
102
RTVSPropertyOp43
 70
     1
102
RTVSPropertyOp44
 70
     1
102
RTVSPropertyOp45
 70
     1
102
RTVSPropertyOp46
 70
     1
102
RTVSPropertyOp47
 70
     1
102
RTVSPropertyOp48
 70
     1
102
RTVSPropertyOp49
 70
     1
102
RTVSPropertyOp50
 70
     1
102
RTVSPropertyOp51
 70
     0
102
RTVSPropertyOp52
 70
     0
102
RTVSPropertyOp53
 70
     1
102
RTVSPropertyOp54
 70
     1
102
RTVSPropertyOp55
 70
     1
102
RTVSPropertyOp56
 70
     1
102
RTVSPropertyOp57
 70
     1
102
RTVSPost2010Prop28
280
     0
102
RTVSPost2010PropOp28
 70
     1
102
RTVSPost2010Prop29
280
     1
102
RTVSPost2010PropOp29
 70
     1
102
RTVSPost2010Prop30
280
     1
102
RTVSPost2010PropOp30
 70
     1
102
RTVSPost2010Prop31
280
     0
102
RTVSPost2010PropOp31
 70
     1
102
RTVSPost2010Prop32
280
     0
102
RTVSPost2010PropOp32
 70
     1
102
RTVSPost2010Prop33
280
     0
102
RTVSPost2010PropOp33
 70
     1
102
RTVSPost2010Prop34
280
     0
102
RTVSPost2010PropOp34
 70
     1
102
RTVSPost2010Prop35
280
     0
102
RTVSPost2010PropOp35
 70
     1
102
RTVSPost2010Prop36
280
     0
102
RTVSPost2010PropOp36
 70
     1
102
RTVSPost2010Prop37
 90
       50
102
RTVSPost2010PropOp37
 70
     1
102
RTVSPost2010Prop38
140
0.0
102
RTVSPost2010PropOp38
 70
     1
102
RTVSPost2010Prop39
140
1.0
102
RTVSPost2010PropOp39
 70
     1
102
RTVSPost2010Prop40
 90
        0
102
RTVSPost2010PropOp40
 70
     1
102
RTVSPost2010Prop41ColorIndex
 90
       18
102
RTVSPost2010Prop41ColorRGB
 90
        0
102
RTVSPost2010PropOp41
 70
     1
102
RTVSPost2010Prop42
 90
       50
102
RTVSPost2010PropOp42
 70
     1
102
RTVSPost2010Prop43
 90
        3
102
RTVSPost2010PropOp43
 70
     1
102
RTVSPost2010Prop44ColorIndex
 90
        5
102
RTVSPost2010Prop44ColorRGB
 90
      255
102
RTVSPost2010PropOp44
 70
     1
102
RTVSPost2010Prop45
280
     0
102
RTVSPost2010PropOp45
 70
     1
102
RTVSPost2010Prop46
 90
       50
102
RTVSPost2010PropOp46
 70
     1
102
RTVSPost2010Prop47
 90
       50
102
RTVSPost2010PropOp47
 70
     1
102
RTVSPost2010Prop48
 90
       50
102
RTVSPost2010PropOp48
 70
     1
102
RTVSPost2010Prop49
280
     0
102
RTVSPost2010PropOp49
 70
     1
102
RTVSPost2010Prop50
 90
       50
102
RTVSPost2010PropOp50
 70
     1
102
RTVSPost2010Prop51ColorIndex
 90
      256
102
RTVSPost2010Prop51ColorRGB
 90
-16777216
102
RTVSPost2010PropOp51
 70
     0
102
RTVSPost2010Prop52
140
1.0
102
RTVSPost2010PropOp52
 70
     0
102
RTVSPost2010Prop53
 90
        2
102
RTVSPost2010PropOp53
 70
     1
102
RTVSPost2010Prop54
  1
strokes_ogs.tif
102
RTVSPost2010PropOp54
 70
     1
102
RTVSPost2010Prop55
280
     0
102
RTVSPost2010PropOp55
 70
     1
102
RTVSPost2010Prop56
140
1.0
102
RTVSPost2010PropOp56
 70
     1
102
RTVSPost2010Prop57
140
1.0
102
RTVSPost2010PropOp57
 70
     1
  0
XRECORD
  5
2C5
102
{ACAD_REACTORS
330
2C4
102
}
330
2C4
100
AcDbXrecord
280
     1
102
RTVSPropertyOp0
 70
     1
102
RTVSPropertyOp1
 70
     1
102
RTVSPropertyOp2
 70
     1
102
RTVSPropertyOp3
 70
     1
102
RTVSPropertyOp4
 70
     1
102
RTVSPropertyOp5
 70
     1
102
RTVSPropertyOp6
 70
     1
102
RTVSPropertyOp7
 70
     1
102
RTVSPropertyOp8
 70
     1
102
RTVSPropertyOp9
 70
     1
102
RTVSPropertyOp10
 70
     1
102
RTVSPropertyOp11
 70
     1
102
RTVSPropertyOp12
 70
     1
102
RTVSPropertyOp13
 70
     1
102
RTVSPropertyOp14
 70
     1
102
RTVSPropertyOp15
 70
     1
102
RTVSPropertyOp16
 70
     1
102
RTVSPropertyOp17
 70
     1
102
RTVSPropertyOp18
 70
     1
102
RTVSPropertyOp19
 70
     1
102
RTVSPropertyOp20
 70
     1
102
RTVSPropertyOp21
 70
     1
102
RTVSPropertyOp22
 70
     1
102
RTVSPropertyOp23
 70
     1
102
RTVSPropertyOp24
 70
     1
102
RTVSPropertyOp25
 70
     1
102
RTVSPropertyOp26
 70
     1
102
RTVSPropertyOp27
 70
     1
102
RTVSPropertyOp28
 70
     1
102
RTVSPropertyOp29
 70
     1
102
RTVSPropertyOp30
 70
     1
102
RTVSPropertyOp31
 70
     1
102
RTVSPropertyOp32
 70
     1
102
RTVSPropertyOp33
 70
     1
102
RTVSPropertyOp34
 70
     1
102
RTVSPropertyOp35
 70
     1
102
RTVSPropertyOp36
 70
     1
102
RTVSPropertyOp37
 70
     1
102
RTVSPropertyOp38
 70
     1
102
RTVSPropertyOp39
 70
     1
102
RTVSPropertyOp40
 70
     1
102
RTVSPropertyOp41
 70
     1
102
RTVSPropertyOp42
 70
     1
102
RTVSPropertyOp43
 70
     1
102
RTVSPropertyOp44
 70
     1
102
RTVSPropertyOp45
 70
     1
102
RTVSPropertyOp46
 70
     1
102
RTVSPropertyOp47
 70
     1
102
RTVSPropertyOp48
 70
     1
102
RTVSPropertyOp49
 70
     1
102
RTVSPropertyOp50
 70
     1
102
RTVSPropertyOp51
 70
     0
102
RTVSPropertyOp52
 70
     0
102
RTVSPropertyOp53
 70
     1
102
RTVSPropertyOp54
 70
     1
102
RTVSPropertyOp55
 70
     1
102
RTVSPropertyOp56
 70
     1
102
RTVSPropertyOp57
 70
     1
102
RTVSPost2010Prop28
280
     0
102
RTVSPost2010PropOp28
 70
     1
102
RTVSPost2010Prop29
280
     1
102
RTVSPost2010PropOp29
 70
     1
102
RTVSPost2010Prop30
280
     1
102
RTVSPost2010PropOp30
 70
     1
102
RTVSPost2010Prop31
280
     0
102
RTVSPost2010PropOp31
 70
     1
102
RTVSPost2010Prop32
280
     0
102
RTVSPost2010PropOp32
 70
     1
102
RTVSPost2010Prop33
280
     0
102
RTVSPost2010PropOp33
 70
     1
102
RTVSPost2010Prop34
280
     0
102
RTVSPost2010PropOp34
 70
     1
102
RTVSPost2010Prop35
280
     0
102
RTVSPost2010PropOp35
 70
     1
102
RTVSPost2010Prop36
280
     0
102
RTVSPost2010PropOp36
 70
     1
102
RTVSPost2010Prop37
 90
       50
102
RTVSPost2010PropOp37
 70
     1
102
RTVSPost2010Prop38
140
0.0
102
RTVSPost2010PropOp38
 70
     1
102
RTVSPost2010Prop39
140
1.0
102
RTVSPost2010PropOp39
 70
     1
102
RTVSPost2010Prop40
 90
        0
102
RTVSPost2010PropOp40
 70
     1
102
RTVSPost2010Prop41ColorIndex
 90
       18
102
RTVSPost2010Prop41ColorRGB
 90
        0
102
RTVSPost2010PropOp41
 70
     1
102
RTVSPost2010Prop42
 90
       50
102
RTVSPost2010PropOp42
 70
     1
102
RTVSPost2010Prop43
 90
        3
102
RTVSPost2010PropOp43
 70
     1
102
RTVSPost2010Prop44ColorIndex
 90
        5
102
RTVSPost2010Prop44ColorRGB
 90
      255
102
RTVSPost2010PropOp44
 70
     1
102
RTVSPost2010Prop45
280
     0
102
RTVSPost2010PropOp45
 70
     1
102
RTVSPost2010Prop46
 90
       50
102
RTVSPost2010PropOp46
 70
     1
102
RTVSPost2010Prop47
 90
       50
102
RTVSPost2010PropOp47
 70
     1
102
RTVSPost2010Prop48
 90
       50
102
RTVSPost2010PropOp48
 70
     1
102
RTVSPost2010Prop49
280
     0
102
RTVSPost2010PropOp49
 70
     1
102
RTVSPost2010Prop50
 90
       50
102
RTVSPost2010PropOp50
 70
     1
102
RTVSPost2010Prop51ColorIndex
 90
      256
102
RTVSPost2010Prop51ColorRGB
 90
-16777216
102
RTVSPost2010PropOp51
 70
     0
102
RTVSPost2010Prop52
140
1.0
102
RTVSPost2010PropOp52
 70
     0
102
RTVSPost2010Prop53
 90
        2
102
RTVSPost2010PropOp53
 70
     1
102
RTVSPost2010Prop54
  1
strokes_ogs.tif
102
RTVSPost2010PropOp54
 70
     1
102
RTVSPost2010Prop55
280
     0
102
RTVSPost2010PropOp55
 70
     1
102
RTVSPost2010Prop56
140
1.0
102
RTVSPost2010PropOp56
 70
     1
102
RTVSPost2010Prop57
140
1.0
102
RTVSPost2010PropOp57
 70
     1
  0
XRECORD
  5
2D9
102
{ACAD_REACTORS
330
2D8
102
}
330
2D8
100
AcDbXrecord
280
     1
102
RTVSPropertyOp0
 70
     0
102
RTVSPropertyOp1
 70
     0
102
RTVSPropertyOp2
 70
     0
102
RTVSPropertyOp3
 70
     0
102
RTVSPropertyOp4
 70
     0
102
RTVSPropertyOp5
 70
     0
102
RTVSPropertyOp6
 70
     0
102
RTVSPropertyOp7
 70
     0
102
RTVSPropertyOp8
 70
     0
102
RTVSPropertyOp9
 70
     0
102
RTVSPropertyOp10
 70
     0
102
RTVSPropertyOp11
 70
     0
102
RTVSPropertyOp12
 70
     0
102
RTVSPropertyOp13
 70
     0
102
RTVSPropertyOp14
 70
     2
102
RTVSPropertyOp15
 70
     0
102
RTVSPropertyOp16
 70
     0
102
RTVSPropertyOp17
 70
     0
102
RTVSPropertyOp18
 70
     0
102
RTVSPropertyOp19
 70
     0
102
RTVSPropertyOp20
 70
     0
102
RTVSPropertyOp21
 70
     0
102
RTVSPropertyOp22
 70
     0
102
RTVSPropertyOp23
 70
     0
102
RTVSPropertyOp24
 70
     0
102
RTVSPropertyOp25
 70
     0
102
RTVSPropertyOp26
 70
     0
102
RTVSPropertyOp27
 70
     0
102
RTVSPropertyOp28
 70
     0
102
RTVSPropertyOp29
 70
     0
102
RTVSPropertyOp30
 70
     0
102
RTVSPropertyOp31
 70
     0
102
RTVSPropertyOp32
 70
     0
102
RTVSPropertyOp33
 70
     0
102
RTVSPropertyOp34
 70
     0
102
RTVSPropertyOp35
 70
     0
102
RTVSPropertyOp36
 70
     0
102
RTVSPropertyOp37
 70
     0
102
RTVSPropertyOp38
 70
     0
102
RTVSPropertyOp39
 70
     0
102
RTVSPropertyOp40
 70
     0
102
RTVSPropertyOp41
 70
     0
102
RTVSPropertyOp42
 70
     0
102
RTVSPropertyOp43
 70
     0
102
RTVSPropertyOp44
 70
     0
102
RTVSPropertyOp45
 70
     0
102
RTVSPropertyOp46
 70
     0
102
RTVSPropertyOp47
 70
     0
102
RTVSPropertyOp48
 70
     0
102
RTVSPropertyOp49
 70
     0
102
RTVSPropertyOp50
 70
     0
102
RTVSPropertyOp51
 70
     0
102
RTVSPropertyOp52
 70
     0
102
RTVSPropertyOp53
 70
     0
102
RTVSPropertyOp54
 70
     0
102
RTVSPropertyOp55
 70
     0
102
RTVSPropertyOp56
 70
     0
102
RTVSPropertyOp57
 70
     0
102
RTVSPost2010Prop28
280
     0
102
RTVSPost2010PropOp28
 70
     0
102
RTVSPost2010Prop29
280
     1
102
RTVSPost2010PropOp29
 70
     0
102
RTVSPost2010Prop30
280
     1
102
RTVSPost2010PropOp30
 70
     0
102
RTVSPost2010Prop31
280
     0
102
RTVSPost2010PropOp31
 70
     0
102
RTVSPost2010Prop32
280
     0
102
RTVSPost2010PropOp32
 70
     0
102
RTVSPost2010Prop33
280
     0
102
RTVSPost2010PropOp33
 70
     0
102
RTVSPost2010Prop34
280
     0
102
RTVSPost2010PropOp34
 70
     0
102
RTVSPost2010Prop35
280
     0
102
RTVSPost2010PropOp35
 70
     0
102
RTVSPost2010Prop36
280
     0
102
RTVSPost2010PropOp36
 70
     0
102
RTVSPost2010Prop37
 90
       50
102
RTVSPost2010PropOp37
 70
     0
102
RTVSPost2010Prop38
140
0.0
102
RTVSPost2010PropOp38
 70
     0
102
RTVSPost2010Prop39
140
1.0
102
RTVSPost2010PropOp39
 70
     0
102
RTVSPost2010Prop40
 90
        0
102
RTVSPost2010PropOp40
 70
     0
102
RTVSPost2010Prop41ColorIndex
 90
       18
102
RTVSPost2010Prop41ColorRGB
 90
        0
102
RTVSPost2010PropOp41
 70
     0
102
RTVSPost2010Prop42
 90
       50
102
RTVSPost2010PropOp42
 70
     0
102
RTVSPost2010Prop43
 90
        3
102
RTVSPost2010PropOp43
 70
     0
102
RTVSPost2010Prop44ColorIndex
 90
        5
102
RTVSPost2010Prop44ColorRGB
 90
      255
102
RTVSPost2010PropOp44
 70
     0
102
RTVSPost2010Prop45
280
     0
102
RTVSPost2010PropOp45
 70
     0
102
RTVSPost2010Prop46
 90
       50
102
RTVSPost2010PropOp46
 70
     0
102
RTVSPost2010Prop47
 90
       50
102
RTVSPost2010PropOp47
 70
     0
102
RTVSPost2010Prop48
 90
       50
102
RTVSPost2010PropOp48
 70
     0
102
RTVSPost2010Prop49
280
     0
102
RTVSPost2010PropOp49
 70
     0
102
RTVSPost2010Prop50
 90
       50
102
RTVSPost2010PropOp50
 70
     0
102
RTVSPost2010Prop51ColorIndex
 90
      256
102
RTVSPost2010Prop51ColorRGB
 90
-16777216
102
RTVSPost2010PropOp51
 70
     0
102
RTVSPost2010Prop52
140
1.0
102
RTVSPost2010PropOp52
 70
     0
102
RTVSPost2010Prop53
 90
        2
102
RTVSPost2010PropOp53
 70
     0
102
RTVSPost2010Prop54
  1
strokes_ogs.tif
102
RTVSPost2010PropOp54
 70
     0
102
RTVSPost2010Prop55
280
     0
102
RTVSPost2010PropOp55
 70
     0
102
RTVSPost2010Prop56
140
1.0
102
RTVSPost2010PropOp56
 70
     0
102
RTVSPost2010Prop57
140
1.0
102
RTVSPost2010PropOp57
 70
     0
  0
XRECORD
  5
2D3
102
{ACAD_REACTORS
330
2D2
102
}
330
2D2
100
AcDbXrecord
280
     1
102
RTVSPropertyOp0
 70
     1
102
RTVSPropertyOp1
 70
     1
102
RTVSPropertyOp2
 70
     1
102
RTVSPropertyOp3
 70
     1
102
RTVSPropertyOp4
 70
     1
102
RTVSPropertyOp5
 70
     1
102
RTVSPropertyOp6
 70
     1
102
RTVSPropertyOp7
 70
     1
102
RTVSPropertyOp8
 70
     1
102
RTVSPropertyOp9
 70
     1
102
RTVSPropertyOp10
 70
     1
102
RTVSPropertyOp11
 70
     1
102
RTVSPropertyOp12
 70
     1
102
RTVSPropertyOp13
 70
     1
102
RTVSPropertyOp14
 70
     1
102
RTVSPropertyOp15
 70
     1
102
RTVSPropertyOp16
 70
     1
102
RTVSPropertyOp17
 70
     1
102
RTVSPropertyOp18
 70
     1
102
RTVSPropertyOp19
 70
     1
102
RTVSPropertyOp20
 70
     1
102
RTVSPropertyOp21
 70
     1
102
RTVSPropertyOp22
 70
     1
102
RTVSPropertyOp23
 70
     1
102
RTVSPropertyOp24
 70
     1
102
RTVSPropertyOp25
 70
     1
102
RTVSPropertyOp26
 70
     1
102
RTVSPropertyOp27
 70
     1
102
RTVSPropertyOp28
 70
     1
102
RTVSPropertyOp29
 70
     1
102
RTVSPropertyOp30
 70
     1
102
RTVSPropertyOp31
 70
     1
102
RTVSPropertyOp32
 70
     1
102
RTVSPropertyOp33
 70
     1
102
RTVSPropertyOp34
 70
     1
102
RTVSPropertyOp35
 70
     1
102
RTVSPropertyOp36
 70
     1
102
RTVSPropertyOp37
 70
     1
102
RTVSPropertyOp38
 70
     1
102
RTVSPropertyOp39
 70
     1
102
RTVSPropertyOp40
 70
     1
102
RTVSPropertyOp41
 70
     1
102
RTVSPropertyOp42
 70
     1
102
RTVSPropertyOp43
 70
     1
102
RTVSPropertyOp44
 70
     1
102
RTVSPropertyOp45
 70
     1
102
RTVSPropertyOp46
 70
     1
102
RTVSPropertyOp47
 70
     1
102
RTVSPropertyOp48
 70
     1
102
RTVSPropertyOp49
 70
     1
102
RTVSPropertyOp50
 70
     1
102
RTVSPropertyOp51
 70
     0
102
RTVSPropertyOp52
 70
     0
102
RTVSPropertyOp53
 70
     1
102
RTVSPropertyOp54
 70
     1
102
RTVSPropertyOp55
 70
     1
102
RTVSPropertyOp56
 70
     1
102
RTVSPropertyOp57
 70
     1
102
RTVSPost2010Prop28
280
     0
102
RTVSPost2010PropOp28
 70
     1
102
RTVSPost2010Prop29
280
     1
102
RTVSPost2010PropOp29
 70
     1
102
RTVSPost2010Prop30
280
     1
102
RTVSPost2010PropOp30
 70
     1
102
RTVSPost2010Prop31
280
     0
102
RTVSPost2010PropOp31
 70
     1
102
RTVSPost2010Prop32
280
     0
102
RTVSPost2010PropOp32
 70
     1
102
RTVSPost2010Prop33
280
     0
102
RTVSPost2010PropOp33
 70
     1
102
RTVSPost2010Prop34
280
     0
102
RTVSPost2010PropOp34
 70
     1
102
RTVSPost2010Prop35
280
     0
102
RTVSPost2010PropOp35
 70
     1
102
RTVSPost2010Prop36
280
     0
102
RTVSPost2010PropOp36
 70
     1
102
RTVSPost2010Prop37
 90
       50
102
RTVSPost2010PropOp37
 70
     1
102
RTVSPost2010Prop38
140
0.0
102
RTVSPost2010PropOp38
 70
     1
102
RTVSPost2010Prop39
140
1.0
102
RTVSPost2010PropOp39
 70
     1
102
RTVSPost2010Prop40
 90
        0
102
RTVSPost2010PropOp40
 70
     1
102
RTVSPost2010Prop41ColorIndex
 90
       18
102
RTVSPost2010Prop41ColorRGB
 90
        0
102
RTVSPost2010PropOp41
 70
     1
102
RTVSPost2010Prop42
 90
       50
102
RTVSPost2010PropOp42
 70
     1
102
RTVSPost2010Prop43
 90
        3
102
RTVSPost2010PropOp43
 70
     1
102
RTVSPost2010Prop44ColorIndex
 90
        5
102
RTVSPost2010Prop44ColorRGB
 90
      255
102
RTVSPost2010PropOp44
 70
     1
102
RTVSPost2010Prop45
280
     0
102
RTVSPost2010PropOp45
 70
     1
102
RTVSPost2010Prop46
 90
       50
102
RTVSPost2010PropOp46
 70
     1
102
RTVSPost2010Prop47
 90
       50
102
RTVSPost2010PropOp47
 70
     1
102
RTVSPost2010Prop48
 90
       50
102
RTVSPost2010PropOp48
 70
     1
102
RTVSPost2010Prop49
280
     0
102
RTVSPost2010PropOp49
 70
     1
102
RTVSPost2010Prop50
 90
       50
102
RTVSPost2010PropOp50
 70
     1
102
RTVSPost2010Prop51ColorIndex
 90
      256
102
RTVSPost2010Prop51ColorRGB
 90
-16777216
102
RTVSPost2010PropOp51
 70
     0
102
RTVSPost2010Prop52
140
1.0
102
RTVSPost2010PropOp52
 70
     0
102
RTVSPost2010Prop53
 90
        2
102
RTVSPost2010PropOp53
 70
     1
102
RTVSPost2010Prop54
  1
strokes_ogs.tif
102
RTVSPost2010PropOp54
 70
     1
102
RTVSPost2010Prop55
280
     0
102
RTVSPost2010PropOp55
 70
     1
102
RTVSPost2010Prop56
140
1.0
102
RTVSPost2010PropOp56
 70
     1
102
RTVSPost2010Prop57
140
1.0
102
RTVSPost2010PropOp57
 70
     1
  0
XRECORD
  5
2DB
102
{ACAD_REACTORS
330
2DA
102
}
330
2DA
100
AcDbXrecord
280
     1
102
RTVSPropertyOp0
 70
     0
102
RTVSPropertyOp1
 70
     0
102
RTVSPropertyOp2
 70
     0
102
RTVSPropertyOp3
 70
     0
102
RTVSPropertyOp4
 70
     0
102
RTVSPropertyOp5
 70
     0
102
RTVSPropertyOp6
 70
     0
102
RTVSPropertyOp7
 70
     0
102
RTVSPropertyOp8
 70
     0
102
RTVSPropertyOp9
 70
     0
102
RTVSPropertyOp10
 70
     0
102
RTVSPropertyOp11
 70
     0
102
RTVSPropertyOp12
 70
     0
102
RTVSPropertyOp13
 70
     0
102
RTVSPropertyOp14
 70
     2
102
RTVSPropertyOp15
 70
     0
102
RTVSPropertyOp16
 70
     0
102
RTVSPropertyOp17
 70
     0
102
RTVSPropertyOp18
 70
     0
102
RTVSPropertyOp19
 70
     0
102
RTVSPropertyOp20
 70
     0
102
RTVSPropertyOp21
 70
     0
102
RTVSPropertyOp22
 70
     0
102
RTVSPropertyOp23
 70
     0
102
RTVSPropertyOp24
 70
     0
102
RTVSPropertyOp25
 70
     0
102
RTVSPropertyOp26
 70
     0
102
RTVSPropertyOp27
 70
     0
102
RTVSPropertyOp28
 70
     0
102
RTVSPropertyOp29
 70
     0
102
RTVSPropertyOp30
 70
     0
102
RTVSPropertyOp31
 70
     0
102
RTVSPropertyOp32
 70
     0
102
RTVSPropertyOp33
 70
     0
102
RTVSPropertyOp34
 70
     0
102
RTVSPropertyOp35
 70
     0
102
RTVSPropertyOp36
 70
     0
102
RTVSPropertyOp37
 70
     0
102
RTVSPropertyOp38
 70
     0
102
RTVSPropertyOp39
 70
     0
102
RTVSPropertyOp40
 70
     0
102
RTVSPropertyOp41
 70
     0
102
RTVSPropertyOp42
 70
     0
102
RTVSPropertyOp43
 70
     0
102
RTVSPropertyOp44
 70
     0
102
RTVSPropertyOp45
 70
     0
102
RTVSPropertyOp46
 70
     0
102
RTVSPropertyOp47
 70
     0
102
RTVSPropertyOp48
 70
     0
102
RTVSPropertyOp49
 70
     0
102
RTVSPropertyOp50
 70
     0
102
RTVSPropertyOp51
 70
     0
102
RTVSPropertyOp52
 70
     0
102
RTVSPropertyOp53
 70
     0
102
RTVSPropertyOp54
 70
     0
102
RTVSPropertyOp55
 70
     0
102
RTVSPropertyOp56
 70
     0
102
RTVSPropertyOp57
 70
     0
102
RTVSPost2010Prop28
280
     0
102
RTVSPost2010PropOp28
 70
     0
102
RTVSPost2010Prop29
280
     1
102
RTVSPost2010PropOp29
 70
     0
102
RTVSPost2010Prop30
280
     1
102
RTVSPost2010PropOp30
 70
     0
102
RTVSPost2010Prop31
280
     0
102
RTVSPost2010PropOp31
 70
     0
102
RTVSPost2010Prop32
280
     0
102
RTVSPost2010PropOp32
 70
     0
102
RTVSPost2010Prop33
280
     0
102
RTVSPost2010PropOp33
 70
     0
102
RTVSPost2010Prop34
280
     0
102
RTVSPost2010PropOp34
 70
     0
102
RTVSPost2010Prop35
280
     0
102
RTVSPost2010PropOp35
 70
     0
102
RTVSPost2010Prop36
280
     0
102
RTVSPost2010PropOp36
 70
     0
102
RTVSPost2010Prop37
 90
       50
102
RTVSPost2010PropOp37
 70
     0
102
RTVSPost2010Prop38
140
0.0
102
RTVSPost2010PropOp38
 70
     0
102
RTVSPost2010Prop39
140
1.0
102
RTVSPost2010PropOp39
 70
     0
102
RTVSPost2010Prop40
 90
        0
102
RTVSPost2010PropOp40
 70
     0
102
RTVSPost2010Prop41ColorIndex
 90
       18
102
RTVSPost2010Prop41ColorRGB
 90
        0
102
RTVSPost2010PropOp41
 70
     0
102
RTVSPost2010Prop42
 90
       50
102
RTVSPost2010PropOp42
 70
     0
102
RTVSPost2010Prop43
 90
        3
102
RTVSPost2010PropOp43
 70
     0
102
RTVSPost2010Prop44ColorIndex
 90
        5
102
RTVSPost2010Prop44ColorRGB
 90
      255
102
RTVSPost2010PropOp44
 70
     0
102
RTVSPost2010Prop45
280
     0
102
RTVSPost2010PropOp45
 70
     0
102
RTVSPost2010Prop46
 90
       50
102
RTVSPost2010PropOp46
 70
     0
102
RTVSPost2010Prop47
 90
       50
102
RTVSPost2010PropOp47
 70
     0
102
RTVSPost2010Prop48
 90
       50
102
RTVSPost2010PropOp48
 70
     0
102
RTVSPost2010Prop49
280
     0
102
RTVSPost2010PropOp49
 70
     0
102
RTVSPost2010Prop50
 90
       50
102
RTVSPost2010PropOp50
 70
     0
102
RTVSPost2010Prop51ColorIndex
 90
      256
102
RTVSPost2010Prop51ColorRGB
 90
-16777216
102
RTVSPost2010PropOp51
 70
     0
102
RTVSPost2010Prop52
140
1.0
102
RTVSPost2010PropOp52
 70
     0
102
RTVSPost2010Prop53
 90
        2
102
RTVSPost2010PropOp53
 70
     0
102
RTVSPost2010Prop54
  1
strokes_ogs.tif
102
RTVSPost2010PropOp54
 70
     0
102
RTVSPost2010Prop55
280
     0
102
RTVSPost2010PropOp55
 70
     0
102
RTVSPost2010Prop56
140
1.0
102
RTVSPost2010PropOp56
 70
     0
102
RTVSPost2010Prop57
140
1.0
102
RTVSPost2010PropOp57
 70
     0
  0
XRECORD
  5
2C9
102
{ACAD_REACTORS
330
2C8
102
}
330
2C8
100
AcDbXrecord
280
     1
102
RTVSPropertyOp0
 70
     1
102
RTVSPropertyOp1
 70
     1
102
RTVSPropertyOp2
 70
     1
102
RTVSPropertyOp3
 70
     1
102
RTVSPropertyOp4
 70
     1
102
RTVSPropertyOp5
 70
     1
102
RTVSPropertyOp6
 70
     1
102
RTVSPropertyOp7
 70
     1
102
RTVSPropertyOp8
 70
     1
102
RTVSPropertyOp9
 70
     1
102
RTVSPropertyOp10
 70
     1
102
RTVSPropertyOp11
 70
     1
102
RTVSPropertyOp12
 70
     1
102
RTVSPropertyOp13
 70
     1
102
RTVSPropertyOp14
 70
     1
102
RTVSPropertyOp15
 70
     1
102
RTVSPropertyOp16
 70
     1
102
RTVSPropertyOp17
 70
     1
102
RTVSPropertyOp18
 70
     1
102
RTVSPropertyOp19
 70
     1
102
RTVSPropertyOp20
 70
     1
102
RTVSPropertyOp21
 70
     1
102
RTVSPropertyOp22
 70
     1
102
RTVSPropertyOp23
 70
     1
102
RTVSPropertyOp24
 70
     1
102
RTVSPropertyOp25
 70
     1
102
RTVSPropertyOp26
 70
     1
102
RTVSPropertyOp27
 70
     1
102
RTVSPropertyOp28
 70
     1
102
RTVSPropertyOp29
 70
     1
102
RTVSPropertyOp30
 70
     1
102
RTVSPropertyOp31
 70
     1
102
RTVSPropertyOp32
 70
     1
102
RTVSPropertyOp33
 70
     1
102
RTVSPropertyOp34
 70
     1
102
RTVSPropertyOp35
 70
     1
102
RTVSPropertyOp36
 70
     1
102
RTVSPropertyOp37
 70
     1
102
RTVSPropertyOp38
 70
     1
102
RTVSPropertyOp39
 70
     1
102
RTVSPropertyOp40
 70
     1
102
RTVSPropertyOp41
 70
     1
102
RTVSPropertyOp42
 70
     1
102
RTVSPropertyOp43
 70
     1
102
RTVSPropertyOp44
 70
     1
102
RTVSPropertyOp45
 70
     1
102
RTVSPropertyOp46
 70
     1
102
RTVSPropertyOp47
 70
     1
102
RTVSPropertyOp48
 70
     1
102
RTVSPropertyOp49
 70
     1
102
RTVSPropertyOp50
 70
     1
102
RTVSPropertyOp51
 70
     0
102
RTVSPropertyOp52
 70
     0
102
RTVSPropertyOp53
 70
     1
102
RTVSPropertyOp54
 70
     1
102
RTVSPropertyOp55
 70
     1
102
RTVSPropertyOp56
 70
     1
102
RTVSPropertyOp57
 70
     1
102
RTVSPost2010Prop28
280
     0
102
RTVSPost2010PropOp28
 70
     1
102
RTVSPost2010Prop29
280
     1
102
RTVSPost2010PropOp29
 70
     1
102
RTVSPost2010Prop30
280
     1
102
RTVSPost2010PropOp30
 70
     1
102
RTVSPost2010Prop31
280
     0
102
RTVSPost2010PropOp31
 70
     1
102
RTVSPost2010Prop32
280
     0
102
RTVSPost2010PropOp32
 70
     1
102
RTVSPost2010Prop33
280
     0
102
RTVSPost2010PropOp33
 70
     1
102
RTVSPost2010Prop34
280
     0
102
RTVSPost2010PropOp34
 70
     1
102
RTVSPost2010Prop35
280
     0
102
RTVSPost2010PropOp35
 70
     1
102
RTVSPost2010Prop36
280
     0
102
RTVSPost2010PropOp36
 70
     1
102
RTVSPost2010Prop37
 90
       50
102
RTVSPost2010PropOp37
 70
     1
102
RTVSPost2010Prop38
140
0.0
102
RTVSPost2010PropOp38
 70
     1
102
RTVSPost2010Prop39
140
1.0
102
RTVSPost2010PropOp39
 70
     1
102
RTVSPost2010Prop40
 90
        0
102
RTVSPost2010PropOp40
 70
     1
102
RTVSPost2010Prop41ColorIndex
 90
       18
102
RTVSPost2010Prop41ColorRGB
 90
        0
102
RTVSPost2010PropOp41
 70
     1
102
RTVSPost2010Prop42
 90
       50
102
RTVSPost2010PropOp42
 70
     1
102
RTVSPost2010Prop43
 90
        3
102
RTVSPost2010PropOp43
 70
     1
102
RTVSPost2010Prop44ColorIndex
 90
        5
102
RTVSPost2010Prop44ColorRGB
 90
      255
102
RTVSPost2010PropOp44
 70
     1
102
RTVSPost2010Prop45
280
     0
102
RTVSPost2010PropOp45
 70
     1
102
RTVSPost2010Prop46
 90
       50
102
RTVSPost2010PropOp46
 70
     1
102
RTVSPost2010Prop47
 90
       50
102
RTVSPost2010PropOp47
 70
     1
102
RTVSPost2010Prop48
 90
       50
102
RTVSPost2010PropOp48
 70
     1
102
RTVSPost2010Prop49
280
     0
102
RTVSPost2010PropOp49
 70
     1
102
RTVSPost2010Prop50
 90
       50
102
RTVSPost2010PropOp50
 70
     1
102
RTVSPost2010Prop51ColorIndex
 90
      256
102
RTVSPost2010Prop51ColorRGB
 90
-16777216
102
RTVSPost2010PropOp51
 70
     0
102
RTVSPost2010Prop52
140
1.0
102
RTVSPost2010PropOp52
 70
     0
102
RTVSPost2010Prop53
 90
        2
102
RTVSPost2010PropOp53
 70
     1
102
RTVSPost2010Prop54
  1
strokes_ogs.tif
102
RTVSPost2010PropOp54
 70
     1
102
RTVSPost2010Prop55
280
     0
102
RTVSPost2010PropOp55
 70
     1
102
RTVSPost2010Prop56
140
1.0
102
RTVSPost2010PropOp56
 70
     1
102
RTVSPost2010Prop57
140
1.0
102
RTVSPost2010PropOp57
 70
     1
  0
XRECORD
  5
2E7
102
{ACAD_REACTORS
330
2E6
102
}
330
2E6
100
AcDbXrecord
280
     1
102
RTVSPropertyOp0
 70
     1
102
RTVSPropertyOp1
 70
     1
102
RTVSPropertyOp2
 70
     1
102
RTVSPropertyOp3
 70
     1
102
RTVSPropertyOp4
 70
     1
102
RTVSPropertyOp5
 70
     1
102
RTVSPropertyOp6
 70
     1
102
RTVSPropertyOp7
 70
     1
102
RTVSPropertyOp8
 70
     1
102
RTVSPropertyOp9
 70
     1
102
RTVSPropertyOp10
 70
     1
102
RTVSPropertyOp11
 70
     1
102
RTVSPropertyOp12
 70
     1
102
RTVSPropertyOp13
 70
     1
102
RTVSPropertyOp14
 70
     1
102
RTVSPropertyOp15
 70
     1
102
RTVSPropertyOp16
 70
     1
102
RTVSPropertyOp17
 70
     1
102
RTVSPropertyOp18
 70
     1
102
RTVSPropertyOp19
 70
     1
102
RTVSPropertyOp20
 70
     1
102
RTVSPropertyOp21
 70
     1
102
RTVSPropertyOp22
 70
     1
102
RTVSPropertyOp23
 70
     1
102
RTVSPropertyOp24
 70
     1
102
RTVSPropertyOp25
 70
     1
102
RTVSPropertyOp26
 70
     1
102
RTVSPropertyOp27
 70
     1
102
RTVSPropertyOp28
 70
     1
102
RTVSPropertyOp29
 70
     1
102
RTVSPropertyOp30
 70
     1
102
RTVSPropertyOp31
 70
     1
102
RTVSPropertyOp32
 70
     1
102
RTVSPropertyOp33
 70
     1
102
RTVSPropertyOp34
 70
     1
102
RTVSPropertyOp35
 70
     1
102
RTVSPropertyOp36
 70
     1
102
RTVSPropertyOp37
 70
     1
102
RTVSPropertyOp38
 70
     1
102
RTVSPropertyOp39
 70
     1
102
RTVSPropertyOp40
 70
     1
102
RTVSPropertyOp41
 70
     1
102
RTVSPropertyOp42
 70
     1
102
RTVSPropertyOp43
 70
     1
102
RTVSPropertyOp44
 70
     1
102
RTVSPropertyOp45
 70
     1
102
RTVSPropertyOp46
 70
     1
102
RTVSPropertyOp47
 70
     1
102
RTVSPropertyOp48
 70
     1
102
RTVSPropertyOp49
 70
     1
102
RTVSPropertyOp50
 70
     1
102
RTVSPropertyOp51
 70
     0
102
RTVSPropertyOp52
 70
     0
102
RTVSPropertyOp53
 70
     1
102
RTVSPropertyOp54
 70
     1
102
RTVSPropertyOp55
 70
     1
102
RTVSPropertyOp56
 70
     1
102
RTVSPropertyOp57
 70
     1
102
RTVSPost2010Prop28
280
     0
102
RTVSPost2010PropOp28
 70
     1
102
RTVSPost2010Prop29
280
     1
102
RTVSPost2010PropOp29
 70
     1
102
RTVSPost2010Prop30
280
     1
102
RTVSPost2010PropOp30
 70
     1
102
RTVSPost2010Prop31
280
     0
102
RTVSPost2010PropOp31
 70
     1
102
RTVSPost2010Prop32
280
     0
102
RTVSPost2010PropOp32
 70
     1
102
RTVSPost2010Prop33
280
     0
102
RTVSPost2010PropOp33
 70
     1
102
RTVSPost2010Prop34
280
     0
102
RTVSPost2010PropOp34
 70
     1
102
RTVSPost2010Prop35
280
     0
102
RTVSPost2010PropOp35
 70
     1
102
RTVSPost2010Prop36
280
     0
102
RTVSPost2010PropOp36
 70
     1
102
RTVSPost2010Prop37
 90
       50
102
RTVSPost2010PropOp37
 70
     1
102
RTVSPost2010Prop38
140
0.0
102
RTVSPost2010PropOp38
 70
     1
102
RTVSPost2010Prop39
140
1.0
102
RTVSPost2010PropOp39
 70
     1
102
RTVSPost2010Prop40
 90
        0
102
RTVSPost2010PropOp40
 70
     1
102
RTVSPost2010Prop41ColorIndex
 90
       18
102
RTVSPost2010Prop41ColorRGB
 90
        0
102
RTVSPost2010PropOp41
 70
     1
102
RTVSPost2010Prop42
 90
       50
102
RTVSPost2010PropOp42
 70
     1
102
RTVSPost2010Prop43
 90
        3
102
RTVSPost2010PropOp43
 70
     1
102
RTVSPost2010Prop44ColorIndex
 90
        5
102
RTVSPost2010Prop44ColorRGB
 90
      255
102
RTVSPost2010PropOp44
 70
     1
102
RTVSPost2010Prop45
280
     0
102
RTVSPost2010PropOp45
 70
     1
102
RTVSPost2010Prop46
 90
       50
102
RTVSPost2010PropOp46
 70
     1
102
RTVSPost2010Prop47
 90
       50
102
RTVSPost2010PropOp47
 70
     1
102
RTVSPost2010Prop48
 90
       50
102
RTVSPost2010PropOp48
 70
     1
102
RTVSPost2010Prop49
280
     0
102
RTVSPost2010PropOp49
 70
     1
102
RTVSPost2010Prop50
 90
       50
102
RTVSPost2010PropOp50
 70
     1
102
RTVSPost2010Prop51ColorIndex
 90
      256
102
RTVSPost2010Prop51ColorRGB
 90
-16777216
102
RTVSPost2010PropOp51
 70
     0
102
RTVSPost2010Prop52
140
1.0
102
RTVSPost2010PropOp52
 70
     0
102
RTVSPost2010Prop53
 90
        2
102
RTVSPost2010PropOp53
 70
     1
102
RTVSPost2010Prop54
  1
strokes_ogs.tif
102
RTVSPost2010PropOp54
 70
     1
102
RTVSPost2010Prop55
280
     0
102
RTVSPost2010PropOp55
 70
     1
102
RTVSPost2010Prop56
140
1.0
102
RTVSPost2010PropOp56
 70
     1
102
RTVSPost2010Prop57
140
1.0
102
RTVSPost2010PropOp57
 70
     1
  0
XRECORD
  5
2E5
102
{ACAD_REACTORS
330
2E4
102
}
330
2E4
100
AcDbXrecord
280
     1
102
RTVSPropertyOp0
 70
     1
102
RTVSPropertyOp1
 70
     1
102
RTVSPropertyOp2
 70
     1
102
RTVSPropertyOp3
 70
     1
102
RTVSPropertyOp4
 70
     1
102
RTVSPropertyOp5
 70
     1
102
RTVSPropertyOp6
 70
     1
102
RTVSPropertyOp7
 70
     1
102
RTVSPropertyOp8
 70
     1
102
RTVSPropertyOp9
 70
     1
102
RTVSPropertyOp10
 70
     1
102
RTVSPropertyOp11
 70
     1
102
RTVSPropertyOp12
 70
     1
102
RTVSPropertyOp13
 70
     1
102
RTVSPropertyOp14
 70
     1
102
RTVSPropertyOp15
 70
     1
102
RTVSPropertyOp16
 70
     1
102
RTVSPropertyOp17
 70
     1
102
RTVSPropertyOp18
 70
     1
102
RTVSPropertyOp19
 70
     1
102
RTVSPropertyOp20
 70
     1
102
RTVSPropertyOp21
 70
     1
102
RTVSPropertyOp22
 70
     1
102
RTVSPropertyOp23
 70
     1
102
RTVSPropertyOp24
 70
     1
102
RTVSPropertyOp25
 70
     1
102
RTVSPropertyOp26
 70
     1
102
RTVSPropertyOp27
 70
     1
102
RTVSPropertyOp28
 70
     1
102
RTVSPropertyOp29
 70
     1
102
RTVSPropertyOp30
 70
     1
102
RTVSPropertyOp31
 70
     1
102
RTVSPropertyOp32
 70
     1
102
RTVSPropertyOp33
 70
     1
102
RTVSPropertyOp34
 70
     1
102
RTVSPropertyOp35
 70
     1
102
RTVSPropertyOp36
 70
     1
102
RTVSPropertyOp37
 70
     1
102
RTVSPropertyOp38
 70
     1
102
RTVSPropertyOp39
 70
     1
102
RTVSPropertyOp40
 70
     1
102
RTVSPropertyOp41
 70
     1
102
RTVSPropertyOp42
 70
     1
102
RTVSPropertyOp43
 70
     1
102
RTVSPropertyOp44
 70
     1
102
RTVSPropertyOp45
 70
     1
102
RTVSPropertyOp46
 70
     1
102
RTVSPropertyOp47
 70
     1
102
RTVSPropertyOp48
 70
     1
102
RTVSPropertyOp49
 70
     1
102
RTVSPropertyOp50
 70
     1
102
RTVSPropertyOp51
 70
     0
102
RTVSPropertyOp52
 70
     0
102
RTVSPropertyOp53
 70
     1
102
RTVSPropertyOp54
 70
     1
102
RTVSPropertyOp55
 70
     1
102
RTVSPropertyOp56
 70
     1
102
RTVSPropertyOp57
 70
     1
102
RTVSPost2010Prop28
280
     0
102
RTVSPost2010PropOp28
 70
     1
102
RTVSPost2010Prop29
280
     1
102
RTVSPost2010PropOp29
 70
     1
102
RTVSPost2010Prop30
280
     1
102
RTVSPost2010PropOp30
 70
     1
102
RTVSPost2010Prop31
280
     0
102
RTVSPost2010PropOp31
 70
     1
102
RTVSPost2010Prop32
280
     0
102
RTVSPost2010PropOp32
 70
     1
102
RTVSPost2010Prop33
280
     0
102
RTVSPost2010PropOp33
 70
     1
102
RTVSPost2010Prop34
280
     0
102
RTVSPost2010PropOp34
 70
     1
102
RTVSPost2010Prop35
280
     0
102
RTVSPost2010PropOp35
 70
     1
102
RTVSPost2010Prop36
280
     0
102
RTVSPost2010PropOp36
 70
     1
102
RTVSPost2010Prop37
 90
       50
102
RTVSPost2010PropOp37
 70
     1
102
RTVSPost2010Prop38
140
0.0
102
RTVSPost2010PropOp38
 70
     1
102
RTVSPost2010Prop39
140
1.0
102
RTVSPost2010PropOp39
 70
     1
102
RTVSPost2010Prop40
 90
        0
102
RTVSPost2010PropOp40
 70
     1
102
RTVSPost2010Prop41ColorIndex
 90
       18
102
RTVSPost2010Prop41ColorRGB
 90
        0
102
RTVSPost2010PropOp41
 70
     1
102
RTVSPost2010Prop42
 90
       50
102
RTVSPost2010PropOp42
 70
     1
102
RTVSPost2010Prop43
 90
        3
102
RTVSPost2010PropOp43
 70
     1
102
RTVSPost2010Prop44ColorIndex
 90
        5
102
RTVSPost2010Prop44ColorRGB
 90
      255
102
RTVSPost2010PropOp44
 70
     1
102
RTVSPost2010Prop45
280
     0
102
RTVSPost2010PropOp45
 70
     1
102
RTVSPost2010Prop46
 90
       50
102
RTVSPost2010PropOp46
 70
     1
102
RTVSPost2010Prop47
 90
       50
102
RTVSPost2010PropOp47
 70
     1
102
RTVSPost2010Prop48
 90
       50
102
RTVSPost2010PropOp48
 70
     1
102
RTVSPost2010Prop49
280
     0
102
RTVSPost2010PropOp49
 70
     1
102
RTVSPost2010Prop50
 90
       50
102
RTVSPost2010PropOp50
 70
     1
102
RTVSPost2010Prop51ColorIndex
 90
      256
102
RTVSPost2010Prop51ColorRGB
 90
-16777216
102
RTVSPost2010PropOp51
 70
     0
102
RTVSPost2010Prop52
140
1.0
102
RTVSPost2010PropOp52
 70
     0
102
RTVSPost2010Prop53
 90
        2
102
RTVSPost2010PropOp53
 70
     1
102
RTVSPost2010Prop54
  1
strokes_ogs.tif
102
RTVSPost2010PropOp54
 70
     1
102
RTVSPost2010Prop55
280
     0
102
RTVSPost2010PropOp55
 70
     1
102
RTVSPost2010Prop56
140
1.0
102
RTVSPost2010PropOp56
 70
     1
102
RTVSPost2010Prop57
140
1.0
102
RTVSPost2010PropOp57
 70
     1
  0
XRECORD
  5
2DF
102
{ACAD_REACTORS
330
2DE
102
}
330
2DE
100
AcDbXrecord
280
     1
102
RTVSPropertyOp0
 70
     1
102
RTVSPropertyOp1
 70
     1
102
RTVSPropertyOp2
 70
     1
102
RTVSPropertyOp3
 70
     1
102
RTVSPropertyOp4
 70
     1
102
RTVSPropertyOp5
 70
     1
102
RTVSPropertyOp6
 70
     1
102
RTVSPropertyOp7
 70
     1
102
RTVSPropertyOp8
 70
     1
102
RTVSPropertyOp9
 70
     1
102
RTVSPropertyOp10
 70
     1
102
RTVSPropertyOp11
 70
     1
102
RTVSPropertyOp12
 70
     1
102
RTVSPropertyOp13
 70
     1
102
RTVSPropertyOp14
 70
     1
102
RTVSPropertyOp15
 70
     1
102
RTVSPropertyOp16
 70
     1
102
RTVSPropertyOp17
 70
     1
102
RTVSPropertyOp18
 70
     1
102
RTVSPropertyOp19
 70
     1
102
RTVSPropertyOp20
 70
     1
102
RTVSPropertyOp21
 70
     1
102
RTVSPropertyOp22
 70
     1
102
RTVSPropertyOp23
 70
     1
102
RTVSPropertyOp24
 70
     1
102
RTVSPropertyOp25
 70
     1
102
RTVSPropertyOp26
 70
     1
102
RTVSPropertyOp27
 70
     1
102
RTVSPropertyOp28
 70
     1
102
RTVSPropertyOp29
 70
     1
102
RTVSPropertyOp30
 70
     1
102
RTVSPropertyOp31
 70
     1
102
RTVSPropertyOp32
 70
     1
102
RTVSPropertyOp33
 70
     1
102
RTVSPropertyOp34
 70
     1
102
RTVSPropertyOp35
 70
     1
102
RTVSPropertyOp36
 70
     1
102
RTVSPropertyOp37
 70
     1
102
RTVSPropertyOp38
 70
     1
102
RTVSPropertyOp39
 70
     1
102
RTVSPropertyOp40
 70
     1
102
RTVSPropertyOp41
 70
     1
102
RTVSPropertyOp42
 70
     1
102
RTVSPropertyOp43
 70
     1
102
RTVSPropertyOp44
 70
     1
102
RTVSPropertyOp45
 70
     1
102
RTVSPropertyOp46
 70
     1
102
RTVSPropertyOp47
 70
     1
102
RTVSPropertyOp48
 70
     1
102
RTVSPropertyOp49
 70
     1
102
RTVSPropertyOp50
 70
     1
102
RTVSPropertyOp51
 70
     0
102
RTVSPropertyOp52
 70
     0
102
RTVSPropertyOp53
 70
     1
102
RTVSPropertyOp54
 70
     1
102
RTVSPropertyOp55
 70
     1
102
RTVSPropertyOp56
 70
     1
102
RTVSPropertyOp57
 70
     1
102
RTVSPost2010Prop28
280
     0
102
RTVSPost2010PropOp28
 70
     1
102
RTVSPost2010Prop29
280
     1
102
RTVSPost2010PropOp29
 70
     1
102
RTVSPost2010Prop30
280
     1
102
RTVSPost2010PropOp30
 70
     1
102
RTVSPost2010Prop31
280
     0
102
RTVSPost2010PropOp31
 70
     1
102
RTVSPost2010Prop32
280
     0
102
RTVSPost2010PropOp32
 70
     1
102
RTVSPost2010Prop33
280
     0
102
RTVSPost2010PropOp33
 70
     1
102
RTVSPost2010Prop34
280
     0
102
RTVSPost2010PropOp34
 70
     1
102
RTVSPost2010Prop35
280
     0
102
RTVSPost2010PropOp35
 70
     1
102
RTVSPost2010Prop36
280
     0
102
RTVSPost2010PropOp36
 70
     1
102
RTVSPost2010Prop37
 90
       50
102
RTVSPost2010PropOp37
 70
     1
102
RTVSPost2010Prop38
140
0.0
102
RTVSPost2010PropOp38
 70
     1
102
RTVSPost2010Prop39
140
1.0
102
RTVSPost2010PropOp39
 70
     1
102
RTVSPost2010Prop40
 90
        0
102
RTVSPost2010PropOp40
 70
     1
102
RTVSPost2010Prop41ColorIndex
 90
       18
102
RTVSPost2010Prop41ColorRGB
 90
        0
102
RTVSPost2010PropOp41
 70
     1
102
RTVSPost2010Prop42
 90
       50
102
RTVSPost2010PropOp42
 70
     1
102
RTVSPost2010Prop43
 90
        3
102
RTVSPost2010PropOp43
 70
     1
102
RTVSPost2010Prop44ColorIndex
 90
        5
102
RTVSPost2010Prop44ColorRGB
 90
      255
102
RTVSPost2010PropOp44
 70
     1
102
RTVSPost2010Prop45
280
     0
102
RTVSPost2010PropOp45
 70
     1
102
RTVSPost2010Prop46
 90
       50
102
RTVSPost2010PropOp46
 70
     1
102
RTVSPost2010Prop47
 90
       50
102
RTVSPost2010PropOp47
 70
     1
102
RTVSPost2010Prop48
 90
       50
102
RTVSPost2010PropOp48
 70
     1
102
RTVSPost2010Prop49
280
     0
102
RTVSPost2010PropOp49
 70
     1
102
RTVSPost2010Prop50
 90
       50
102
RTVSPost2010PropOp50
 70
     1
102
RTVSPost2010Prop51ColorIndex
 90
      256
102
RTVSPost2010Prop51ColorRGB
 90
-16777216
102
RTVSPost2010PropOp51
 70
     0
102
RTVSPost2010Prop52
140
1.0
102
RTVSPost2010PropOp52
 70
     0
102
RTVSPost2010Prop53
 90
        2
102
RTVSPost2010PropOp53
 70
     1
102
RTVSPost2010Prop54
  1
strokes_ogs.tif
102
RTVSPost2010PropOp54
 70
     1
102
RTVSPost2010Prop55
280
     0
102
RTVSPost2010PropOp55
 70
     1
102
RTVSPost2010Prop56
140
1.0
102
RTVSPost2010PropOp56
 70
     1
102
RTVSPost2010Prop57
140
1.0
102
RTVSPost2010PropOp57
 70
     1
  0
XRECORD
  5
2E1
102
{ACAD_REACTORS
330
2E0
102
}
330
2E0
100
AcDbXrecord
280
     1
102
RTVSPropertyOp0
 70
     1
102
RTVSPropertyOp1
 70
     1
102
RTVSPropertyOp2
 70
     1
102
RTVSPropertyOp3
 70
     1
102
RTVSPropertyOp4
 70
     1
102
RTVSPropertyOp5
 70
     1
102
RTVSPropertyOp6
 70
     1
102
RTVSPropertyOp7
 70
     1
102
RTVSPropertyOp8
 70
     1
102
RTVSPropertyOp9
 70
     1
102
RTVSPropertyOp10
 70
     1
102
RTVSPropertyOp11
 70
     1
102
RTVSPropertyOp12
 70
     1
102
RTVSPropertyOp13
 70
     1
102
RTVSPropertyOp14
 70
     1
102
RTVSPropertyOp15
 70
     1
102
RTVSPropertyOp16
 70
     1
102
RTVSPropertyOp17
 70
     1
102
RTVSPropertyOp18
 70
     1
102
RTVSPropertyOp19
 70
     1
102
RTVSPropertyOp20
 70
     1
102
RTVSPropertyOp21
 70
     1
102
RTVSPropertyOp22
 70
     1
102
RTVSPropertyOp23
 70
     1
102
RTVSPropertyOp24
 70
     1
102
RTVSPropertyOp25
 70
     1
102
RTVSPropertyOp26
 70
     1
102
RTVSPropertyOp27
 70
     1
102
RTVSPropertyOp28
 70
     1
102
RTVSPropertyOp29
 70
     1
102
RTVSPropertyOp30
 70
     1
102
RTVSPropertyOp31
 70
     1
102
RTVSPropertyOp32
 70
     1
102
RTVSPropertyOp33
 70
     1
102
RTVSPropertyOp34
 70
     1
102
RTVSPropertyOp35
 70
     1
102
RTVSPropertyOp36
 70
     1
102
RTVSPropertyOp37
 70
     1
102
RTVSPropertyOp38
 70
     1
102
RTVSPropertyOp39
 70
     1
102
RTVSPropertyOp40
 70
     1
102
RTVSPropertyOp41
 70
     1
102
RTVSPropertyOp42
 70
     1
102
RTVSPropertyOp43
 70
     1
102
RTVSPropertyOp44
 70
     1
102
RTVSPropertyOp45
 70
     1
102
RTVSPropertyOp46
 70
     1
102
RTVSPropertyOp47
 70
     1
102
RTVSPropertyOp48
 70
     1
102
RTVSPropertyOp49
 70
     1
102
RTVSPropertyOp50
 70
     1
102
RTVSPropertyOp51
 70
     0
102
RTVSPropertyOp52
 70
     0
102
RTVSPropertyOp53
 70
     1
102
RTVSPropertyOp54
 70
     1
102
RTVSPropertyOp55
 70
     1
102
RTVSPropertyOp56
 70
     1
102
RTVSPropertyOp57
 70
     1
102
RTVSPost2010Prop28
280
     0
102
RTVSPost2010PropOp28
 70
     1
102
RTVSPost2010Prop29
280
     1
102
RTVSPost2010PropOp29
 70
     1
102
RTVSPost2010Prop30
280
     1
102
RTVSPost2010PropOp30
 70
     1
102
RTVSPost2010Prop31
280
     0
102
RTVSPost2010PropOp31
 70
     1
102
RTVSPost2010Prop32
280
     0
102
RTVSPost2010PropOp32
 70
     1
102
RTVSPost2010Prop33
280
     0
102
RTVSPost2010PropOp33
 70
     1
102
RTVSPost2010Prop34
280
     0
102
RTVSPost2010PropOp34
 70
     1
102
RTVSPost2010Prop35
280
     0
102
RTVSPost2010PropOp35
 70
     1
102
RTVSPost2010Prop36
280
     0
102
RTVSPost2010PropOp36
 70
     1
102
RTVSPost2010Prop37
 90
       50
102
RTVSPost2010PropOp37
 70
     1
102
RTVSPost2010Prop38
140
0.0
102
RTVSPost2010PropOp38
 70
     1
102
RTVSPost2010Prop39
140
1.0
102
RTVSPost2010PropOp39
 70
     1
102
RTVSPost2010Prop40
 90
        0
102
RTVSPost2010PropOp40
 70
     1
102
RTVSPost2010Prop41ColorIndex
 90
       18
102
RTVSPost2010Prop41ColorRGB
 90
        0
102
RTVSPost2010PropOp41
 70
     1
102
RTVSPost2010Prop42
 90
       50
102
RTVSPost2010PropOp42
 70
     1
102
RTVSPost2010Prop43
 90
        3
102
RTVSPost2010PropOp43
 70
     1
102
RTVSPost2010Prop44ColorIndex
 90
        5
102
RTVSPost2010Prop44ColorRGB
 90
      255
102
RTVSPost2010PropOp44
 70
     1
102
RTVSPost2010Prop45
280
     0
102
RTVSPost2010PropOp45
 70
     1
102
RTVSPost2010Prop46
 90
       50
102
RTVSPost2010PropOp46
 70
     1
102
RTVSPost2010Prop47
 90
       50
102
RTVSPost2010PropOp47
 70
     1
102
RTVSPost2010Prop48
 90
       50
102
RTVSPost2010PropOp48
 70
     1
102
RTVSPost2010Prop49
280
     0
102
RTVSPost2010PropOp49
 70
     1
102
RTVSPost2010Prop50
 90
       50
102
RTVSPost2010PropOp50
 70
     1
102
RTVSPost2010Prop51ColorIndex
 90
      256
102
RTVSPost2010Prop51ColorRGB
 90
-16777216
102
RTVSPost2010PropOp51
 70
     0
102
RTVSPost2010Prop52
140
1.0
102
RTVSPost2010PropOp52
 70
     0
102
RTVSPost2010Prop53
 90
        2
102
RTVSPost2010PropOp53
 70
     1
102
RTVSPost2010Prop54
  1
strokes_ogs.tif
102
RTVSPost2010PropOp54
 70
     1
102
RTVSPost2010Prop55
280
     0
102
RTVSPost2010PropOp55
 70
     1
102
RTVSPost2010Prop56
140
1.0
102
RTVSPost2010PropOp56
 70
     1
102
RTVSPost2010Prop57
140
1.0
102
RTVSPost2010PropOp57
 70
     1
  0
XRECORD
  5
2D1
102
{ACAD_REACTORS
330
2D0
102
}
330
2D0
100
AcDbXrecord
280
     1
102
RTVSPropertyOp0
 70
     1
102
RTVSPropertyOp1
 70
     1
102
RTVSPropertyOp2
 70
     1
102
RTVSPropertyOp3
 70
     1
102
RTVSPropertyOp4
 70
     1
102
RTVSPropertyOp5
 70
     1
102
RTVSPropertyOp6
 70
     1
102
RTVSPropertyOp7
 70
     1
102
RTVSPropertyOp8
 70
     1
102
RTVSPropertyOp9
 70
     1
102
RTVSPropertyOp10
 70
     1
102
RTVSPropertyOp11
 70
     1
102
RTVSPropertyOp12
 70
     1
102
RTVSPropertyOp13
 70
     1
102
RTVSPropertyOp14
 70
     1
102
RTVSPropertyOp15
 70
     1
102
RTVSPropertyOp16
 70
     1
102
RTVSPropertyOp17
 70
     1
102
RTVSPropertyOp18
 70
     1
102
RTVSPropertyOp19
 70
     1
102
RTVSPropertyOp20
 70
     1
102
RTVSPropertyOp21
 70
     1
102
RTVSPropertyOp22
 70
     1
102
RTVSPropertyOp23
 70
     1
102
RTVSPropertyOp24
 70
     1
102
RTVSPropertyOp25
 70
     1
102
RTVSPropertyOp26
 70
     1
102
RTVSPropertyOp27
 70
     1
102
RTVSPropertyOp28
 70
     1
102
RTVSPropertyOp29
 70
     1
102
RTVSPropertyOp30
 70
     1
102
RTVSPropertyOp31
 70
     1
102
RTVSPropertyOp32
 70
     1
102
RTVSPropertyOp33
 70
     1
102
RTVSPropertyOp34
 70
     1
102
RTVSPropertyOp35
 70
     1
102
RTVSPropertyOp36
 70
     1
102
RTVSPropertyOp37
 70
     1
102
RTVSPropertyOp38
 70
     1
102
RTVSPropertyOp39
 70
     1
102
RTVSPropertyOp40
 70
     1
102
RTVSPropertyOp41
 70
     1
102
RTVSPropertyOp42
 70
     1
102
RTVSPropertyOp43
 70
     1
102
RTVSPropertyOp44
 70
     1
102
RTVSPropertyOp45
 70
     1
102
RTVSPropertyOp46
 70
     1
102
RTVSPropertyOp47
 70
     1
102
RTVSPropertyOp48
 70
     1
102
RTVSPropertyOp49
 70
     1
102
RTVSPropertyOp50
 70
     1
102
RTVSPropertyOp51
 70
     0
102
RTVSPropertyOp52
 70
     0
102
RTVSPropertyOp53
 70
     1
102
RTVSPropertyOp54
 70
     1
102
RTVSPropertyOp55
 70
     1
102
RTVSPropertyOp56
 70
     1
102
RTVSPropertyOp57
 70
     1
102
RTVSPost2010Prop28
280
     0
102
RTVSPost2010PropOp28
 70
     1
102
RTVSPost2010Prop29
280
     1
102
RTVSPost2010PropOp29
 70
     1
102
RTVSPost2010Prop30
280
     1
102
RTVSPost2010PropOp30
 70
     1
102
RTVSPost2010Prop31
280
     0
102
RTVSPost2010PropOp31
 70
     1
102
RTVSPost2010Prop32
280
     0
102
RTVSPost2010PropOp32
 70
     1
102
RTVSPost2010Prop33
280
     0
102
RTVSPost2010PropOp33
 70
     1
102
RTVSPost2010Prop34
280
     0
102
RTVSPost2010PropOp34
 70
     1
102
RTVSPost2010Prop35
280
     0
102
RTVSPost2010PropOp35
 70
     1
102
RTVSPost2010Prop36
280
     0
102
RTVSPost2010PropOp36
 70
     1
102
RTVSPost2010Prop37
 90
       50
102
RTVSPost2010PropOp37
 70
     1
102
RTVSPost2010Prop38
140
0.0
102
RTVSPost2010PropOp38
 70
     1
102
RTVSPost2010Prop39
140
1.0
102
RTVSPost2010PropOp39
 70
     1
102
RTVSPost2010Prop40
 90
        0
102
RTVSPost2010PropOp40
 70
     1
102
RTVSPost2010Prop41ColorIndex
 90
       18
102
RTVSPost2010Prop41ColorRGB
 90
        0
102
RTVSPost2010PropOp41
 70
     1
102
RTVSPost2010Prop42
 90
       50
102
RTVSPost2010PropOp42
 70
     1
102
RTVSPost2010Prop43
 90
        3
102
RTVSPost2010PropOp43
 70
     1
102
RTVSPost2010Prop44ColorIndex
 90
        5
102
RTVSPost2010Prop44ColorRGB
 90
      255
102
RTVSPost2010PropOp44
 70
     1
102
RTVSPost2010Prop45
280
     0
102
RTVSPost2010PropOp45
 70
     1
102
RTVSPost2010Prop46
 90
       50
102
RTVSPost2010PropOp46
 70
     1
102
RTVSPost2010Prop47
 90
       50
102
RTVSPost2010PropOp47
 70
     1
102
RTVSPost2010Prop48
 90
       50
102
RTVSPost2010PropOp48
 70
     1
102
RTVSPost2010Prop49
280
     0
102
RTVSPost2010PropOp49
 70
     1
102
RTVSPost2010Prop50
 90
       50
102
RTVSPost2010PropOp50
 70
     1
102
RTVSPost2010Prop51ColorIndex
 90
      256
102
RTVSPost2010Prop51ColorRGB
 90
-16777216
102
RTVSPost2010PropOp51
 70
     0
102
RTVSPost2010Prop52
140
1.0
102
RTVSPost2010PropOp52
 70
     0
102
RTVSPost2010Prop53
 90
        2
102
RTVSPost2010PropOp53
 70
     1
102
RTVSPost2010Prop54
  1
strokes_ogs.tif
102
RTVSPost2010PropOp54
 70
     1
102
RTVSPost2010Prop55
280
     0
102
RTVSPost2010PropOp55
 70
     1
102
RTVSPost2010Prop56
140
1.0
102
RTVSPost2010PropOp56
 70
     1
102
RTVSPost2010Prop57
140
1.0
102
RTVSPost2010PropOp57
 70
     1
  0
XRECORD
  5
2C3
102
{ACAD_REACTORS
330
2C2
102
}
330
2C2
100
AcDbXrecord
280
     1
102
RTVSPropertyOp0
 70
     1
102
RTVSPropertyOp1
 70
     1
102
RTVSPropertyOp2
 70
     1
102
RTVSPropertyOp3
 70
     1
102
RTVSPropertyOp4
 70
     1
102
RTVSPropertyOp5
 70
     1
102
RTVSPropertyOp6
 70
     1
102
RTVSPropertyOp7
 70
     1
102
RTVSPropertyOp8
 70
     1
102
RTVSPropertyOp9
 70
     1
102
RTVSPropertyOp10
 70
     1
102
RTVSPropertyOp11
 70
     1
102
RTVSPropertyOp12
 70
     1
102
RTVSPropertyOp13
 70
     1
102
RTVSPropertyOp14
 70
     1
102
RTVSPropertyOp15
 70
     1
102
RTVSPropertyOp16
 70
     1
102
RTVSPropertyOp17
 70
     1
102
RTVSPropertyOp18
 70
     1
102
RTVSPropertyOp19
 70
     1
102
RTVSPropertyOp20
 70
     1
102
RTVSPropertyOp21
 70
     1
102
RTVSPropertyOp22
 70
     1
102
RTVSPropertyOp23
 70
     1
102
RTVSPropertyOp24
 70
     1
102
RTVSPropertyOp25
 70
     1
102
RTVSPropertyOp26
 70
     1
102
RTVSPropertyOp27
 70
     1
102
RTVSPropertyOp28
 70
     1
102
RTVSPropertyOp29
 70
     1
102
RTVSPropertyOp30
 70
     1
102
RTVSPropertyOp31
 70
     1
102
RTVSPropertyOp32
 70
     1
102
RTVSPropertyOp33
 70
     1
102
RTVSPropertyOp34
 70
     1
102
RTVSPropertyOp35
 70
     1
102
RTVSPropertyOp36
 70
     1
102
RTVSPropertyOp37
 70
     1
102
RTVSPropertyOp38
 70
     1
102
RTVSPropertyOp39
 70
     1
102
RTVSPropertyOp40
 70
     1
102
RTVSPropertyOp41
 70
     1
102
RTVSPropertyOp42
 70
     1
102
RTVSPropertyOp43
 70
     1
102
RTVSPropertyOp44
 70
     1
102
RTVSPropertyOp45
 70
     1
102
RTVSPropertyOp46
 70
     1
102
RTVSPropertyOp47
 70
     1
102
RTVSPropertyOp48
 70
     1
102
RTVSPropertyOp49
 70
     1
102
RTVSPropertyOp50
 70
     1
102
RTVSPropertyOp51
 70
     0
102
RTVSPropertyOp52
 70
     0
102
RTVSPropertyOp53
 70
     1
102
RTVSPropertyOp54
 70
     1
102
RTVSPropertyOp55
 70
     1
102
RTVSPropertyOp56
 70
     1
102
RTVSPropertyOp57
 70
     1
102
RTVSPost2010Prop28
280
     0
102
RTVSPost2010PropOp28
 70
     1
102
RTVSPost2010Prop29
280
     1
102
RTVSPost2010PropOp29
 70
     1
102
RTVSPost2010Prop30
280
     1
102
RTVSPost2010PropOp30
 70
     1
102
RTVSPost2010Prop31
280
     0
102
RTVSPost2010PropOp31
 70
     1
102
RTVSPost2010Prop32
280
     0
102
RTVSPost2010PropOp32
 70
     1
102
RTVSPost2010Prop33
280
     0
102
RTVSPost2010PropOp33
 70
     1
102
RTVSPost2010Prop34
280
     0
102
RTVSPost2010PropOp34
 70
     1
102
RTVSPost2010Prop35
280
     0
102
RTVSPost2010PropOp35
 70
     1
102
RTVSPost2010Prop36
280
     0
102
RTVSPost2010PropOp36
 70
     1
102
RTVSPost2010Prop37
 90
       50
102
RTVSPost2010PropOp37
 70
     1
102
RTVSPost2010Prop38
140
0.0
102
RTVSPost2010PropOp38
 70
     1
102
RTVSPost2010Prop39
140
1.0
102
RTVSPost2010PropOp39
 70
     1
102
RTVSPost2010Prop40
 90
        0
102
RTVSPost2010PropOp40
 70
     1
102
RTVSPost2010Prop41ColorIndex
 90
       18
102
RTVSPost2010Prop41ColorRGB
 90
        0
102
RTVSPost2010PropOp41
 70
     1
102
RTVSPost2010Prop42
 90
       50
102
RTVSPost2010PropOp42
 70
     1
102
RTVSPost2010Prop43
 90
        3
102
RTVSPost2010PropOp43
 70
     1
102
RTVSPost2010Prop44ColorIndex
 90
        5
102
RTVSPost2010Prop44ColorRGB
 90
      255
102
RTVSPost2010PropOp44
 70
     1
102
RTVSPost2010Prop45
280
     0
102
RTVSPost2010PropOp45
 70
     1
102
RTVSPost2010Prop46
 90
       50
102
RTVSPost2010PropOp46
 70
     1
102
RTVSPost2010Prop47
 90
       50
102
RTVSPost2010PropOp47
 70
     1
102
RTVSPost2010Prop48
 90
       50
102
RTVSPost2010PropOp48
 70
     1
102
RTVSPost2010Prop49
280
     0
102
RTVSPost2010PropOp49
 70
     1
102
RTVSPost2010Prop50
 90
       50
102
RTVSPost2010PropOp50
 70
     1
102
RTVSPost2010Prop51ColorIndex
 90
      256
102
RTVSPost2010Prop51ColorRGB
 90
-16777216
102
RTVSPost2010PropOp51
 70
     0
102
RTVSPost2010Prop52
140
1.0
102
RTVSPost2010PropOp52
 70
     0
102
RTVSPost2010Prop53
 90
        2
102
RTVSPost2010PropOp53
 70
     1
102
RTVSPost2010Prop54
  1
strokes_ogs.tif
102
RTVSPost2010PropOp54
 70
     1
102
RTVSPost2010Prop55
280
     0
102
RTVSPost2010PropOp55
 70
     1
102
RTVSPost2010Prop56
140
1.0
102
RTVSPost2010PropOp56
 70
     1
102
RTVSPost2010Prop57
140
1.0
102
RTVSPost2010PropOp57
 70
     1
  0
XRECORD
  5
2E3
102
{ACAD_REACTORS
330
2E2
102
}
330
2E2
100
AcDbXrecord
280
     1
102
RTVSPropertyOp0
 70
     1
102
RTVSPropertyOp1
 70
     1
102
RTVSPropertyOp2
 70
     1
102
RTVSPropertyOp3
 70
     1
102
RTVSPropertyOp4
 70
     1
102
RTVSPropertyOp5
 70
     1
102
RTVSPropertyOp6
 70
     1
102
RTVSPropertyOp7
 70
     1
102
RTVSPropertyOp8
 70
     1
102
RTVSPropertyOp9
 70
     1
102
RTVSPropertyOp10
 70
     1
102
RTVSPropertyOp11
 70
     1
102
RTVSPropertyOp12
 70
     1
102
RTVSPropertyOp13
 70
     1
102
RTVSPropertyOp14
 70
     1
102
RTVSPropertyOp15
 70
     1
102
RTVSPropertyOp16
 70
     1
102
RTVSPropertyOp17
 70
     1
102
RTVSPropertyOp18
 70
     1
102
RTVSPropertyOp19
 70
     1
102
RTVSPropertyOp20
 70
     1
102
RTVSPropertyOp21
 70
     1
102
RTVSPropertyOp22
 70
     1
102
RTVSPropertyOp23
 70
     1
102
RTVSPropertyOp24
 70
     1
102
RTVSPropertyOp25
 70
     1
102
RTVSPropertyOp26
 70
     1
102
RTVSPropertyOp27
 70
     1
102
RTVSPropertyOp28
 70
     1
102
RTVSPropertyOp29
 70
     1
102
RTVSPropertyOp30
 70
     1
102
RTVSPropertyOp31
 70
     1
102
RTVSPropertyOp32
 70
     1
102
RTVSPropertyOp33
 70
     1
102
RTVSPropertyOp34
 70
     1
102
RTVSPropertyOp35
 70
     1
102
RTVSPropertyOp36
 70
     1
102
RTVSPropertyOp37
 70
     1
102
RTVSPropertyOp38
 70
     1
102
RTVSPropertyOp39
 70
     1
102
RTVSPropertyOp40
 70
     1
102
RTVSPropertyOp41
 70
     1
102
RTVSPropertyOp42
 70
     1
102
RTVSPropertyOp43
 70
     1
102
RTVSPropertyOp44
 70
     1
102
RTVSPropertyOp45
 70
     1
102
RTVSPropertyOp46
 70
     1
102
RTVSPropertyOp47
 70
     1
102
RTVSPropertyOp48
 70
     1
102
RTVSPropertyOp49
 70
     1
102
RTVSPropertyOp50
 70
     1
102
RTVSPropertyOp51
 70
     0
102
RTVSPropertyOp52
 70
     0
102
RTVSPropertyOp53
 70
     1
102
RTVSPropertyOp54
 70
     1
102
RTVSPropertyOp55
 70
     1
102
RTVSPropertyOp56
 70
     1
102
RTVSPropertyOp57
 70
     1
102
RTVSPost2010Prop28
280
     0
102
RTVSPost2010PropOp28
 70
     1
102
RTVSPost2010Prop29
280
     1
102
RTVSPost2010PropOp29
 70
     1
102
RTVSPost2010Prop30
280
     1
102
RTVSPost2010PropOp30
 70
     1
102
RTVSPost2010Prop31
280
     0
102
RTVSPost2010PropOp31
 70
     1
102
RTVSPost2010Prop32
280
     0
102
RTVSPost2010PropOp32
 70
     1
102
RTVSPost2010Prop33
280
     0
102
RTVSPost2010PropOp33
 70
     1
102
RTVSPost2010Prop34
280
     0
102
RTVSPost2010PropOp34
 70
     1
102
RTVSPost2010Prop35
280
     0
102
RTVSPost2010PropOp35
 70
     1
102
RTVSPost2010Prop36
280
     0
102
RTVSPost2010PropOp36
 70
     1
102
RTVSPost2010Prop37
 90
       50
102
RTVSPost2010PropOp37
 70
     1
102
RTVSPost2010Prop38
140
0.0
102
RTVSPost2010PropOp38
 70
     1
102
RTVSPost2010Prop39
140
1.0
102
RTVSPost2010PropOp39
 70
     1
102
RTVSPost2010Prop40
 90
        0
102
RTVSPost2010PropOp40
 70
     1
102
RTVSPost2010Prop41ColorIndex
 90
       18
102
RTVSPost2010Prop41ColorRGB
 90
        0
102
RTVSPost2010PropOp41
 70
     1
102
RTVSPost2010Prop42
 90
       50
102
RTVSPost2010PropOp42
 70
     1
102
RTVSPost2010Prop43
 90
        3
102
RTVSPost2010PropOp43
 70
     1
102
RTVSPost2010Prop44ColorIndex
 90
        5
102
RTVSPost2010Prop44ColorRGB
 90
      255
102
RTVSPost2010PropOp44
 70
     1
102
RTVSPost2010Prop45
280
     0
102
RTVSPost2010PropOp45
 70
     1
102
RTVSPost2010Prop46
 90
       50
102
RTVSPost2010PropOp46
 70
     1
102
RTVSPost2010Prop47
 90
       50
102
RTVSPost2010PropOp47
 70
     1
102
RTVSPost2010Prop48
 90
       50
102
RTVSPost2010PropOp48
 70
     1
102
RTVSPost2010Prop49
280
     0
102
RTVSPost2010PropOp49
 70
     1
102
RTVSPost2010Prop50
 90
       50
102
RTVSPost2010PropOp50
 70
     1
102
RTVSPost2010Prop51ColorIndex
 90
      256
102
RTVSPost2010Prop51ColorRGB
 90
-16777216
102
RTVSPost2010PropOp51
 70
     0
102
RTVSPost2010Prop52
140
1.0
102
RTVSPost2010PropOp52
 70
     0
102
RTVSPost2010Prop53
 90
        2
102
RTVSPost2010PropOp53
 70
     1
102
RTVSPost2010Prop54
  1
strokes_ogs.tif
102
RTVSPost2010PropOp54
 70
     1
102
RTVSPost2010Prop55
280
     0
102
RTVSPost2010PropOp55
 70
     1
102
RTVSPost2010Prop56
140
1.0
102
RTVSPost2010PropOp56
 70
     1
102
RTVSPost2010Prop57
140
1.0
102
RTVSPost2010PropOp57
 70
     1
  0
ENDSEC
  0
EOF
