  0
SECTION
  2
HEADER
  9
$ACADVER
  1
AC1021
  9
$ACADMAINTVER
 70
    25
  9
$DWGCODEPAGE
  3
ANSI_1252
  9
$INSBASE
 10
0.0
 20
0.0
 30
0.0
  9
$EXTMIN
 10
1.000000000000000E+20
 20
1.000000000000000E+20
 30
1.000000000000000E+20
  9
$EXTMAX
 10
-1.000000000000000E+20
 20
-1.000000000000000E+20
 30
-1.000000000000000E+20
  9
$LIMMIN
 10
0.0
 20
0.0
  9
$LIMMAX
 10
12.0
 20
9.0
  9
$ORTHOMODE
 70
     0
  9
$REGENMODE
 70
     1
  9
$FILLMODE
 70
     1
  9
$QTEXTMODE
 70
     0
  9
$MIRRTEXT
 70
     1
  9
$LTSCALE
 40
1.0
  9
$ATTMODE
 70
     1
  9
$TEXTSIZE
 40
0.2
  9
$TRACEWID
 40
0.05
  9
$TEXTSTYLE
  7
Standard
  9
$CLAYER
  8
Modulos
  9
$CELTYPE
  6
ByLayer
  9
$CECOLOR
 62
   256
  9
$CELTSCALE
 40
1.0
  9
$DISPSILH
 70
     0
  9
$DIMSCALE
 40
1.0
  9
$DIMASZ
 40
0.18
  9
$DIMEXO
 40
0.0625
  9
$DIMDLI
 40
0.38
  9
$DIMRND
 40
0.0
  9
$DIMDLE
 40
0.0
  9
$DIMEXE
 40
0.18
  9
$DIMTP
 40
0.0
  9
$DIMTM
 40
0.0
  9
$DIMTXT
 40
0.18
  9
$DIMCEN
 40
0.09
  9
$DIMTSZ
 40
0.0
  9
$DIMTOL
 70
     0
  9
$DIMLIM
 70
     0
  9
$DIMTIH
 70
     1
  9
$DIMTOH
 70
     1
  9
$DIMSE1
 70
     0
  9
$DIMSE2
 70
     0
  9
$DIMTAD
 70
     0
  9
$DIMZIN
 70
     0
  9
$DIMBLK
  1

  9
$DIMASO
 70
     1
  9
$DIMSHO
 70
     1
  9
$DIMPOST
  1

  9
$DIMAPOST
  1

  9
$DIMALT
 70
     0
  9
$DIMALTD
 70
     2
  9
$DIMALTF
 40
25.4
  9
$DIMLFAC
 40
1.0
  9
$DIMTOFL
 70
     0
  9
$DIMTVP
 40
0.0
  9
$DIMTIX
 70
     0
  9
$DIMSOXD
 70
     0
  9
$DIMSAH
 70
     0
  9
$DIMBLK1
  1

  9
$DIMBLK2
  1

  9
$DIMSTYLE
  2
STANDARD_ACAD
  9
$DIMCLRD
 70
     0
  9
$DIMCLRE
 70
     0
  9
$DIMCLRT
 70
     0
  9
$DIMTFAC
 40
1.0
  9
$DIMGAP
 40
0.09
  9
$DIMJUST
 70
     0
  9
$DIMSD1
 70
     0
  9
$DIMSD2
 70
     0
  9
$DIMTOLJ
 70
     1
  9
$DIMTZIN
 70
     0
  9
$DIMALTZ
 70
     0
  9
$DIMALTTZ
 70
     0
  9
$DIMUPT
 70
     0
  9
$DIMDEC
 70
     4
  9
$DIMTDEC
 70
     4
  9
$DIMALTU
 70
     2
  9
$DIMALTTD
 70
     2
  9
$DIMTXSTY
  7
Standard
  9
$DIMAUNIT
 70
     0
  9
$DIMADEC
 70
     0
  9
$DIMALTRND
 40
0.0
  9
$DIMAZIN
 70
     0
  9
$DIMDSEP
 70
    46
  9
$DIMATFIT
 70
     3
  9
$DIMFRAC
 70
     0
  9
$DIMLDRBLK
  1

  9
$DIMLUNIT
 70
     2
  9
$DIMLWD
 70
    -2
  9
$DIMLWE
 70
    -2
  9
$DIMTMOVE
 70
     2
  9
$DIMFXL
 40
1.0
  9
$DIMFXLON
 70
     0
  9
$DIMJOGANG
 40
0.7853981633974483
  9
$DIMTFILL
 70
     0
  9
$DIMTFILLCLR
 70
     0
  9
$DIMARCSYM
 70
     0
  9
$DIMLTYPE
  6

  9
$DIMLTEX1
  6

  9
$DIMLTEX2
  6

  9
$LUNITS
 70
     2
  9
$LUPREC
 70
     3
  9
$SKETCHINC
 40
0.1
  9
$FILLETRAD
 40
0.5
  9
$AUNITS
 70
     0
  9
$AUPREC
 70
     0
  9
$MENU
  1
.
  9
$ELEVATION
 40
0.0
  9
$PELEVATION
 40
0.0
  9
$THICKNESS
 40
0.0
  9
$LIMCHECK
 70
     0
  9
$CHAMFERA
 40
0.0
  9
$CHAMFERB
 40
0.0
  9
$CHAMFERC
 40
0.0
  9
$CHAMFERD
 40
0.0
  9
$SKPOLY
 70
     0
  9
$TDCREATE
 40
2459133.513197535
  9
$TDUCREATE
 40
2459133.638197535
  9
$TDUPDATE
 40
2459133.513271632
  9
$TDUUPDATE
 40
2459133.638271632
  9
$TDINDWG
 40
0.0000000116
  9
$TDUSRTIMER
 40
0.0000000116
  9
$USRTIMER
 70
     1
  9
$ANGBASE
 50
0.0
  9
$ANGDIR
 70
     0
  9
$PDMODE
 70
     0
  9
$PDSIZE
 40
0.0
  9
$PLINEWID
 40
0.0
  9
$SPLFRAME
 70
     0
  9
$SPLINETYPE
 70
     6
  9
$SPLINESEGS
 70
     8
  9
$HANDSEED
  5
392
  9
$SURFTAB1
 70
     6
  9
$SURFTAB2
 70
     6
  9
$SURFTYPE
 70
     6
  9
$SURFU
 70
     6
  9
$SURFV
 70
     6
  9
$UCSBASE
  2

  9
$UCSNAME
  2

  9
$UCSORG
 10
0.0
 20
0.0
 30
0.0
  9
$UCSXDIR
 10
1.0
 20
0.0
 30
0.0
  9
$UCSYDIR
 10
0.0
 20
1.0
 30
0.0
  9
$UCSORTHOREF
  2

  9
$UCSORTHOVIEW
 70
     0
  9
$UCSORGTOP
 10
0.0
 20
0.0
 30
0.0
  9
$UCSORGBOTTOM
 10
0.0
 20
0.0
 30
0.0
  9
$UCSORGLEFT
 10
0.0
 20
0.0
 30
0.0
  9
$UCSORGRIGHT
 10
0.0
 20
0.0
 30
0.0
  9
$UCSORGFRONT
 10
0.0
 20
0.0
 30
0.0
  9
$UCSORGBACK
 10
0.0
 20
0.0
 30
0.0
  9
$PUCSBASE
  2

  9
$PUCSNAME
  2

  9
$PUCSORG
 10
0.0
 20
0.0
 30
0.0
  9
$PUCSXDIR
 10
1.0
 20
0.0
 30
0.0
  9
$PUCSYDIR
 10
0.0
 20
1.0
 30
0.0
  9
$PUCSORTHOREF
  2

  9
$PUCSORTHOVIEW
 70
     0
  9
$PUCSORGTOP
 10
0.0
 20
0.0
 30
0.0
  9
$PUCSORGBOTTOM
 10
0.0
 20
0.0
 30
0.0
  9
$PUCSORGLEFT
 10
0.0
 20
0.0
 30
0.0
  9
$PUCSORGRIGHT
 10
0.0
 20
0.0
 30
0.0
  9
$PUCSORGFRONT
 10
0.0
 20
0.0
 30
0.0
  9
$PUCSORGBACK
 10
0.0
 20
0.0
 30
0.0
  9
$USERI1
 70
     0
  9
$USERI2
 70
     0
  9
$USERI3
 70
     0
  9
$USERI4
 70
     0
  9
$USERI5
 70
     0
  9
$USERR1
 40
0.0
  9
$USERR2
 40
0.0
  9
$USERR3
 40
0.0
  9
$USERR4
 40
0.0
  9
$USERR5
 40
0.0
  9
$WORLDVIEW
 70
     1
  9
$SHADEDGE
 70
     3
  9
$SHADEDIF
 70
    70
  9
$TILEMODE
 70
     1
  9
$MAXACTVP
 70
    64
  9
$PINSBASE
 10
0.0
 20
0.0
 30
0.0
  9
$PLIMCHECK
 70
     0
  9
$PEXTMIN
 10
1.000000000000000E+20
 20
1.000000000000000E+20
 30
1.000000000000000E+20
  9
$PEXTMAX
 10
-1.000000000000000E+20
 20
-1.000000000000000E+20
 30
-1.000000000000000E+20
  9
$PLIMMIN
 10
0.0
 20
0.0
  9
$PLIMMAX
 10
12.0
 20
9.0
  9
$UNITMODE
 70
     0
  9
$VISRETAIN
 70
     1
  9
$PLINEGEN
 70
     0
  9
$PSLTSCALE
 70
     1
  9
$TREEDEPTH
 70
  3020
  9
$CMLSTYLE
  2
Standard
  9
$CMLJUST
 70
     0
  9
$CMLSCALE
 40
1.0
  9
$PROXYGRAPHICS
 70
     1
  9
$MEASUREMENT
 70
     1
  9
$CELWEIGHT
370
    -1
  9
$ENDCAPS
280
     0
  9
$JOINSTYLE
280
     0
  9
$LWDISPLAY
290
     0
  9
$INSUNITS
 70
     4
  9
$HYPERLINKBASE
  1

  9
$STYLESHEET
  1

  9
$XEDIT
290
     1
  9
$CEPSNTYPE
380
     0
  9
$PSTYLEMODE
290
     1
  9
$FINGERPRINTGUID
  2
{0279de21-e1b8-a84f-921d-a79c7a2c692e}
  9
$VERSIONGUID
  2
{FAEB1C32-E019-11D5-929B-00C0DF256EC4}
  9
$EXTNAMES
290
     1
  9
$PSVPSCALE
 40
0.0
  9
$OLESTARTUP
290
     0
  9
$SORTENTS
280
   127
  9
$INDEXCTL
280
     0
  9
$HIDETEXT
280
     1
  9
$XCLIPFRAME
290
     0
  9
$HALOGAP
280
     0
  9
$OBSCOLOR
 70
   257
  9
$OBSLTYPE
280
     0
  9
$INTERSECTIONDISPLAY
280
     0
  9
$INTERSECTIONCOLOR
 70
   257
  9
$DIMASSOC
280
     2
  9
$PROJECTNAME
  1

  9
$CAMERADISPLAY
290
     0
  9
$LENSLENGTH
 40
50.0
  9
$CAMERAHEIGHT
 40
0.0
  9
$STEPSPERSEC
 40
2.0
  9
$STEPSIZE
 40
6.0
  9
$3DDWFPREC
 40
2.0
  9
$PSOLWIDTH
 40
0.25
  9
$PSOLHEIGHT
 40
4.0
  9
$LOFTANG1
 40
1.570796326794897
  9
$LOFTANG2
 40
1.570796326794897
  9
$LOFTMAG1
 40
0.0
  9
$LOFTMAG2
 40
0.0
  9
$LOFTPARAM
 70
     7
  9
$LOFTNORMALS
280
     1
  9
$LATITUDE
 40
37.795
  9
$LONGITUDE
 40
-122.394
  9
$NORTHDIRECTION
 40
0.0
  9
$TIMEZONE
 70
 -8000
  9
$LIGHTGLYPHDISPLAY
280
     1
  9
$TILEMODELIGHTSYNCH
280
     1
  9
$CMATERIAL
347
44
  9
$SOLIDHIST
280
     0
  9
$SHOWHIST
280
     1
  9
$DWFFRAME
280
     2
  9
$DGNFRAME
280
     2
  9
$REALWORLDSCALE
290
     1
  9
$INTERFERECOLOR
 62
   256
  9
$CSHADOW
280
     0
  9
$SHADOWPLANELOCATION
 40
0.0
  0
ENDSEC
  0
SECTION
  2
CLASSES
  0
CLASS
  1
ACDBDICTIONARYWDFLT
  2
AcDbDictionaryWithDefault
  3
ObjectDBX Classes
 90
        0
 91
        3
280
     0
281
     0
  0
CLASS
  1
VISUALSTYLE
  2
AcDbVisualStyle
  3
ObjectDBX Classes
 90
     4095
 91
        3
280
     0
281
     0
  0
CLASS
  1
MATERIAL
  2
AcDbMaterial
  3
ObjectDBX Classes
 90
     1153
 91
        3
280
     0
281
     0
  0
CLASS
  1
SCALE
  2
AcDbScale
  3
ObjectDBX Classes
 90
     1153
 91
        3
280
     0
281
     0
  0
CLASS
  1
TABLESTYLE
  2
AcDbTableStyle
  3
ObjectDBX Classes
 90
     4095
 91
        3
280
     0
281
     0
  0
CLASS
  1
MLEADERSTYLE
  2
AcDbMLeaderStyle
  3
ACDB_MLEADERSTYLE_CLASS
 90
     4095
 91
        3
280
     0
281
     0
  0
CLASS
  1
SUN
  2
AcDbSun
  3
SCENEOE
 90
     1153
 91
        3
280
     0
281
     0
  0
CLASS
  1
DICTIONARYVAR
  2
AcDbDictionaryVar
  3
ObjectDBX Classes
 90
        0
 91
        3
280
     0
281
     0
  0
CLASS
  1
CELLSTYLEMAP
  2
AcDbCellStyleMap
  3
ObjectDBX Classes
 90
     1152
 91
        3
280
     0
281
     0
  0
ENDSEC
  0
SECTION
  2
TABLES
  0
TABLE
  2
VPORT
  5
8
330
0
100
AcDbSymbolTable
 70
     1
  0
VPORT
  5
29
330
8
100
AcDbSymbolTableRecord
100
AcDbViewportTableRecord
  2
*Active
 70
     0
 10
0.0
 20
0.0
 11
1.0
 21
1.0
 12
10.42990654205607
 22
4.5
 13
0.0
 23
0.0
 14
0.5
 24
0.5
 15
0.5
 25
0.5
 16
0.0
 26
0.0
 36
1.0
 17
0.0
 27
0.0
 37
0.0
 40
9.0
 41
1.972972972850329
 42
50.0
 43
0.0
 44
0.0
 50
0.0
 51
0.0
 71
     0
 72
   100
 73
     1
 74
     3
 75
     0
 76
     0
 77
     0
 78
     0
281
     0
 65
     1
110
0.0
120
0.0
130
0.0
111
1.0
121
0.0
131
0.0
112
0.0
122
1.0
132
0.0
 79
     0
146
0.0
348
2F
 60
     3
 61
     5
292
     1
282
     1
141
0.0
142
0.0
 63
   250
361
6D
  0
ENDTAB
  0
TABLE
  2
LTYPE
  5
5
330
0
100
AcDbSymbolTable
 70
     1
  0
LTYPE
  5
14
330
5
100
AcDbSymbolTableRecord
100
AcDbLinetypeTableRecord
  2
ByBlock
 70
     0
  3

 72
    65
 73
     0
 40
0.0
  0
LTYPE
  5
15
330
5
100
AcDbSymbolTableRecord
100
AcDbLinetypeTableRecord
  2
ByLayer
 70
     0
  3

 72
    65
 73
     0
 40
0.0
  0
LTYPE
  5
16
330
5
100
AcDbSymbolTableRecord
100
AcDbLinetypeTableRecord
  2
Continuous
 70
     0
  3
Solid line
 72
    65
 73
     0
 40
0.0
  0
ENDTAB
  0
TABLE
  2
LAYER
  5
2
330
0
100
AcDbSymbolTable
 70
     3
  0
LAYER
  5
10
330
2
100
AcDbSymbolTableRecord
100
AcDbLayerTableRecord
  2
0
 70
     0
 62
     7
  6
Continuous
370
    -3
390
F
347
46
  0
LAYER
  5
6E
330
2
100
AcDbSymbolTableRecord
100
AcDbLayerTableRecord
  2
Modulos
 70
     0
 62
   178
420
        0
  6
Continuous
370
    -3
390
F
347
46
  0
LAYER
  5
BE
330
2
100
AcDbSymbolTableRecord
100
AcDbLayerTableRecord
  2
Tamaño pieza cuero
 70
     0
 62
    12
420
 13107200
  6
Continuous
370
    -3
390
F
347
46
  0
ENDTAB
  0
TABLE
  2
STYLE
  5
3
330
0
100
AcDbSymbolTable
 70
     1
  0
STYLE
  5
11
330
3
100
AcDbSymbolTableRecord
100
AcDbTextStyleTableRecord
  2
Standard
 70
     0
 40
0.0
 41
1.0
 50
0.0
 71
     0
 42
0.2
  3
txt
  4

  0
ENDTAB
  0
TABLE
  2
VIEW
  5
6
330
0
100
AcDbSymbolTable
 70
     0
  0
ENDTAB
  0
TABLE
  2
UCS
  5
7
330
0
100
AcDbSymbolTable
 70
     0
  0
ENDTAB
  0
TABLE
  2
APPID
  5
9
330
0
100
AcDbSymbolTable
 70
     2
  0
APPID
  5
12
330
9
100
AcDbSymbolTableRecord
100
AcDbRegAppTableRecord
  2
ACAD
 70
     0
  0
APPID
  5
38A
330
9
100
AcDbSymbolTableRecord
100
AcDbRegAppTableRecord
  2
ACAD_MLEADERVER
 70
     0
  0
ENDTAB
  0
TABLE
  2
DIMSTYLE
  5
A
330
0
100
AcDbSymbolTable
 70
     1
100
AcDbDimStyleTable
  0
DIMSTYLE
105
27
330
A
100
AcDbSymbolTableRecord
100
AcDbDimStyleTableRecord
  2
STANDARD_ACAD
 70
     0
178
     0
340
11
  0
ENDTAB
  0
TABLE
  2
BLOCK_RECORD
  5
1
330
0
100
AcDbSymbolTable
 70
     1
  0
BLOCK_RECORD
  5
1F
330
1
100
AcDbSymbolTableRecord
100
AcDbBlockTableRecord
  2
*Model_Space
340
22
 70
     0
280
     1
281
     0
  0
BLOCK_RECORD
  5
1B
330
1
100
AcDbSymbolTableRecord
100
AcDbBlockTableRecord
  2
*Paper_Space
340
1E
 70
     0
280
     1
281
     0
  0
BLOCK_RECORD
  5
23
330
1
100
AcDbSymbolTableRecord
100
AcDbBlockTableRecord
  2
*Paper_Space0
340
26
 70
     0
280
     1
281
     0
  0
ENDTAB
  0
ENDSEC
  0
SECTION
  2
BLOCKS
  0
BLOCK
  5
20
330
1F
100
AcDbEntity
  8
0
100
AcDbBlockBegin
  2
*Model_Space
 70
     0
 10
0.0
 20
0.0
 30
0.0
  3
*Model_Space
  1

  0
ENDBLK
  5
21
330
1F
100
AcDbEntity
  8
0
100
AcDbBlockEnd
  0
BLOCK
  5
1C
330
1B
100
AcDbEntity
 67
     1
  8
0
100
AcDbBlockBegin
  2
*Paper_Space
 70
     0
 10
0.0
 20
0.0
 30
0.0
  3
*Paper_Space
  1

  0
ENDBLK
  5
1D
330
1B
100
AcDbEntity
 67
     1
  8
0
100
AcDbBlockEnd
  0
BLOCK
  5
24
330
23
100
AcDbEntity
  8
0
100
AcDbBlockBegin
  2
*Paper_Space0
 70
     0
 10
0.0
 20
0.0
 30
0.0
  3
*Paper_Space0
  1

  0
ENDBLK
  5
25
330
23
100
AcDbEntity
  8
0
100
AcDbBlockEnd
  0
ENDSEC
  0
SECTION
  2
ENTITIES
  0
SPLINE
  5
6F
330
1F
100
AcDbEntity
  8
Modulos
100
AcDbSpline
210
0.0
220
0.0
230
1.0
 70
    24
 71
     2
 72
     6
 73
     3
 74
     0
 42
0.000000001
 43
0.0000000001
 40
-49.0
 40
-49.0
 40
-49.0
 40
-48.0
 40
-48.0
 40
-48.0
 10
48.6809126670698
 20
-136.0266250713106
 30
0.0
 10
48.6809126670698
 20
-137.0350284326551
 30
0.0
 10
48.6809126670698
 20
-138.0434317939997
 30
0.0
  0
SPLINE
  5
70
330
1F
100
AcDbEntity
  8
Modulos
100
AcDbSpline
210
0.0
220
0.0
230
1.0
 70
     8
 71
     2
 72
    26
 73
    23
 74
     0
 42
0.000000001
 43
0.0000000001
 40
-48.0
 40
-48.0
 40
-48.0
 40
-47.0
 40
-47.0
 40
-46.0
 40
-46.0
 40
-45.0
 40
-45.0
 40
-44.0
 40
-44.0
 40
-43.0
 40
-43.0
 40
-42.0
 40
-42.0
 40
-41.0
 40
-41.0
 40
-40.0
 40
-40.0
 40
-39.0
 40
-39.0
 40
-38.0
 40
-38.0
 40
-37.0
 40
-37.0
 40
-37.0
 10
48.6809126670698
 20
-138.0434317939997
 30
0.0
 10
49.35318157463283
 20
-137.9593981805543
 30
0.0
 10
50.10948409564122
 20
-137.9593981805543
 30
0.0
 10
51.0058426390586
 20
-137.9593981805543
 30
0.0
 10
51.77615076230789
 20
-138.1974934186495
 30
0.0
 10
52.5464588855572
 20
-138.4355886567448
 30
0.0
 10
53.10668297519305
 20
-138.9257847351761
 30
0.0
 10
53.66690706482891
 20
-139.4159808136075
 30
0.0
 10
54.00304151861042
 20
-140.1302665278932
 30
0.0
 10
54.33917597239193
 20
-140.8445522421789
 30
0.0
 10
54.33917597239193
 20
-141.7689219900781
 30
0.0
 10
54.33917597239193
 20
-142.6652805334955
 30
0.0
 10
53.98903591636952
 20
-143.3795662477812
 30
0.0
 10
53.63889586034711
 20
-144.0938519620669
 30
0.0
 10
53.05066056622947
 20
-144.5840480404983
 30
0.0
 10
52.46242527211182
 20
-145.0742441189296
 30
0.0
 10
51.67811154662162
 20
-145.3403505615067
 30
0.0
 10
50.89379782113143
 20
-145.6064570040837
 30
0.0
 10
50.02545048219585
 20
-145.6064570040837
 30
0.0
 10
47.98063255502498
 20
-145.6064570040837
 30
0.0
 10
46.91620678471686
 20
-144.3879696091257
 30
0.0
 10
45.85178101440873
 20
-143.1694822141677
 30
0.0
 10
45.79575860544514
 20
-141.236709104924
 30
0.0
  0
SPLINE
  5
71
330
1F
100
AcDbEntity
  8
Modulos
100
AcDbSpline
210
0.0
220
0.0
230
1.0
 70
    24
 71
     2
 72
     6
 73
     3
 74
     0
 42
0.000000001
 43
0.0000000001
 40
-37.0
 40
-37.0
 40
-37.0
 40
-36.0
 40
-36.0
 40
-36.0
 10
45.79575860544514
 20
-141.236709104924
 30
0.0
 10
44.60528241496895
 20
-141.236709104924
 30
0.0
 10
43.41480622449276
 20
-141.236709104924
 30
0.0
  0
SPLINE
  5
72
330
1F
100
AcDbEntity
  8
Modulos
100
AcDbSpline
210
0.0
220
0.0
230
1.0
 70
     8
 71
     2
 72
    24
 73
    21
 74
     0
 42
0.000000001
 43
0.0000000001
 40
-36.0
 40
-36.0
 40
-36.0
 40
-35.0
 40
-35.0
 40
-34.0
 40
-34.0
 40
-33.0
 40
-33.0
 40
-32.0
 40
-32.0
 40
-31.0
 40
-31.0
 40
-30.0
 40
-30.0
 40
-29.0
 40
-29.0
 40
-28.0
 40
-28.0
 40
-27.0
 40
-27.0
 40
-26.0
 40
-26.0
 40
-26.0
 10
43.41480622449276
 20
-141.236709104924
 30
0.0
 10
43.38679502001098
 20
-142.7773253514226
 30
0.0
 10
43.84897989396056
 20
-143.9818071441397
 30
0.0
 10
44.31116476791013
 20
-145.1862889368568
 30
0.0
 10
45.17951210684571
 20
-146.0126194690697
 30
0.0
 10
46.04785944578128
 20
-146.8389500012826
 30
0.0
 10
47.28035244298016
 20
-147.2591180685095
 30
0.0
 10
48.51284544017903
 20
-147.6792861357364
 30
0.0
 10
50.02545048219585
 20
-147.6792861357364
 30
0.0
 10
51.42601070628548
 20
-147.6792861357364
 30
0.0
 10
52.67250930572526
 20
-147.3011348752322
 30
0.0
 10
53.91900790516503
 20
-146.922983614728
 30
0.0
 10
54.84337765306419
 20
-146.1666810937196
 30
0.0
 10
55.76774740096336
 20
-145.4103785727112
 30
0.0
 10
56.31396588835831
 20
-144.2759247911985
 30
0.0
 10
56.86018437575328
 20
-143.1414710096859
 30
0.0
 10
56.86018437575328
 20
-141.6568771721509
 30
0.0
 10
56.86018437575328
 20
-139.8641600853162
 30
0.0
 10
55.9778314345768
 20
-138.547633474672
 30
0.0
 10
55.09547849340034
 20
-137.2311068640277
 30
0.0
 10
53.27475020208381
 20
-136.8389500012826
 30
0.0
  0
SPLINE
  5
73
330
1F
100
AcDbEntity
  8
Modulos
100
AcDbSpline
210
0.0
220
0.0
230
1.0
 70
    24
 71
     2
 72
     6
 73
     3
 74
     0
 42
0.000000001
 43
0.0000000001
 40
-26.0
 40
-26.0
 40
-26.0
 40
-25.0
 40
-25.0
 40
-25.0
 10
53.27475020208381
 20
-136.8389500012826
 30
0.0
 10
53.27475020208381
 20
-136.8109387968008
 30
0.0
 10
53.27475020208381
 20
-136.782927592319
 30
0.0
  0
SPLINE
  5
74
330
1F
100
AcDbEntity
  8
Modulos
100
AcDbSpline
210
0.0
220
0.0
230
1.0
 70
     8
 71
     2
 72
    24
 73
    21
 74
     0
 42
0.000000001
 43
0.0000000001
 40
-25.0
 40
-25.0
 40
-25.0
 40
-24.0
 40
-24.0
 40
-23.0
 40
-23.0
 40
-22.0
 40
-22.0
 40
-21.0
 40
-21.0
 40
-20.0
 40
-20.0
 40
-19.0
 40
-19.0
 40
-18.0
 40
-18.0
 40
-17.0
 40
-17.0
 40
-16.0
 40
-16.0
 40
-15.0
 40
-15.0
 40
-15.0
 10
53.27475020208381
 20
-136.782927592319
 30
0.0
 10
54.4512207903191
 20
-136.2507147071649
 30
0.0
 10
55.23553451580929
 20
-135.2143001413386
 30
0.0
 10
56.01984824129948
 20
-134.1778855755123
 30
0.0
 10
56.01984824129948
 20
-132.8333477603862
 30
0.0
 10
56.01984824129948
 20
-131.4607987407784
 30
0.0
 10
55.5576633673499
 20
-130.4523953794339
 30
0.0
 10
55.09547849340034
 20
-129.4439920180893
 30
0.0
 10
54.28315356342834
 20
-128.7997343150081
 30
0.0
 10
53.47082863345635
 20
-128.1554766119268
 30
0.0
 10
52.36438605642554
 20
-127.8333477603862
 30
0.0
 10
51.25794347939473
 20
-127.5112189088456
 30
0.0
 10
49.96942807323227
 20
-127.5112189088456
 30
0.0
 10
48.48483423569725
 20
-127.5112189088456
 30
0.0
 10
47.35038045418464
 20
-127.9874093850361
 30
0.0
 10
46.21592667267204
 20
-128.4635998612266
 30
0.0
 10
45.45962415166363
 20
-129.3039359956803
 30
0.0
 10
44.70332163065524
 20
-130.1442721301341
 30
0.0
 10
44.29715916566924
 20
-131.3207427183694
 30
0.0
 10
43.89099670068325
 20
-132.4972133066047
 30
0.0
 10
43.83497429171966
 20
-133.9257847351761
 30
0.0
  0
SPLINE
  5
75
330
1F
100
AcDbEntity
  8
Modulos
100
AcDbSpline
210
0.0
220
0.0
230
1.0
 70
    24
 71
     2
 72
     6
 73
     3
 74
     0
 42
0.000000001
 43
0.0000000001
 40
-15.0
 40
-15.0
 40
-15.0
 40
-14.0
 40
-14.0
 40
-14.0
 10
43.83497429171966
 20
-133.9257847351761
 30
0.0
 10
45.02545048219585
 20
-133.9257847351761
 30
0.0
 10
46.21592667267204
 20
-133.9257847351761
 30
0.0
  0
SPLINE
  5
76
330
1F
100
AcDbEntity
  8
Modulos
100
AcDbSpline
210
0.0
220
0.0
230
1.0
 70
     8
 71
     2
 72
    24
 73
    21
 74
     0
 42
0.000000001
 43
0.0000000001
 40
-14.0
 40
-14.0
 40
-14.0
 40
-13.0
 40
-13.0
 40
-12.0
 40
-12.0
 40
-11.0
 40
-11.0
 40
-10.0
 40
-10.0
 40
-9.0
 40
-9.0
 40
-8.0
 40
-8.0
 40
-7.0
 40
-7.0
 40
-6.0
 40
-6.0
 40
-5.0
 40
-5.0
 40
-4.0
 40
-4.0
 40
-4.0
 10
46.21592667267204
 20
-133.9257847351761
 30
0.0
 10
46.21592667267204
 20
-133.0574373962406
 30
0.0
 10
46.44001630852638
 20
-132.2731236707504
 30
0.0
 10
46.66410594438072
 20
-131.4888099452602
 30
0.0
 10
47.1262908183303
 20
-130.9005746511425
 30
0.0
 10
47.58847569227989
 20
-130.3123393570249
 30
0.0
 10
48.30276140656559
 20
-129.9621993010025
 30
0.0
 10
49.01704712085132
 20
-129.6120592449801
 30
0.0
 10
49.96942807323227
 20
-129.6120592449801
 30
0.0
 10
51.48203311524907
 20
-129.6120592449801
 30
0.0
 10
52.4904364765936
 20
-130.4103785727112
 30
0.0
 10
53.49883983793815
 20
-131.2086979004422
 30
0.0
 10
53.49883983793815
 20
-132.8053365559044
 30
0.0
 10
53.49883983793815
 20
-133.5896502813946
 30
0.0
 10
53.19071658863842
 20
-134.2058967799941
 30
0.0
 10
52.88259333933871
 20
-134.8221432785935
 30
0.0
 10
52.36438605642554
 20
-135.2283057435795
 30
0.0
 10
51.84617877351238
 20
-135.6344682085655
 30
0.0
 10
51.15990426370846
 20
-135.8445522421789
 30
0.0
 10
50.47362975390453
 20
-136.0546362757924
 30
0.0
 10
49.71732723289612
 20
-136.0546362757924
 30
0.0
  0
SPLINE
  5
77
330
1F
100
AcDbEntity
  8
Modulos
100
AcDbSpline
210
0.0
220
0.0
230
1.0
 70
    24
 71
     2
 72
     6
 73
     3
 74
     0
 42
0.000000001
 43
0.0000000001
 40
-4.0
 40
-4.0
 40
-4.0
 40
-3.0
 40
-3.0
 40
-3.0
 10
49.71732723289612
 20
-136.0546362757924
 30
0.0
 10
49.46522639255999
 20
-136.0546362757924
 30
0.0
 10
49.21312555222386
 20
-136.0546362757924
 30
0.0
  0
SPLINE
  5
78
330
1F
100
AcDbEntity
  8
Modulos
100
AcDbSpline
210
0.0
220
0.0
230
1.0
 70
     8
 71
     2
 72
     8
 73
     5
 74
     0
 42
0.000000001
 43
0.0000000001
 40
-3.0
 40
-3.0
 40
-3.0
 40
-2.0
 40
-2.0
 40
-1.0
 40
-1.0
 40
-1.0
 10
49.21312555222386
 20
-136.0546362757924
 30
0.0
 10
49.0730695298149
 20
-136.0546362757924
 30
0.0
 10
48.93301350740593
 20
-136.0546362757924
 30
0.0
 10
48.82096868947876
 20
-136.0546362757924
 30
0.0
 10
48.6809126670698
 20
-136.0266250713106
 30
0.0
  0
LINE
  5
79
330
1F
100
AcDbEntity
  8
Modulos
100
AcDbLine
 10
29.46522639256
 20
-135.9425914578652
 30
0.0
 11
29.4092039835964
 21
-135.9425914578652
 31
0.0
  0
LINE
  5
7A
330
1F
100
AcDbEntity
  8
Modulos
100
AcDbLine
 10
29.4092039835964
 20
-135.9425914578652
 30
0.0
 11
29.4092039835964
 21
-132.8893701693498
 31
0.0
  0
LINE
  5
7B
330
1F
100
AcDbEntity
  8
Modulos
100
AcDbLine
 10
29.4092039835964
 20
-132.8893701693498
 30
0.0
 11
27.16830762505299
 21
-132.8893701693498
 31
0.0
  0
LINE
  5
7C
330
1F
100
AcDbEntity
  8
Modulos
100
AcDbLine
 10
27.16830762505299
 20
-132.8893701693498
 30
0.0
 11
27.16830762505299
 21
-147.3711628864367
 31
0.0
  0
LINE
  5
7D
330
1F
100
AcDbEntity
  8
Modulos
100
AcDbLine
 10
27.16830762505299
 20
-147.3711628864367
 30
0.0
 11
29.54926000600537
 21
-147.3711628864367
 31
0.0
  0
LINE
  5
7E
330
1F
100
AcDbEntity
  8
Modulos
100
AcDbLine
 10
29.54926000600537
 20
-147.3711628864367
 30
0.0
 11
29.54926000600537
 21
-140.9285858556243
 31
0.0
  0
SPLINE
  5
7F
330
1F
100
AcDbEntity
  8
Modulos
100
AcDbSpline
210
0.0
220
0.0
230
1.0
 70
     8
 71
     2
 72
    12
 73
     9
 74
     0
 42
0.000000001
 43
0.0000000001
 40
-17.0
 40
-17.0
 40
-17.0
 40
-16.0
 40
-16.0
 40
-15.0
 40
-15.0
 40
-14.0
 40
-14.0
 40
-13.0
 40
-13.0
 40
-13.0
 10
29.54926000600537
 20
-140.9285858556243
 30
0.0
 10
29.54926000600537
 20
-139.5280256315347
 30
0.0
 10
29.8293720508233
 20
-138.4495942589857
 30
0.0
 10
30.10948409564122
 20
-137.3711628864367
 30
0.0
 10
30.72573059424066
 20
-136.6148603654283
 30
0.0
 10
31.3419770928401
 20
-135.8585578444198
 30
0.0
 10
32.35038045418464
 20
-135.4664009816748
 30
0.0
 10
33.35878381552918
 20
-135.0742441189296
 30
0.0
 10
34.78735524410061
 20
-135.0742441189296
 30
0.0
  0
SPLINE
  5
80
330
1F
100
AcDbEntity
  8
Modulos
100
AcDbSpline
210
0.0
220
0.0
230
1.0
 70
    24
 71
     2
 72
     6
 73
     3
 74
     0
 42
0.000000001
 43
0.0000000001
 40
-13.0
 40
-13.0
 40
-13.0
 40
-12.0
 40
-12.0
 40
-12.0
 10
34.78735524410061
 20
-135.0742441189296
 30
0.0
 10
34.78735524410061
 20
-133.813739917249
 30
0.0
 10
34.78735524410061
 20
-132.5532357155683
 30
0.0
  0
SPLINE
  5
81
330
1F
100
AcDbEntity
  8
Modulos
100
AcDbSpline
210
0.0
220
0.0
230
1.0
 70
     8
 71
     2
 72
     8
 73
     5
 74
     0
 42
0.000000001
 43
0.0000000001
 40
-12.0
 40
-12.0
 40
-12.0
 40
-11.0
 40
-11.0
 40
-10.0
 40
-10.0
 40
-10.0
 10
34.78735524410061
 20
-132.5532357155683
 30
0.0
 10
32.85458213485691
 20
-132.4972133066047
 30
0.0
 10
31.59407793317624
 20
-133.3375494410585
 30
0.0
 10
30.33357373149556
 20
-134.1778855755123
 30
0.0
 10
29.46522639256
 20
-135.9425914578652
 30
0.0
  0
SPLINE
  5
82
330
1F
100
AcDbEntity
  8
Modulos
100
AcDbSpline
210
0.0
220
0.0
230
1.0
 70
     8
 71
     2
 72
    20
 73
    17
 74
     0
 42
0.000000001
 43
0.0000000001
 40
1.0
 40
1.0
 40
1.0
 40
2.0
 40
2.0
 40
3.0
 40
3.0
 40
4.0
 40
4.0
 40
5.0
 40
5.0
 40
6.0
 40
6.0
 40
7.0
 40
7.0
 40
8.0
 40
8.0
 40
9.0
 40
9.0
 40
9.0
 10
22.26634684073926
 20
-138.7437119060445
 30
0.0
 10
22.21032443177569
 20
-137.9033757715907
 30
0.0
 10
21.88819558023506
 20
-137.1470732505823
 30
0.0
 10
21.56606672869445
 20
-136.3907707295739
 30
0.0
 10
21.01984824129948
 20
-135.8445522421789
 30
0.0
 10
20.47362975390453
 20
-135.298333754784
 30
0.0
 10
19.73133283513702
 20
-134.9762049032434
 30
0.0
 10
18.98903591636952
 20
-134.6540760517028
 30
0.0
 10
18.09267737295215
 20
-134.6540760517028
 30
0.0
 10
17.16830762505299
 20
-134.6540760517028
 30
0.0
 10
16.42601070628548
 20
-134.9762049032434
 30
0.0
 10
15.68371378751797
 20
-135.298333754784
 30
0.0
 10
15.15150090236392
 20
-135.8585578444198
 30
0.0
 10
14.61928801720985
 20
-136.4187819340557
 30
0.0
 10
14.31116476791013
 20
-137.1610788528232
 30
0.0
 10
14.00304151861042
 20
-137.9033757715907
 30
0.0
 10
13.94701910964683
 20
-138.7437119060445
 30
0.0
  0
SPLINE
  5
83
330
1F
100
AcDbEntity
  8
Modulos
100
AcDbSpline
210
0.0
220
0.0
230
1.0
 70
    24
 71
     2
 72
     6
 73
     3
 74
     0
 42
0.000000001
 43
0.0000000001
 40
9.0
 40
9.0
 40
9.0
 40
10.0
 40
10.0
 40
10.0
 10
13.94701910964683
 20
-138.7437119060445
 30
0.0
 10
18.10668297519305
 20
-138.7437119060445
 30
0.0
 10
22.26634684073926
 20
-138.7437119060445
 30
0.0
  0
SPLINE
  5
84
330
1F
100
AcDbEntity
  8
Modulos
100
AcDbSpline
210
0.0
220
0.0
230
1.0
 70
    24
 71
     2
 72
     6
 73
     3
 74
     0
 42
0.000000001
 43
0.0000000001
 40
-23.0
 40
-23.0
 40
-23.0
 40
-22.0
 40
-22.0
 40
-22.0
 10
24.56326560824627
 20
-142.7773253514226
 30
0.0
 10
23.38679502001098
 20
-142.7773253514226
 30
0.0
 10
22.21032443177569
 20
-142.7773253514226
 30
0.0
  0
SPLINE
  5
85
330
1F
100
AcDbEntity
  8
Modulos
100
AcDbSpline
210
0.0
220
0.0
230
1.0
 70
     8
 71
     2
 72
    16
 73
    13
 74
     0
 42
0.000000001
 43
0.0000000001
 40
-22.0
 40
-22.0
 40
-22.0
 40
-21.0
 40
-21.0
 40
-20.0
 40
-20.0
 40
-19.0
 40
-19.0
 40
-18.0
 40
-18.0
 40
-17.0
 40
-17.0
 40
-16.0
 40
-16.0
 40
-16.0
 10
22.21032443177569
 20
-142.7773253514226
 30
0.0
 10
21.90220118247596
 20
-144.2058967799941
 30
0.0
 10
20.93581462785411
 20
-144.9061768920389
 30
0.0
 10
19.96942807323227
 20
-145.6064570040837
 30
0.0
 10
18.45682303121546
 20
-145.6064570040837
 30
0.0
 10
17.28035244298016
 20
-145.6064570040837
 30
0.0
 10
16.4120051040446
 20
-145.2143001413386
 30
0.0
 10
15.54365776510902
 20
-144.8221432785935
 30
0.0
 10
14.98343367547317
 20
-144.1638799732714
 30
0.0
 10
14.4232095858373
 20
-143.5056166679493
 30
0.0
 10
14.17110874550117
 20
-142.6512749312546
 30
0.0
 10
13.91900790516503
 20
-141.7969331945599
 30
0.0
 10
13.94701910964683
 20
-140.8445522421789
 30
0.0
  0
SPLINE
  5
86
330
1F
100
AcDbEntity
  8
Modulos
100
AcDbSpline
210
0.0
220
0.0
230
1.0
 70
    24
 71
     2
 72
     6
 73
     3
 74
     0
 42
0.000000001
 43
0.0000000001
 40
-16.0
 40
-16.0
 40
-16.0
 40
-15.0
 40
-15.0
 40
-15.0
 10
13.94701910964683
 20
-140.8445522421789
 30
0.0
 10
19.36718717687372
 20
-140.8445522421789
 30
0.0
 10
24.78735524410061
 20
-140.8445522421789
 30
0.0
  0
SPLINE
  5
87
330
1F
100
AcDbEntity
  8
Modulos
100
AcDbSpline
210
0.0
220
0.0
230
1.0
 70
     8
 71
     2
 72
    20
 73
    17
 74
     0
 42
0.000000001
 43
0.0000000001
 40
-15.0
 40
-15.0
 40
-15.0
 40
-14.0
 40
-14.0
 40
-13.0
 40
-13.0
 40
-12.0
 40
-12.0
 40
-11.0
 40
-11.0
 40
-10.0
 40
-10.0
 40
-9.0
 40
-9.0
 40
-8.0
 40
-8.0
 40
-7.0
 40
-7.0
 40
-7.0
 10
24.78735524410061
 20
-140.8445522421789
 30
0.0
 10
24.84337765306419
 20
-139.5280256315347
 30
0.0
 10
24.54926000600537
 20
-138.0714429984815
 30
0.0
 10
24.25514235894656
 20
-136.6148603654283
 30
0.0
 10
23.48483423569725
 20
-135.3823673682294
 30
0.0
 10
22.71452611244796
 20
-134.1498743710305
 30
0.0
 10
21.44001630852638
 20
-133.3515550432994
 30
0.0
 10
20.16550650460482
 20
-132.5532357155683
 30
0.0
 10
18.23273339536112
 20
-132.5532357155683
 30
0.0
 10
16.74813955782611
 20
-132.5532357155683
 30
0.0
 10
15.50164095838633
 20
-133.1134598052041
 30
0.0
 10
14.25514235894654
 20
-133.67368389484
 30
0.0
 10
13.34477821328829
 20
-134.6820872561846
 30
0.0
 10
12.43441406763003
 20
-135.6904906175291
 30
0.0
 10
11.93021238695775
 20
-137.0630396371369
 30
0.0
 10
11.42601070628548
 20
-138.4355886567448
 30
0.0
 10
11.42601070628548
 20
-140.0882497211705
 30
0.0
  0
SPLINE
  5
88
330
1F
100
AcDbEntity
  8
Modulos
100
AcDbSpline
210
0.0
220
0.0
230
1.0
 70
     8
 71
     2
 72
    16
 73
    13
 74
     0
 42
0.000000001
 43
0.0000000001
 40
-7.0
 40
-7.0
 40
-7.0
 40
-6.0
 40
-6.0
 40
-5.0
 40
-5.0
 40
-4.0
 40
-4.0
 40
-3.0
 40
-3.0
 40
-2.0
 40
-2.0
 40
-1.0
 40
-1.0
 40
-1.0
 10
11.42601070628548
 20
-140.0882497211705
 30
0.0
 10
11.48203311524907
 20
-141.7409107855963
 30
0.0
 10
11.91620678471686
 20
-143.1414710096859
 30
0.0
 10
12.35038045418464
 20
-144.5420312337756
 30
0.0
 10
13.21872779312022
 20
-145.5504345951201
 30
0.0
 10
14.08707513205579
 20
-146.5588379564647
 30
0.0
 10
15.36158493597736
 20
-147.1190620461005
 30
0.0
 10
16.63609473989894
 20
-147.6792861357364
 30
0.0
 10
18.37278941777008
 20
-147.6792861357364
 30
0.0
 10
20.83777541216784
 20
-147.6792861357364
 30
0.0
 10
22.46242527211182
 20
-146.4467931385375
 30
0.0
 10
24.08707513205579
 20
-145.2143001413386
 30
0.0
 10
24.56326560824627
 20
-142.7773253514226
 30
0.0
  0
LINE
  5
89
330
1F
100
AcDbEntity
  8
Modulos
100
AcDbLine
 10
-0.9269304701851055
 20
-135.0182217099661
 30
0.0
 11
-0.9829528791486908
 21
-135.0182217099661
 31
0.0
  0
LINE
  5
8A
330
1F
100
AcDbEntity
  8
Modulos
100
AcDbLine
 10
-0.9829528791486908
 20
-135.0182217099661
 30
0.0
 11
-0.9829528791486908
 21
-127.3711628864367
 31
0.0
  0
LINE
  5
8B
330
1F
100
AcDbEntity
  8
Modulos
100
AcDbLine
 10
-0.9829528791486908
 20
-127.3711628864367
 30
0.0
 11
-3.36390526010107
 21
-127.3711628864367
 31
0.0
  0
LINE
  5
8C
330
1F
100
AcDbEntity
  8
Modulos
100
AcDbLine
 10
-3.36390526010107
 20
-127.3711628864367
 30
0.0
 11
-3.36390526010107
 21
-147.3711628864367
 31
0.0
  0
LINE
  5
8D
330
1F
100
AcDbEntity
  8
Modulos
100
AcDbLine
 10
-3.36390526010107
 20
-147.3711628864367
 30
0.0
 11
-0.9829528791486908
 21
-147.3711628864367
 31
0.0
  0
LINE
  5
8E
330
1F
100
AcDbEntity
  8
Modulos
100
AcDbLine
 10
-0.9829528791486908
 20
-147.3711628864367
 30
0.0
 11
-0.9829528791486908
 21
-139.1918911777532
 31
0.0
  0
SPLINE
  5
8F
330
1F
100
AcDbEntity
  8
Modulos
100
AcDbSpline
210
0.0
220
0.0
230
1.0
 70
     8
 71
     2
 72
    16
 73
    13
 74
     0
 42
0.000000001
 43
0.0000000001
 40
-19.0
 40
-19.0
 40
-19.0
 40
-18.0
 40
-18.0
 40
-17.0
 40
-17.0
 40
-16.0
 40
-16.0
 40
-15.0
 40
-15.0
 40
-14.0
 40
-14.0
 40
-13.0
 40
-13.0
 40
-13.0
 10
-0.9829528791486908
 20
-139.1918911777532
 30
0.0
 10
-0.9829528791486908
 20
-138.2114990208904
 30
0.0
 10
-0.7168464365716574
 20
-137.3851684886776
 30
0.0
 10
-0.450739993994631
 20
-136.5588379564647
 30
0.0
 10
0.0814728911594358
 20
-135.9425914578652
 30
0.0
 10
0.6136857763134955
 20
-135.3263449592658
 30
0.0
 10
1.412005104044589
 20
-134.9902105054843
 30
0.0
 10
2.210324431775682
 20
-134.6540760517028
 30
0.0
 10
3.302761406565594
 20
-134.6540760517028
 30
0.0
 10
4.675310426173439
 20
-134.6540760517028
 30
0.0
 10
5.459624151663633
 20
-135.438389777193
 30
0.0
 10
6.243937877153826
 20
-136.2227035026831
 30
0.0
 10
6.243937877153826
 20
-137.5672413178092
 30
0.0
  0
SPLINE
  5
90
330
1F
100
AcDbEntity
  8
Modulos
100
AcDbSpline
210
0.0
220
0.0
230
1.0
 70
    24
 71
     2
 72
     6
 73
     3
 74
     0
 42
0.000000001
 43
0.0000000001
 40
-13.0
 40
-13.0
 40
-13.0
 40
-12.0
 40
-12.0
 40
-12.0
 10
6.243937877153826
 20
-137.5672413178092
 30
0.0
 10
6.243937877153826
 20
-142.4692021021229
 30
0.0
 10
6.243937877153826
 20
-147.3711628864367
 30
0.0
  0
SPLINE
  5
91
330
1F
100
AcDbEntity
  8
Modulos
100
AcDbSpline
210
0.0
220
0.0
230
1.0
 70
    24
 71
     2
 72
     6
 73
     3
 74
     0
 42
0.000000001
 43
0.0000000001
 40
-12.0
 40
-12.0
 40
-12.0
 40
-11.0
 40
-11.0
 40
-11.0
 10
6.243937877153826
 20
-147.3711628864367
 30
0.0
 10
7.434414067630016
 20
-147.3711628864367
 30
0.0
 10
8.624890258106205
 20
-147.3711628864367
 30
0.0
  0
SPLINE
  5
92
330
1F
100
AcDbEntity
  8
Modulos
100
AcDbSpline
210
0.0
220
0.0
230
1.0
 70
    24
 71
     2
 72
     6
 73
     3
 74
     0
 42
0.000000001
 43
0.0000000001
 40
-11.0
 40
-11.0
 40
-11.0
 40
-10.0
 40
-10.0
 40
-10.0
 10
8.624890258106205
 20
-147.3711628864367
 30
0.0
 10
8.624890258106205
 20
-142.6092581245319
 30
0.0
 10
8.624890258106205
 20
-137.8473533626271
 30
0.0
  0
SPLINE
  5
93
330
1F
100
AcDbEntity
  8
Modulos
100
AcDbSpline
210
0.0
220
0.0
230
1.0
 70
     8
 71
     2
 72
    20
 73
    17
 74
     0
 42
0.000000001
 43
0.0000000001
 40
-10.0
 40
-10.0
 40
-10.0
 40
-9.0
 40
-9.0
 40
-8.0
 40
-8.0
 40
-7.0
 40
-7.0
 40
-6.0
 40
-6.0
 40
-5.0
 40
-5.0
 40
-4.0
 40
-4.0
 40
-3.0
 40
-3.0
 40
-2.0
 40
-2.0
 40
-2.0
 10
8.624890258106205
 20
-137.8473533626271
 30
0.0
 10
8.624890258106205
 20
-136.6708827743918
 30
0.0
 10
8.386795020010979
 20
-135.70449621977
 30
0.0
 10
8.148699781915738
 20
-134.7381096651481
 30
0.0
 10
7.560464487798086
 20
-134.0378295531033
 30
0.0
 10
6.972229193680448
 20
-133.3375494410585
 30
0.0
 10
6.019848241299485
 20
-132.9453925783134
 30
0.0
 10
5.067467288918536
 20
-132.5532357155683
 30
0.0
 10
3.638895860347105
 20
-132.5532357155683
 30
0.0
 10
2.994638157265875
 20
-132.5532357155683
 30
0.0
 10
2.308363647461952
 20
-132.6932917379773
 30
0.0
 10
1.62208913765803
 20
-132.8333477603862
 30
0.0
 10
0.9918370368176994
 20
-133.127465407445
 30
0.0
 10
0.361584935977362
 20
-133.4215830545039
 30
0.0
 10
-0.1426167446949052
 20
-133.8837679284535
 30
0.0
 10
-0.6468184253671794
 20
-134.345952802403
 30
0.0
 10
-0.9269304701851055
 20
-135.0182217099661
 30
0.0
  0
LINE
  5
94
330
1F
100
AcDbEntity
  8
Modulos
100
AcDbLine
 10
-8.882112543014237
 20
-143.9818071441397
 30
0.0
 11
-8.882112543014237
 21
-134.9902105054843
 31
0.0
  0
LINE
  5
95
330
1F
100
AcDbEntity
  8
Modulos
100
AcDbLine
 10
-8.882112543014237
 20
-134.9902105054843
 30
0.0
 11
-5.996958481389591
 21
-134.9902105054843
 31
0.0
  0
LINE
  5
96
330
1F
100
AcDbEntity
  8
Modulos
100
AcDbLine
 10
-5.996958481389591
 20
-134.9902105054843
 30
0.0
 11
-5.996958481389591
 21
-132.8893701693498
 31
0.0
  0
LINE
  5
97
330
1F
100
AcDbEntity
  8
Modulos
100
AcDbLine
 10
-5.996958481389591
 20
-132.8893701693498
 30
0.0
 11
-8.882112543014237
 21
-132.8893701693498
 31
0.0
  0
LINE
  5
98
330
1F
100
AcDbEntity
  8
Modulos
100
AcDbLine
 10
-8.882112543014237
 20
-132.8893701693498
 30
0.0
 11
-8.882112543014237
 21
-128.547633474672
 31
0.0
  0
LINE
  5
99
330
1F
100
AcDbEntity
  8
Modulos
100
AcDbLine
 10
-8.882112543014237
 20
-128.547633474672
 30
0.0
 11
-11.26306492396662
 21
-128.547633474672
 31
0.0
  0
LINE
  5
9A
330
1F
100
AcDbEntity
  8
Modulos
100
AcDbLine
 10
-11.26306492396662
 20
-128.547633474672
 30
0.0
 11
-11.26306492396662
 21
-132.8893701693498
 31
0.0
  0
LINE
  5
9B
330
1F
100
AcDbEntity
  8
Modulos
100
AcDbLine
 10
-11.26306492396662
 20
-132.8893701693498
 30
0.0
 11
-13.72805091836438
 21
-132.8893701693498
 31
0.0
  0
LINE
  5
9C
330
1F
100
AcDbEntity
  8
Modulos
100
AcDbLine
 10
-13.72805091836438
 20
-132.8893701693498
 30
0.0
 11
-13.72805091836438
 21
-134.9902105054843
 31
0.0
  0
LINE
  5
9D
330
1F
100
AcDbEntity
  8
Modulos
100
AcDbLine
 10
-13.72805091836438
 20
-134.9902105054843
 30
0.0
 11
-11.26306492396662
 21
-134.9902105054843
 31
0.0
  0
LINE
  5
9E
330
1F
100
AcDbEntity
  8
Modulos
100
AcDbLine
 10
-11.26306492396662
 20
-134.9902105054843
 30
0.0
 11
-11.26306492396662
 21
-144.2058967799941
 31
0.0
  0
SPLINE
  5
9F
330
1F
100
AcDbEntity
  8
Modulos
100
AcDbSpline
210
0.0
220
0.0
230
1.0
 70
     8
 71
     2
 72
    12
 73
     9
 74
     0
 42
0.000000001
 43
0.0000000001
 40
-14.0
 40
-14.0
 40
-14.0
 40
-13.0
 40
-13.0
 40
-12.0
 40
-12.0
 40
-11.0
 40
-11.0
 40
-10.0
 40
-10.0
 40
-10.0
 10
-11.26306492396662
 20
-144.2058967799941
 30
0.0
 10
-11.26306492396662
 20
-145.2143001413386
 30
0.0
 10
-11.06698649259407
 20
-145.8305466399381
 30
0.0
 10
-10.87090806122152
 20
-146.4467931385375
 30
0.0
 10
-10.46474559623553
 20
-146.782927592319
 30
0.0
 10
-10.05858313124953
 20
-147.1190620461005
 30
0.0
 10
-9.400319825927404
 20
-147.2451124662686
 30
0.0
 10
-8.742056520605274
 20
-147.3711628864367
 30
0.0
 10
-7.817686772706118
 20
-147.3711628864367
 30
0.0
  0
SPLINE
  5
A0
330
1F
100
AcDbEntity
  8
Modulos
100
AcDbSpline
210
0.0
220
0.0
230
1.0
 70
    24
 71
     2
 72
     6
 73
     3
 74
     0
 42
0.000000001
 43
0.0000000001
 40
-10.0
 40
-10.0
 40
-10.0
 40
-9.0
 40
-9.0
 40
-9.0
 10
-7.817686772706118
 20
-147.3711628864367
 30
0.0
 10
-6.907322627047854
 20
-147.3711628864367
 30
0.0
 10
-5.996958481389591
 20
-147.3711628864367
 30
0.0
  0
SPLINE
  5
A1
330
1F
100
AcDbEntity
  8
Modulos
100
AcDbSpline
210
0.0
220
0.0
230
1.0
 70
    24
 71
     2
 72
     6
 73
     3
 74
     0
 42
0.000000001
 43
0.0000000001
 40
-9.0
 40
-9.0
 40
-9.0
 40
-8.0
 40
-8.0
 40
-8.0
 10
-5.996958481389591
 20
-147.3711628864367
 30
0.0
 10
-5.996958481389591
 20
-146.3207427183694
 30
0.0
 10
-5.996958481389591
 20
-145.2703225503022
 30
0.0
  0
SPLINE
  5
A2
330
1F
100
AcDbEntity
  8
Modulos
100
AcDbSpline
210
0.0
220
0.0
230
1.0
 70
    24
 71
     2
 72
     6
 73
     3
 74
     0
 42
0.000000001
 43
0.0000000001
 40
-8.0
 40
-8.0
 40
-8.0
 40
-7.0
 40
-7.0
 40
-7.0
 10
-5.996958481389591
 20
-145.2703225503022
 30
0.0
 10
-6.543176968784547
 20
-145.2703225503022
 30
0.0
 10
-7.089395456179503
 20
-145.2703225503022
 30
0.0
  0
SPLINE
  5
A3
330
1F
100
AcDbEntity
  8
Modulos
100
AcDbSpline
210
0.0
220
0.0
230
1.0
 70
     8
 71
     2
 72
    12
 73
     9
 74
     0
 42
0.000000001
 43
0.0000000001
 40
-7.0
 40
-7.0
 40
-7.0
 40
-6.0
 40
-6.0
 40
-5.0
 40
-5.0
 40
-4.0
 40
-4.0
 40
-3.0
 40
-3.0
 40
-3.0
 10
-7.089395456179503
 20
-145.2703225503022
 30
0.0
 10
-7.649619545815362
 20
-145.2703225503022
 30
0.0
 10
-7.999759601837766
 20
-145.2283057435795
 30
0.0
 10
-8.349899657860178
 20
-145.1862889368568
 30
0.0
 10
-8.545978089232726
 20
-145.0462329144478
 30
0.0
 10
-8.742056520605274
 20
-144.9061768920389
 30
0.0
 10
-8.81208453180976
 20
-144.6540760517028
 30
0.0
 10
-8.882112543014237
 20
-144.4019752113666
 30
0.0
 10
-8.882112543014237
 20
-143.9818071441397
 30
0.0
  0
SPLINE
  5
A4
330
1F
100
AcDbEntity
  8
Modulos
100
AcDbSpline
210
0.0
220
0.0
230
1.0
 70
     8
 71
     2
 72
    32
 73
    29
 74
     0
 42
0.000000001
 43
0.0000000001
 40
0.0
 40
0.0
 40
0.0
 40
1.0
 40
1.0
 40
2.0
 40
2.0
 40
3.0
 40
3.0
 40
4.0
 40
4.0
 40
5.0
 40
5.0
 40
6.0
 40
6.0
 40
7.0
 40
7.0
 40
8.0
 40
8.0
 40
9.0
 40
9.0
 40
10.0
 40
10.0
 40
11.0
 40
11.0
 40
12.0
 40
12.0
 40
13.0
 40
13.0
 40
14.0
 40
14.0
 40
14.0
 10
-18.26586604441479
 20
-139.892171289798
 30
0.0
 10
-18.71404531612348
 20
-140.2283057435795
 30
0.0
 10
-19.44233663265009
 20
-140.3823673682294
 30
0.0
 10
-20.1706279491767
 20
-140.5364289928792
 30
0.0
 10
-20.9689472769078
 20
-140.6344682085655
 30
0.0
 10
-21.76726660463888
 20
-140.7325074242518
 30
0.0
 10
-22.57959153461088
 20
-140.8585578444198
 30
0.0
 10
-23.39191646458286
 20
-140.9846082645879
 30
0.0
 10
-24.0361741676641
 20
-141.2647203094058
 30
0.0
 10
-24.68043187074533
 20
-141.5448323542238
 30
0.0
 10
-25.08659433573132
 20
-142.0630396371369
 30
0.0
 10
-25.49275680071732
 20
-142.5812469200501
 30
0.0
 10
-25.49275680071732
 20
-143.4776054634675
 30
0.0
 10
-25.49275680071732
 20
-144.0658407575851
 30
0.0
 10
-25.25466156262208
 20
-144.4720032225711
 30
0.0
 10
-25.01656632452684
 20
-144.8781656875571
 30
0.0
 10
-24.63841506402264
 20
-145.1302665278932
 30
0.0
 10
-24.26026380351844
 20
-145.3823673682294
 30
0.0
 10
-23.75606212284617
 20
-145.4944121861566
 30
0.0
 10
-23.2518604421739
 20
-145.6064570040837
 30
0.0
 10
-22.69163635253805
 20
-145.6064570040837
 30
0.0
 10
-21.51516576430275
 20
-145.6064570040837
 30
0.0
 10
-20.67482962984897
 20
-145.2843281525431
 30
0.0
 10
-19.83449349539519
 20
-144.9621993010025
 30
0.0
 10
-19.30228061024113
 20
-144.4720032225711
 30
0.0
 10
-18.77006772508707
 20
-143.9818071441397
 30
0.0
 10
-18.51796688475093
 20
-143.407577452263
 30
0.0
 10
-18.26586604441479
 20
-142.8333477603862
 30
0.0
 10
-18.26586604441479
 20
-142.329146079714
 30
0.0
  0
SPLINE
  5
A5
330
1F
100
AcDbEntity
  8
Modulos
100
AcDbSpline
210
0.0
220
0.0
230
1.0
 70
    24
 71
     2
 72
     6
 73
     3
 74
     0
 42
0.000000001
 43
0.0000000001
 40
14.0
 40
14.0
 40
14.0
 40
15.0
 40
15.0
 40
15.0
 10
-18.26586604441479
 20
-142.329146079714
 30
0.0
 10
-18.26586604441479
 20
-141.110658684756
 30
0.0
 10
-18.26586604441479
 20
-139.892171289798
 30
0.0
  0
SPLINE
  5
A6
330
1F
100
AcDbEntity
  8
Modulos
100
AcDbSpline
210
0.0
220
0.0
230
1.0
 70
    24
 71
     2
 72
     6
 73
     3
 74
     0
 42
0.000000001
 43
0.0000000001
 40
-38.0
 40
-38.0
 40
-38.0
 40
-37.0
 40
-37.0
 40
-37.0
 10
-14.4003198259274
 20
-147.3151404774731
 30
0.0
 10
-14.4003198259274
 20
-146.3907707295739
 30
0.0
 10
-14.4003198259274
 20
-145.4664009816748
 30
0.0
  0
SPLINE
  5
A7
330
1F
100
AcDbEntity
  8
Modulos
100
AcDbSpline
210
0.0
220
0.0
230
1.0
 70
     8
 71
     2
 72
    10
 73
     7
 74
     0
 42
0.000000001
 43
0.0000000001
 40
-37.0
 40
-37.0
 40
-37.0
 40
-36.0
 40
-36.0
 40
-35.0
 40
-35.0
 40
-34.0
 40
-34.0
 40
-34.0
 10
-14.4003198259274
 20
-145.4664009816748
 30
0.0
 10
-14.82048789315429
 20
-145.6064570040837
 30
0.0
 10
-15.12861114245401
 20
-145.6064570040837
 30
0.0
 10
-15.68883523208986
 20
-145.6064570040837
 30
0.0
 10
-15.78687444777614
 20
-145.2143001413386
 30
0.0
 10
-15.88491366346241
 20
-144.8221432785935
 30
0.0
 10
-15.88491366346241
 20
-143.9818071441397
 30
0.0
  0
SPLINE
  5
A8
330
1F
100
AcDbEntity
  8
Modulos
100
AcDbSpline
210
0.0
220
0.0
230
1.0
 70
    24
 71
     2
 72
     6
 73
     3
 74
     0
 42
0.000000001
 43
0.0000000001
 40
-34.0
 40
-34.0
 40
-34.0
 40
-33.0
 40
-33.0
 40
-33.0
 10
-15.88491366346241
 20
-143.9818071441397
 30
0.0
 10
-15.88491366346241
 20
-140.2563169480613
 30
0.0
 10
-15.88491366346241
 20
-136.5308267519829
 30
0.0
  0
SPLINE
  5
A9
330
1F
100
AcDbEntity
  8
Modulos
100
AcDbSpline
210
0.0
220
0.0
230
1.0
 70
     8
 71
     2
 72
    20
 73
    17
 74
     0
 42
0.000000001
 43
0.0000000001
 40
-33.0
 40
-33.0
 40
-33.0
 40
-32.0
 40
-32.0
 40
-31.0
 40
-31.0
 40
-30.0
 40
-30.0
 40
-29.0
 40
-29.0
 40
-28.0
 40
-28.0
 40
-27.0
 40
-27.0
 40
-26.0
 40
-26.0
 40
-25.0
 40
-25.0
 40
-25.0
 10
-15.88491366346241
 20
-136.5308267519829
 30
0.0
 10
-15.88491366346241
 20
-135.2703225503022
 30
0.0
 10
-16.36110413965289
 20
-134.486008824812
 30
0.0
 10
-16.83729461584337
 20
-133.7016950993218
 30
0.0
 10
-17.62160834133356
 20
-133.267521429854
 30
0.0
 10
-18.40592206682376
 20
-132.8333477603862
 30
0.0
 10
-19.37230862144561
 20
-132.6932917379773
 30
0.0
 10
-20.33869517606746
 20
-132.5532357155683
 30
0.0
 10
-21.3190873329302
 20
-132.5532357155683
 30
0.0
 10
-22.55158033012908
 20
-132.5532357155683
 30
0.0
 10
-23.6300117026781
 20
-132.8053365559044
 30
0.0
 10
-24.70844307522712
 20
-133.0574373962406
 30
0.0
 10
-25.5487792096809
 20
-133.6316670881173
 30
0.0
 10
-26.38911534413469
 20
-134.2058967799941
 30
0.0
 10
-26.89331702480695
 20
-135.1302665278932
 30
0.0
 10
-27.39751870547922
 20
-136.0546362757924
 30
0.0
 10
-27.45354111444281
 20
-137.3991740909185
 30
0.0
  0
SPLINE
  5
AA
330
1F
100
AcDbEntity
  8
Modulos
100
AcDbSpline
210
0.0
220
0.0
230
1.0
 70
    24
 71
     2
 72
     6
 73
     3
 74
     0
 42
0.000000001
 43
0.0000000001
 40
-25.0
 40
-25.0
 40
-25.0
 40
-24.0
 40
-24.0
 40
-24.0
 10
-27.45354111444281
 20
-137.3991740909185
 30
0.0
 10
-26.26306492396662
 20
-137.3991740909185
 30
0.0
 10
-25.07258873349043
 20
-137.3991740909185
 30
0.0
  0
SPLINE
  5
AB
330
1F
100
AcDbEntity
  8
Modulos
100
AcDbSpline
210
0.0
220
0.0
230
1.0
 70
     8
 71
     2
 72
    24
 73
    21
 74
     0
 42
0.000000001
 43
0.0000000001
 40
-24.0
 40
-24.0
 40
-24.0
 40
-23.0
 40
-23.0
 40
-22.0
 40
-22.0
 40
-21.0
 40
-21.0
 40
-20.0
 40
-20.0
 40
-19.0
 40
-19.0
 40
-18.0
 40
-18.0
 40
-17.0
 40
-17.0
 40
-16.0
 40
-16.0
 40
-15.0
 40
-15.0
 40
-14.0
 40
-14.0
 40
-14.0
 10
-25.07258873349043
 20
-137.3991740909185
 30
0.0
 10
-24.98855512004505
 20
-135.8025354354563
 30
0.0
 10
-23.98015175870052
 20
-135.2283057435795
 30
0.0
 10
-22.97174839735597
 20
-134.6540760517028
 30
0.0
 10
-21.45914335533917
 20
-134.6540760517028
 30
0.0
 10
-20.89891926570331
 20
-134.6540760517028
 30
0.0
 10
-20.32468957382656
 20
-134.7381096651481
 30
0.0
 10
-19.75045988194981
 20
-134.8221432785935
 30
0.0
 10
-19.28827500800023
 20
-135.0742441189296
 30
0.0
 10
-18.82609013405065
 20
-135.3263449592658
 30
0.0
 10
-18.53197248699183
 20
-135.8025354354563
 30
0.0
 10
-18.23785483993301
 20
-136.2787259116467
 30
0.0
 10
-18.23785483993301
 20
-137.0630396371369
 30
0.0
 10
-18.23785483993301
 20
-137.7353085447
 30
0.0
 10
-18.6300117026781
 20
-138.0854486007224
 30
0.0
 10
-19.0221685654232
 20
-138.4355886567448
 30
0.0
 10
-19.69443747298622
 20
-138.6176614858764
 30
0.0
 10
-20.36670638054925
 20
-138.7997343150081
 30
0.0
 10
-21.24905932172572
 20
-138.8977735306944
 30
0.0
 10
-22.13141226290219
 20
-138.9958127463806
 30
0.0
 10
-23.11180441976494
 20
-139.1918911777532
 30
0.0
  0
SPLINE
  5
AC
330
1F
100
AcDbEntity
  8
Modulos
100
AcDbSpline
210
0.0
220
0.0
230
1.0
 70
     8
 71
     2
 72
    24
 73
    21
 74
     0
 42
0.000000001
 43
0.0000000001
 40
-14.0
 40
-14.0
 40
-14.0
 40
-13.0
 40
-13.0
 40
-12.0
 40
-12.0
 40
-11.0
 40
-11.0
 40
-10.0
 40
-10.0
 40
-9.0
 40
-9.0
 40
-8.0
 40
-8.0
 40
-7.0
 40
-7.0
 40
-6.0
 40
-6.0
 40
-5.0
 40
-5.0
 40
-4.0
 40
-4.0
 40
-4.0
 10
-23.11180441976494
 20
-139.1918911777532
 30
0.0
 10
-24.0361741676641
 20
-139.3599584046439
 30
0.0
 10
-24.91852710884056
 20
-139.6120592449801
 30
0.0
 10
-25.80088005001704
 20
-139.8641600853162
 30
0.0
 10
-26.48715455982096
 20
-140.3543561637476
 30
0.0
 10
-27.17342906962488
 20
-140.8445522421789
 30
0.0
 10
-27.59359713685177
 20
-141.6288659676692
 30
0.0
 10
-28.01376520407866
 20
-142.4131796931593
 30
0.0
 10
-28.01376520407866
 20
-143.6456726903582
 30
0.0
 10
-28.01376520407866
 20
-144.7381096651481
 30
0.0
 10
-27.63561394357446
 20
-145.5084177883974
 30
0.0
 10
-27.25746268307026
 20
-146.2787259116467
 30
0.0
 10
-26.61320497998903
 20
-146.7549163878372
 30
0.0
 10
-25.96894727690779
 20
-147.2311068640277
 30
0.0
 10
-25.08659433573132
 20
-147.455196499882
 30
0.0
 10
-24.20424139455486
 20
-147.6792861357364
 30
0.0
 10
-23.22384923769211
 20
-147.6792861357364
 30
0.0
 10
-21.7112441956753
 20
-147.6792861357364
 30
0.0
 10
-20.40872318727194
 20
-147.1610788528232
 30
0.0
 10
-19.10620217886858
 20
-146.64287156991
 30
0.0
 10
-18.12581002200584
 20
-145.4664009816748
 30
0.0
  0
SPLINE
  5
AD
330
1F
100
AcDbEntity
  8
Modulos
100
AcDbSpline
210
0.0
220
0.0
230
1.0
 70
     8
 71
     2
 72
    10
 73
     7
 74
     0
 42
0.000000001
 43
0.0000000001
 40
-4.0
 40
-4.0
 40
-4.0
 40
-3.0
 40
-3.0
 40
-2.0
 40
-2.0
 40
-1.0
 40
-1.0
 40
-1.0
 10
-18.12581002200584
 20
-145.4664009816748
 30
0.0
 10
-18.12581002200584
 20
-146.64287156991
 30
0.0
 10
-17.57959153461088
 20
-147.1610788528232
 30
0.0
 10
-17.03337304721592
 20
-147.6792861357364
 30
0.0
 10
-16.10900329931675
 20
-147.6792861357364
 30
0.0
 10
-15.01656632452684
 20
-147.6792861357364
 30
0.0
 10
-14.4003198259274
 20
-147.3151404774731
 30
0.0
  0
SPLINE
  5
AE
330
1F
100
AcDbEntity
  8
Modulos
100
AcDbSpline
210
0.0
220
0.0
230
1.0
 70
     8
 71
     2
 72
    20
 73
    17
 74
     0
 42
0.000000001
 43
0.0000000001
 40
1.0
 40
1.0
 40
1.0
 40
2.0
 40
2.0
 40
3.0
 40
3.0
 40
4.0
 40
4.0
 40
5.0
 40
5.0
 40
6.0
 40
6.0
 40
7.0
 40
7.0
 40
8.0
 40
8.0
 40
9.0
 40
9.0
 40
9.0
 10
-32.21544587634757
 20
-138.7437119060445
 30
0.0
 10
-32.27146828531115
 20
-137.9033757715907
 30
0.0
 10
-32.59359713685177
 20
-137.1470732505823
 30
0.0
 10
-32.91572598839238
 20
-136.3907707295739
 30
0.0
 10
-33.46194447578735
 20
-135.8445522421789
 30
0.0
 10
-34.0081629631823
 20
-135.298333754784
 30
0.0
 10
-34.75045988194981
 20
-134.9762049032434
 30
0.0
 10
-35.49275680071732
 20
-134.6540760517028
 30
0.0
 10
-36.38911534413468
 20
-134.6540760517028
 30
0.0
 10
-37.31348509203384
 20
-134.6540760517028
 30
0.0
 10
-38.05578201080135
 20
-134.9762049032434
 30
0.0
 10
-38.79807892956886
 20
-135.298333754784
 30
0.0
 10
-39.33029181472292
 20
-135.8585578444198
 30
0.0
 10
-39.86250469987698
 20
-136.4187819340557
 30
0.0
 10
-40.1706279491767
 20
-137.1610788528232
 30
0.0
 10
-40.47875119847642
 20
-137.9033757715907
 30
0.0
 10
-40.53477360744
 20
-138.7437119060445
 30
0.0
  0
SPLINE
  5
AF
330
1F
100
AcDbEntity
  8
Modulos
100
AcDbSpline
210
0.0
220
0.0
230
1.0
 70
    24
 71
     2
 72
     6
 73
     3
 74
     0
 42
0.000000001
 43
0.0000000001
 40
9.0
 40
9.0
 40
9.0
 40
10.0
 40
10.0
 40
10.0
 10
-40.53477360744
 20
-138.7437119060445
 30
0.0
 10
-36.37510974189378
 20
-138.7437119060445
 30
0.0
 10
-32.21544587634757
 20
-138.7437119060445
 30
0.0
  0
SPLINE
  5
B0
330
1F
100
AcDbEntity
  8
Modulos
100
AcDbSpline
210
0.0
220
0.0
230
1.0
 70
    24
 71
     2
 72
     6
 73
     3
 74
     0
 42
0.000000001
 43
0.0000000001
 40
-23.0
 40
-23.0
 40
-23.0
 40
-22.0
 40
-22.0
 40
-22.0
 10
-29.91852710884056
 20
-142.7773253514226
 30
0.0
 10
-31.09499769707586
 20
-142.7773253514226
 30
0.0
 10
-32.27146828531115
 20
-142.7773253514226
 30
0.0
  0
SPLINE
  5
B1
330
1F
100
AcDbEntity
  8
Modulos
100
AcDbSpline
210
0.0
220
0.0
230
1.0
 70
     8
 71
     2
 72
    16
 73
    13
 74
     0
 42
0.000000001
 43
0.0000000001
 40
-22.0
 40
-22.0
 40
-22.0
 40
-21.0
 40
-21.0
 40
-20.0
 40
-20.0
 40
-19.0
 40
-19.0
 40
-18.0
 40
-18.0
 40
-17.0
 40
-17.0
 40
-16.0
 40
-16.0
 40
-16.0
 10
-32.27146828531115
 20
-142.7773253514226
 30
0.0
 10
-32.57959153461087
 20
-144.2058967799941
 30
0.0
 10
-33.54597808923272
 20
-144.9061768920389
 30
0.0
 10
-34.51236464385457
 20
-145.6064570040837
 30
0.0
 10
-36.02496968587138
 20
-145.6064570040837
 30
0.0
 10
-37.20144027410667
 20
-145.6064570040837
 30
0.0
 10
-38.06978761304224
 20
-145.2143001413386
 30
0.0
 10
-38.93813495197782
 20
-144.8221432785935
 30
0.0
 10
-39.49835904161367
 20
-144.1638799732714
 30
0.0
 10
-40.05858313124953
 20
-143.5056166679493
 30
0.0
 10
-40.31068397158566
 20
-142.6512749312546
 30
0.0
 10
-40.5627848119218
 20
-141.7969331945599
 30
0.0
 10
-40.53477360744
 20
-140.8445522421789
 30
0.0
  0
SPLINE
  5
B2
330
1F
100
AcDbEntity
  8
Modulos
100
AcDbSpline
210
0.0
220
0.0
230
1.0
 70
    24
 71
     2
 72
     6
 73
     3
 74
     0
 42
0.000000001
 43
0.0000000001
 40
-16.0
 40
-16.0
 40
-16.0
 40
-15.0
 40
-15.0
 40
-15.0
 10
-40.53477360744
 20
-140.8445522421789
 30
0.0
 10
-35.11460554021311
 20
-140.8445522421789
 30
0.0
 10
-29.69443747298622
 20
-140.8445522421789
 30
0.0
  0
SPLINE
  5
B3
330
1F
100
AcDbEntity
  8
Modulos
100
AcDbSpline
210
0.0
220
0.0
230
1.0
 70
     8
 71
     2
 72
    20
 73
    17
 74
     0
 42
0.000000001
 43
0.0000000001
 40
-15.0
 40
-15.0
 40
-15.0
 40
-14.0
 40
-14.0
 40
-13.0
 40
-13.0
 40
-12.0
 40
-12.0
 40
-11.0
 40
-11.0
 40
-10.0
 40
-10.0
 40
-9.0
 40
-9.0
 40
-8.0
 40
-8.0
 40
-7.0
 40
-7.0
 40
-7.0
 10
-29.69443747298622
 20
-140.8445522421789
 30
0.0
 10
-29.63841506402264
 20
-139.5280256315347
 30
0.0
 10
-29.93253271108146
 20
-138.0714429984815
 30
0.0
 10
-30.22665035814028
 20
-136.6148603654283
 30
0.0
 10
-30.99695848138958
 20
-135.3823673682294
 30
0.0
 10
-31.76726660463888
 20
-134.1498743710305
 30
0.0
 10
-33.04177640856045
 20
-133.3515550432994
 30
0.0
 10
-34.31628621248202
 20
-132.5532357155683
 30
0.0
 10
-36.24905932172572
 20
-132.5532357155683
 30
0.0
 10
-37.73365315926073
 20
-132.5532357155683
 30
0.0
 10
-38.98015175870051
 20
-133.1134598052041
 30
0.0
 10
-40.22665035814029
 20
-133.67368389484
 30
0.0
 10
-41.13701450379855
 20
-134.6820872561846
 30
0.0
 10
-42.04737864945681
 20
-135.6904906175291
 30
0.0
 10
-42.55158033012908
 20
-137.0630396371369
 30
0.0
 10
-43.05578201080135
 20
-138.4355886567448
 30
0.0
 10
-43.05578201080135
 20
-140.0882497211705
 30
0.0
  0
SPLINE
  5
B4
330
1F
100
AcDbEntity
  8
Modulos
100
AcDbSpline
210
0.0
220
0.0
230
1.0
 70
     8
 71
     2
 72
    16
 73
    13
 74
     0
 42
0.000000001
 43
0.0000000001
 40
-7.0
 40
-7.0
 40
-7.0
 40
-6.0
 40
-6.0
 40
-5.0
 40
-5.0
 40
-4.0
 40
-4.0
 40
-3.0
 40
-3.0
 40
-2.0
 40
-2.0
 40
-1.0
 40
-1.0
 40
-1.0
 10
-43.05578201080135
 20
-140.0882497211705
 30
0.0
 10
-42.99975960183777
 20
-141.7409107855963
 30
0.0
 10
-42.56558593236998
 20
-143.1414710096859
 30
0.0
 10
-42.13141226290219
 20
-144.5420312337756
 30
0.0
 10
-41.26306492396662
 20
-145.5504345951201
 30
0.0
 10
-40.39471758503105
 20
-146.5588379564647
 30
0.0
 10
-39.12020778110947
 20
-147.1190620461005
 30
0.0
 10
-37.8456979771879
 20
-147.6792861357364
 30
0.0
 10
-36.10900329931675
 20
-147.6792861357364
 30
0.0
 10
-33.644017304919
 20
-147.6792861357364
 30
0.0
 10
-32.01936744497502
 20
-146.4467931385375
 30
0.0
 10
-30.39471758503104
 20
-145.2143001413386
 30
0.0
 10
-29.91852710884056
 20
-142.7773253514226
 30
0.0
  0
SPLINE
  5
B5
330
1F
100
AcDbEntity
  8
Modulos
100
AcDbSpline
210
0.0
220
0.0
230
1.0
 70
    24
 71
     2
 72
     6
 73
     3
 74
     0
 42
0.000000001
 43
0.0000000001
 40
-6.0
 40
-6.0
 40
-6.0
 40
-5.0
 40
-5.0
 40
-5.0
 10
-54.79247668867249
 20
-127.3711628864367
 30
0.0
 10
-56.12300890155765
 20
-127.3711628864367
 30
0.0
 10
-57.45354111444281
 20
-127.3711628864367
 30
0.0
  0
SPLINE
  5
B6
330
1F
100
AcDbEntity
  8
Modulos
100
AcDbSpline
210
0.0
220
0.0
230
1.0
 70
    24
 71
     2
 72
     6
 73
     3
 74
     0
 42
0.000000001
 43
0.0000000001
 40
-5.0
 40
-5.0
 40
-5.0
 40
-4.0
 40
-4.0
 40
-4.0
 10
-57.45354111444281
 20
-127.3711628864367
 30
0.0
 10
-57.45354111444281
 20
-137.3711628864367
 30
0.0
 10
-57.45354111444281
 20
-147.3711628864367
 30
0.0
  0
SPLINE
  5
B7
330
1F
100
AcDbEntity
  8
Modulos
100
AcDbSpline
210
0.0
220
0.0
230
1.0
 70
    24
 71
     2
 72
     6
 73
     3
 74
     0
 42
0.000000001
 43
0.0000000001
 40
-4.0
 40
-4.0
 40
-4.0
 40
-3.0
 40
-3.0
 40
-3.0
 10
-57.45354111444281
 20
-147.3711628864367
 30
0.0
 10
-50.82889125449883
 20
-147.3711628864367
 30
0.0
 10
-44.20424139455485
 20
-147.3711628864367
 30
0.0
  0
SPLINE
  5
B8
330
1F
100
AcDbEntity
  8
Modulos
100
AcDbSpline
210
0.0
220
0.0
230
1.0
 70
    24
 71
     2
 72
     6
 73
     3
 74
     0
 42
0.000000001
 43
0.0000000001
 40
-3.0
 40
-3.0
 40
-3.0
 40
-2.0
 40
-2.0
 40
-2.0
 10
-44.20424139455485
 20
-147.3711628864367
 30
0.0
 10
-44.20424139455485
 20
-146.2507147071649
 30
0.0
 10
-44.20424139455485
 20
-145.1302665278932
 30
0.0
  0
SPLINE
  5
B9
330
1F
100
AcDbEntity
  8
Modulos
100
AcDbSpline
210
0.0
220
0.0
230
1.0
 70
    24
 71
     2
 72
     6
 73
     3
 74
     0
 42
0.000000001
 43
0.0000000001
 40
-2.0
 40
-2.0
 40
-2.0
 40
-1.0
 40
-1.0
 40
-1.0
 10
-44.20424139455485
 20
-145.1302665278932
 30
0.0
 10
-49.49835904161367
 20
-145.1302665278932
 30
0.0
 10
-54.79247668867249
 20
-145.1302665278932
 30
0.0
  0
SPLINE
  5
BA
330
1F
100
AcDbEntity
  8
Modulos
100
AcDbSpline
210
0.0
220
0.0
230
1.0
 70
    24
 71
     2
 72
     6
 73
     3
 74
     0
 42
0.000000001
 43
0.0000000001
 40
-1.0
 40
-1.0
 40
-1.0
 40
0.0
 40
0.0
 40
0.0
 10
-54.79247668867249
 20
-145.1302665278932
 30
0.0
 10
-54.79247668867249
 20
-136.2507147071649
 30
0.0
 10
-54.79247668867249
 20
-127.3711628864367
 30
0.0
  0
CIRCLE
  5
BB
330
1F
100
AcDbEntity
  8
Modulos
100
AcDbCircle
 10
423.1317131474661
 20
73.91714713944921
 30
0.0
 40
30.0
  0
CIRCLE
  5
BC
330
1F
100
AcDbEntity
  8
Modulos
100
AcDbCircle
 10
423.1317131474661
 20
73.91714713944921
 30
0.0
 40
40.0
  0
CIRCLE
  5
BD
330
1F
100
AcDbEntity
  8
Modulos
100
AcDbCircle
 10
423.2101667342026
 20
74.34811960973794
 30
0.0
 40
19.93623676139908
  0
POLYLINE
  5
BF
330
1F
100
AcDbEntity
  8
Tamaño pieza cuero
100
AcDb2dPolyline
 66
     1
 10
0.0
 20
0.0
 30
0.0
 70
     1
  0
VERTEX
  5
C0
330
BF
100
AcDbEntity
  8
Tamaño pieza cuero
100
AcDbVertex
100
AcDb2dVertex
 10
-60.94510788609294
 20
-111.6926935214248
 30
0.0
  0
VERTEX
  5
C1
330
BF
100
AcDbEntity
  8
Tamaño pieza cuero
100
AcDbVertex
100
AcDb2dVertex
 10
254.7156720059621
 20
-111.6926935214248
 30
0.0
  0
VERTEX
  5
C2
330
BF
100
AcDbEntity
  8
Tamaño pieza cuero
100
AcDbVertex
100
AcDb2dVertex
 10
254.7156720059621
 20
-17.3951209744168
 30
0.0
  0
VERTEX
  5
C3
330
BF
100
AcDbEntity
  8
Tamaño pieza cuero
100
AcDbVertex
100
AcDb2dVertex
 10
-60.94510788609294
 20
-17.3951209744168
 30
0.0
  0
SEQEND
  5
C4
330
BF
100
AcDbEntity
  8
Tamaño pieza cuero
  0
POLYLINE
  5
C5
330
1F
100
AcDbEntity
  8
Modulos
100
AcDb2dPolyline
 66
     1
 10
0.0
 20
0.0
 30
0.0
  0
VERTEX
  5
C6
330
C5
100
AcDbEntity
  8
Modulos
100
AcDbVertex
100
AcDb2dVertex
 10
101.4287701414546
 20
-78.52352708457052
 30
0.0
  0
VERTEX
  5
C7
330
C5
100
AcDbEntity
  8
Modulos
100
AcDbVertex
100
AcDb2dVertex
 10
65.83254067276592
 20
-78.52352708457053
 30
0.0
  0
SEQEND
  5
C8
330
C5
100
AcDbEntity
  8
Modulos
  0
ARC
  5
C9
330
1F
100
AcDbEntity
  8
Modulos
100
AcDbCircle
 10
48.16901894011022
 20
-84.02352708457053
 30
0.0
 40
18.5
100
AcDbArc
 50
17.29534462885837
 51
342.7046553711417
  0
POLYLINE
  5
CA
330
1F
100
AcDbEntity
  8
Modulos
100
AcDb2dPolyline
 66
     1
 10
0.0
 20
0.0
 30
0.0
  0
VERTEX
  5
CB
330
CA
100
AcDbEntity
  8
Modulos
100
AcDbVertex
100
AcDb2dVertex
 10
65.83254067276592
 20
-89.52352708457052
 30
0.0
  0
VERTEX
  5
CC
330
CA
100
AcDbEntity
  8
Modulos
100
AcDbVertex
100
AcDb2dVertex
 10
101.4287701414546
 20
-89.52352708457053
 30
0.0
  0
SEQEND
  5
CD
330
CA
100
AcDbEntity
  8
Modulos
  0
ARC
  5
CE
330
1F
100
AcDbEntity
  8
Modulos
100
AcDbCircle
 10
119.0922918741103
 20
-84.02352708457053
 30
0.0
 40
18.5
100
AcDbArc
 50
197.2953446288584
 51
162.7046553711416
  0
CIRCLE
  5
CF
330
1F
100
AcDbEntity
  8
Modulos
100
AcDbCircle
 10
119.0922918741103
 20
-84.02352708457053
 30
0.0
 40
7.0
  0
CIRCLE
  5
D0
330
1F
100
AcDbEntity
  8
Modulos
100
AcDbCircle
 10
119.0922918741103
 20
-84.02352708457053
 30
0.0
 40
7.0
  0
CIRCLE
  5
D1
330
1F
100
AcDbEntity
  8
Modulos
100
AcDbCircle
 10
48.16901894011022
 20
-84.02352708457053
 30
0.0
 40
7.0
  0
CIRCLE
  5
D2
330
1F
100
AcDbEntity
  8
Modulos
100
AcDbCircle
 10
156.0652271315077
 20
231.2891679860446
 30
0.0
 40
7.0
  0
ARC
  5
D3
330
1F
100
AcDbEntity
  8
Modulos
100
AcDbCircle
 10
300.6762151200468
 20
231.2891679860446
 30
0.0
 40
18.5
100
AcDbArc
 50
197.2953446288583
 51
162.7046553711415
  0
POLYLINE
  5
D4
330
1F
100
AcDbEntity
  8
Modulos
100
AcDb2dPolyline
 66
     1
 10
0.0
 20
0.0
 30
0.0
  0
VERTEX
  5
D5
330
D4
100
AcDbEntity
  8
Modulos
100
AcDbVertex
100
AcDb2dVertex
 10
283.0126933873911
 20
236.7891679860446
 30
0.0
  0
VERTEX
  5
D6
330
D4
100
AcDbEntity
  8
Modulos
100
AcDbVertex
100
AcDb2dVertex
 10
173.7287488641634
 20
236.7891679860446
 30
0.0
  0
SEQEND
  5
D7
330
D4
100
AcDbEntity
  8
Modulos
  0
ARC
  5
D8
330
1F
100
AcDbEntity
  8
Modulos
100
AcDbCircle
 10
156.0652271315077
 20
231.2891679860446
 30
0.0
 40
18.5
100
AcDbArc
 50
17.29534462885838
 51
342.7046553711417
  0
POLYLINE
  5
D9
330
1F
100
AcDbEntity
  8
Modulos
100
AcDb2dPolyline
 66
     1
 10
0.0
 20
0.0
 30
0.0
  0
VERTEX
  5
DA
330
D9
100
AcDbEntity
  8
Modulos
100
AcDbVertex
100
AcDb2dVertex
 10
173.7287488641634
 20
225.7891679860446
 30
0.0
  0
VERTEX
  5
DB
330
D9
100
AcDbEntity
  8
Modulos
100
AcDbVertex
100
AcDb2dVertex
 10
283.0126933873911
 20
225.7891679860446
 30
0.0
  0
SEQEND
  5
DC
330
D9
100
AcDbEntity
  8
Modulos
  0
CIRCLE
  5
DD
330
1F
100
AcDbEntity
  8
Modulos
100
AcDbCircle
 10
300.6762151200468
 20
231.2891679860446
 30
0.0
 40
7.0
  0
CIRCLE
  5
DE
330
1F
100
AcDbEntity
  8
Modulos
100
AcDbCircle
 10
300.6762151200468
 20
231.2891679860446
 30
0.0
 40
7.0
  0
CIRCLE
  5
DF
330
1F
100
AcDbEntity
  8
Modulos
100
AcDbCircle
 10
226.3480159295626
 20
27.43449523927313
 30
0.0
 40
7.0
  0
CIRCLE
  5
E0
330
1F
100
AcDbEntity
  8
Modulos
100
AcDbCircle
 10
226.3480159295626
 20
27.43449523927313
 30
0.0
 40
7.0
  0
POLYLINE
  5
E1
330
1F
100
AcDbEntity
  8
Modulos
100
AcDb2dPolyline
 66
     1
 10
0.0
 20
0.0
 30
0.0
  0
VERTEX
  5
E2
330
E1
100
AcDbEntity
  8
Modulos
100
AcDbVertex
100
AcDb2dVertex
 10
208.6844941969023
 20
32.93449523925857
 30
0.0
  0
VERTEX
  5
E3
330
E1
100
AcDbEntity
  8
Modulos
100
AcDbVertex
100
AcDb2dVertex
 10
135.8271447595612
 20
32.93449523927313
 30
0.0
  0
SEQEND
  5
E4
330
E1
100
AcDbEntity
  8
Modulos
  0
ARC
  5
E5
330
1F
100
AcDbEntity
  8
Modulos
100
AcDbCircle
 10
118.1636230269055
 20
27.43449523927313
 30
0.0
 40
18.5
100
AcDbArc
 50
17.29534462885838
 51
342.7046553711417
  0
POLYLINE
  5
E6
330
1F
100
AcDbEntity
  8
Modulos
100
AcDb2dPolyline
 66
     1
 10
0.0
 20
0.0
 30
0.0
  0
VERTEX
  5
E7
330
E6
100
AcDbEntity
  8
Modulos
100
AcDbVertex
100
AcDb2dVertex
 10
135.8271447595612
 20
21.93449523927314
 30
0.0
  0
VERTEX
  5
E8
330
E6
100
AcDbEntity
  8
Modulos
100
AcDbVertex
100
AcDb2dVertex
 10
208.6844941969114
 20
21.93449523925858
 30
0.0
  0
SEQEND
  5
E9
330
E6
100
AcDbEntity
  8
Modulos
  0
ARC
  5
EA
330
1F
100
AcDbEntity
  8
Modulos
100
AcDbCircle
 10
226.3480159295626
 20
27.43449523927313
 30
0.0
 40
18.5
100
AcDbArc
 50
197.2953446289056
 51
162.7046553711889
  0
CIRCLE
  5
EB
330
1F
100
AcDbEntity
  8
Modulos
100
AcDbCircle
 10
118.1636230269055
 20
27.43449523927313
 30
0.0
 40
7.0
  0
CIRCLE
  5
EC
330
1F
100
AcDbEntity
  8
Modulos
100
AcDbCircle
 10
-31.96447405385548
 20
54.32356780735228
 30
0.0
 40
7.0
  0
CIRCLE
  5
ED
330
1F
100
AcDbEntity
  8
Modulos
100
AcDbCircle
 10
38.95879888014457
 20
54.32356780735228
 30
0.0
 40
7.0
  0
CIRCLE
  5
EE
330
1F
100
AcDbEntity
  8
Modulos
100
AcDbCircle
 10
38.95879888014457
 20
54.32356780735228
 30
0.0
 40
7.0
  0
POLYLINE
  5
EF
330
1F
100
AcDbEntity
  8
Modulos
100
AcDb2dPolyline
 66
     1
 10
0.0
 20
0.0
 30
0.0
  0
VERTEX
  5
F0
330
EF
100
AcDbEntity
  8
Modulos
100
AcDbVertex
100
AcDb2dVertex
 10
21.29527714748889
 20
59.82356780735229
 30
0.0
  0
VERTEX
  5
F1
330
EF
100
AcDbEntity
  8
Modulos
100
AcDbVertex
100
AcDb2dVertex
 10
-14.30095232119979
 20
59.82356780735228
 30
0.0
  0
SEQEND
  5
F2
330
EF
100
AcDbEntity
  8
Modulos
  0
ARC
  5
F3
330
1F
100
AcDbEntity
  8
Modulos
100
AcDbCircle
 10
-31.96447405385548
 20
54.32356780735228
 30
0.0
 40
18.5
100
AcDbArc
 50
17.29534462885837
 51
342.7046553711417
  0
POLYLINE
  5
F4
330
1F
100
AcDbEntity
  8
Modulos
100
AcDb2dPolyline
 66
     1
 10
0.0
 20
0.0
 30
0.0
  0
VERTEX
  5
F5
330
F4
100
AcDbEntity
  8
Modulos
100
AcDbVertex
100
AcDb2dVertex
 10
-14.30095232119978
 20
48.82356780735229
 30
0.0
  0
VERTEX
  5
F6
330
F4
100
AcDbEntity
  8
Modulos
100
AcDbVertex
100
AcDb2dVertex
 10
21.29527714748887
 20
48.82356780735228
 30
0.0
  0
SEQEND
  5
F7
330
F4
100
AcDbEntity
  8
Modulos
  0
ARC
  5
F8
330
1F
100
AcDbEntity
  8
Modulos
100
AcDbCircle
 10
38.95879888014457
 20
54.32356780735228
 30
0.0
 40
18.5
100
AcDbArc
 50
197.2953446288584
 51
162.7046553711416
  0
CIRCLE
  5
F9
330
1F
100
AcDbEntity
  8
Modulos
100
AcDbCircle
 10
80.20729354666088
 20
54.32356780735228
 30
0.0
 40
7.0
  0
CIRCLE
  5
FA
330
1F
100
AcDbEntity
  8
Modulos
100
AcDbCircle
 10
151.1305664806609
 20
54.32356780735228
 30
0.0
 40
7.0
  0
CIRCLE
  5
FB
330
1F
100
AcDbEntity
  8
Modulos
100
AcDbCircle
 10
151.1305664806609
 20
54.32356780735228
 30
0.0
 40
7.0
  0
POLYLINE
  5
FC
330
1F
100
AcDbEntity
  8
Modulos
100
AcDb2dPolyline
 66
     1
 10
0.0
 20
0.0
 30
0.0
  0
VERTEX
  5
FD
330
FC
100
AcDbEntity
  8
Modulos
100
AcDbVertex
100
AcDb2dVertex
 10
133.4670447480053
 20
59.82356780735229
 30
0.0
  0
VERTEX
  5
FE
330
FC
100
AcDbEntity
  8
Modulos
100
AcDbVertex
100
AcDb2dVertex
 10
97.87081527931657
 20
59.82356780735228
 30
0.0
  0
SEQEND
  5
FF
330
FC
100
AcDbEntity
  8
Modulos
  0
ARC
  5
100
330
1F
100
AcDbEntity
  8
Modulos
100
AcDbCircle
 10
80.20729354666088
 20
54.32356780735228
 30
0.0
 40
18.5
100
AcDbArc
 50
17.29534462885837
 51
342.7046553711417
  0
POLYLINE
  5
101
330
1F
100
AcDbEntity
  8
Modulos
100
AcDb2dPolyline
 66
     1
 10
0.0
 20
0.0
 30
0.0
  0
VERTEX
  5
102
330
101
100
AcDbEntity
  8
Modulos
100
AcDbVertex
100
AcDb2dVertex
 10
97.87081527931657
 20
48.82356780735229
 30
0.0
  0
VERTEX
  5
103
330
101
100
AcDbEntity
  8
Modulos
100
AcDbVertex
100
AcDb2dVertex
 10
133.4670447480052
 20
48.82356780735228
 30
0.0
  0
SEQEND
  5
104
330
101
100
AcDbEntity
  8
Modulos
  0
ARC
  5
105
330
1F
100
AcDbEntity
  8
Modulos
100
AcDbCircle
 10
151.1305664806609
 20
54.32356780735228
 30
0.0
 40
18.5
100
AcDbArc
 50
197.2953446288584
 51
162.7046553711416
  0
POLYLINE
  5
106
330
1F
100
AcDbEntity
  8
Modulos
100
AcDb2dPolyline
 66
     1
 10
0.0
 20
0.0
 30
0.0
  0
VERTEX
  5
107
330
106
100
AcDbEntity
  8
Modulos
100
AcDbVertex
100
AcDb2dVertex
 10
246.0998271033796
 20
59.82356780735229
 30
0.0
  0
VERTEX
  5
108
330
106
100
AcDbEntity
  8
Modulos
100
AcDbVertex
100
AcDb2dVertex
 10
210.5035976346909
 20
59.82356780735228
 30
0.0
  0
SEQEND
  5
109
330
106
100
AcDbEntity
  8
Modulos
  0
ARC
  5
10A
330
1F
100
AcDbEntity
  8
Modulos
100
AcDbCircle
 10
192.8400759020352
 20
54.32356780735228
 30
0.0
 40
18.5
100
AcDbArc
 50
17.29534462885838
 51
342.7046553711417
  0
POLYLINE
  5
10B
330
1F
100
AcDbEntity
  8
Modulos
100
AcDb2dPolyline
 66
     1
 10
0.0
 20
0.0
 30
0.0
  0
VERTEX
  5
10C
330
10B
100
AcDbEntity
  8
Modulos
100
AcDbVertex
100
AcDb2dVertex
 10
210.5035976346909
 20
48.82356780735229
 30
0.0
  0
VERTEX
  5
10D
330
10B
100
AcDbEntity
  8
Modulos
100
AcDbVertex
100
AcDb2dVertex
 10
246.0998271033796
 20
48.82356780735228
 30
0.0
  0
SEQEND
  5
10E
330
10B
100
AcDbEntity
  8
Modulos
  0
ARC
  5
10F
330
1F
100
AcDbEntity
  8
Modulos
100
AcDbCircle
 10
263.7633488360353
 20
54.32356780735228
 30
0.0
 40
18.5
100
AcDbArc
 50
197.2953446288584
 51
162.7046553711416
  0
CIRCLE
  5
110
330
1F
100
AcDbEntity
  8
Modulos
100
AcDbCircle
 10
263.7633488360353
 20
54.32356780735228
 30
0.0
 40
7.0
  0
CIRCLE
  5
111
330
1F
100
AcDbEntity
  8
Modulos
100
AcDbCircle
 10
263.7633488360353
 20
54.32356780735228
 30
0.0
 40
7.0
  0
CIRCLE
  5
112
330
1F
100
AcDbEntity
  8
Modulos
100
AcDbCircle
 10
192.8400759020352
 20
54.32356780735228
 30
0.0
 40
7.0
  0
CIRCLE
  5
113
330
1F
100
AcDbEntity
  8
Modulos
100
AcDbCircle
 10
192.8400759020352
 20
95.5106415816422
 30
0.0
 40
7.0
  0
CIRCLE
  5
114
330
1F
100
AcDbEntity
  8
Modulos
100
AcDbCircle
 10
263.7633488360353
 20
95.5106415816422
 30
0.0
 40
7.0
  0
CIRCLE
  5
115
330
1F
100
AcDbEntity
  8
Modulos
100
AcDbCircle
 10
263.7633488360353
 20
95.5106415816422
 30
0.0
 40
7.0
  0
POLYLINE
  5
116
330
1F
100
AcDbEntity
  8
Modulos
100
AcDb2dPolyline
 66
     1
 10
0.0
 20
0.0
 30
0.0
  0
VERTEX
  5
117
330
116
100
AcDbEntity
  8
Modulos
100
AcDbVertex
100
AcDb2dVertex
 10
246.0998271033796
 20
101.0106415816422
 30
0.0
  0
VERTEX
  5
118
330
116
100
AcDbEntity
  8
Modulos
100
AcDbVertex
100
AcDb2dVertex
 10
210.5035976346909
 20
101.0106415816422
 30
0.0
  0
SEQEND
  5
119
330
116
100
AcDbEntity
  8
Modulos
  0
ARC
  5
11A
330
1F
100
AcDbEntity
  8
Modulos
100
AcDbCircle
 10
192.8400759020352
 20
95.5106415816422
 30
0.0
 40
18.5
100
AcDbArc
 50
17.29534462885838
 51
342.7046553711417
  0
POLYLINE
  5
11B
330
1F
100
AcDbEntity
  8
Modulos
100
AcDb2dPolyline
 66
     1
 10
0.0
 20
0.0
 30
0.0
  0
VERTEX
  5
11C
330
11B
100
AcDbEntity
  8
Modulos
100
AcDbVertex
100
AcDb2dVertex
 10
210.5035976346909
 20
90.0106415816422
 30
0.0
  0
VERTEX
  5
11D
330
11B
100
AcDbEntity
  8
Modulos
100
AcDbVertex
100
AcDb2dVertex
 10
246.0998271033796
 20
90.0106415816422
 30
0.0
  0
SEQEND
  5
11E
330
11B
100
AcDbEntity
  8
Modulos
  0
ARC
  5
11F
330
1F
100
AcDbEntity
  8
Modulos
100
AcDbCircle
 10
263.7633488360353
 20
95.5106415816422
 30
0.0
 40
18.5
100
AcDbArc
 50
197.2953446288584
 51
162.7046553711416
  0
POLYLINE
  5
120
330
1F
100
AcDbEntity
  8
Modulos
100
AcDb2dPolyline
 66
     1
 10
0.0
 20
0.0
 30
0.0
  0
VERTEX
  5
121
330
120
100
AcDbEntity
  8
Modulos
100
AcDbVertex
100
AcDb2dVertex
 10
133.4670447480053
 20
101.0106415816422
 30
0.0
  0
VERTEX
  5
122
330
120
100
AcDbEntity
  8
Modulos
100
AcDbVertex
100
AcDb2dVertex
 10
97.87081527931657
 20
101.0106415816422
 30
0.0
  0
SEQEND
  5
123
330
120
100
AcDbEntity
  8
Modulos
  0
ARC
  5
124
330
1F
100
AcDbEntity
  8
Modulos
100
AcDbCircle
 10
80.20729354666088
 20
95.5106415816422
 30
0.0
 40
18.5
100
AcDbArc
 50
17.29534462885837
 51
342.7046553711417
  0
POLYLINE
  5
125
330
1F
100
AcDbEntity
  8
Modulos
100
AcDb2dPolyline
 66
     1
 10
0.0
 20
0.0
 30
0.0
  0
VERTEX
  5
126
330
125
100
AcDbEntity
  8
Modulos
100
AcDbVertex
100
AcDb2dVertex
 10
97.87081527931657
 20
90.0106415816422
 30
0.0
  0
VERTEX
  5
127
330
125
100
AcDbEntity
  8
Modulos
100
AcDbVertex
100
AcDb2dVertex
 10
133.4670447480052
 20
90.0106415816422
 30
0.0
  0
SEQEND
  5
128
330
125
100
AcDbEntity
  8
Modulos
  0
ARC
  5
129
330
1F
100
AcDbEntity
  8
Modulos
100
AcDbCircle
 10
151.1305664806609
 20
95.5106415816422
 30
0.0
 40
18.5
100
AcDbArc
 50
197.2953446288584
 51
162.7046553711416
  0
CIRCLE
  5
12A
330
1F
100
AcDbEntity
  8
Modulos
100
AcDbCircle
 10
151.1305664806609
 20
95.5106415816422
 30
0.0
 40
7.0
  0
CIRCLE
  5
12B
330
1F
100
AcDbEntity
  8
Modulos
100
AcDbCircle
 10
151.1305664806609
 20
95.5106415816422
 30
0.0
 40
7.0
  0
CIRCLE
  5
12C
330
1F
100
AcDbEntity
  8
Modulos
100
AcDbCircle
 10
80.20729354666088
 20
95.5106415816422
 30
0.0
 40
7.0
  0
POLYLINE
  5
12D
330
1F
100
AcDbEntity
  8
Modulos
100
AcDb2dPolyline
 66
     1
 10
0.0
 20
0.0
 30
0.0
  0
VERTEX
  5
12E
330
12D
100
AcDbEntity
  8
Modulos
100
AcDbVertex
100
AcDb2dVertex
 10
21.29527714748889
 20
101.0106415816422
 30
0.0
  0
VERTEX
  5
12F
330
12D
100
AcDbEntity
  8
Modulos
100
AcDbVertex
100
AcDb2dVertex
 10
-14.30095232119979
 20
101.0106415816422
 30
0.0
  0
SEQEND
  5
130
330
12D
100
AcDbEntity
  8
Modulos
  0
ARC
  5
131
330
1F
100
AcDbEntity
  8
Modulos
100
AcDbCircle
 10
-31.96447405385548
 20
95.5106415816422
 30
0.0
 40
18.5
100
AcDbArc
 50
17.29534462885837
 51
342.7046553711417
  0
POLYLINE
  5
132
330
1F
100
AcDbEntity
  8
Modulos
100
AcDb2dPolyline
 66
     1
 10
0.0
 20
0.0
 30
0.0
  0
VERTEX
  5
133
330
132
100
AcDbEntity
  8
Modulos
100
AcDbVertex
100
AcDb2dVertex
 10
-14.30095232119978
 20
90.0106415816422
 30
0.0
  0
VERTEX
  5
134
330
132
100
AcDbEntity
  8
Modulos
100
AcDbVertex
100
AcDb2dVertex
 10
21.29527714748887
 20
90.0106415816422
 30
0.0
  0
SEQEND
  5
135
330
132
100
AcDbEntity
  8
Modulos
  0
ARC
  5
136
330
1F
100
AcDbEntity
  8
Modulos
100
AcDbCircle
 10
38.95879888014457
 20
95.5106415816422
 30
0.0
 40
18.5
100
AcDbArc
 50
197.2953446288584
 51
162.7046553711416
  0
CIRCLE
  5
137
330
1F
100
AcDbEntity
  8
Modulos
100
AcDbCircle
 10
38.95879888014457
 20
95.5106415816422
 30
0.0
 40
7.0
  0
CIRCLE
  5
138
330
1F
100
AcDbEntity
  8
Modulos
100
AcDbCircle
 10
38.95879888014457
 20
95.5106415816422
 30
0.0
 40
7.0
  0
CIRCLE
  5
139
330
1F
100
AcDbEntity
  8
Modulos
100
AcDbCircle
 10
-31.96447405385548
 20
95.5106415816422
 30
0.0
 40
7.0
  0
CIRCLE
  5
13A
330
1F
100
AcDbEntity
  8
Modulos
100
AcDbCircle
 10
-31.96447405385548
 20
135.7756858462161
 30
0.0
 40
7.0
  0
CIRCLE
  5
13B
330
1F
100
AcDbEntity
  8
Modulos
100
AcDbCircle
 10
38.95879888014457
 20
135.7756858462161
 30
0.0
 40
7.0
  0
CIRCLE
  5
13C
330
1F
100
AcDbEntity
  8
Modulos
100
AcDbCircle
 10
38.95879888014457
 20
135.7756858462161
 30
0.0
 40
7.0
  0
POLYLINE
  5
13D
330
1F
100
AcDbEntity
  8
Modulos
100
AcDb2dPolyline
 66
     1
 10
0.0
 20
0.0
 30
0.0
  0
VERTEX
  5
13E
330
13D
100
AcDbEntity
  8
Modulos
100
AcDbVertex
100
AcDb2dVertex
 10
21.29527714748889
 20
141.2756858462161
 30
0.0
  0
VERTEX
  5
13F
330
13D
100
AcDbEntity
  8
Modulos
100
AcDbVertex
100
AcDb2dVertex
 10
-14.30095232119979
 20
141.2756858462161
 30
0.0
  0
SEQEND
  5
140
330
13D
100
AcDbEntity
  8
Modulos
  0
ARC
  5
141
330
1F
100
AcDbEntity
  8
Modulos
100
AcDbCircle
 10
-31.96447405385548
 20
135.7756858462161
 30
0.0
 40
18.5
100
AcDbArc
 50
17.29534462885837
 51
342.7046553711418
  0
POLYLINE
  5
142
330
1F
100
AcDbEntity
  8
Modulos
100
AcDb2dPolyline
 66
     1
 10
0.0
 20
0.0
 30
0.0
  0
VERTEX
  5
143
330
142
100
AcDbEntity
  8
Modulos
100
AcDbVertex
100
AcDb2dVertex
 10
-14.30095232119978
 20
130.2756858462161
 30
0.0
  0
VERTEX
  5
144
330
142
100
AcDbEntity
  8
Modulos
100
AcDbVertex
100
AcDb2dVertex
 10
21.29527714748887
 20
130.2756858462161
 30
0.0
  0
SEQEND
  5
145
330
142
100
AcDbEntity
  8
Modulos
  0
ARC
  5
146
330
1F
100
AcDbEntity
  8
Modulos
100
AcDbCircle
 10
38.95879888014457
 20
135.7756858462161
 30
0.0
 40
18.5
100
AcDbArc
 50
197.2953446288584
 51
162.7046553711415
  0
CIRCLE
  5
147
330
1F
100
AcDbEntity
  8
Modulos
100
AcDbCircle
 10
80.20729354666088
 20
135.7756858462161
 30
0.0
 40
7.0
  0
CIRCLE
  5
148
330
1F
100
AcDbEntity
  8
Modulos
100
AcDbCircle
 10
151.1305664806609
 20
135.7756858462161
 30
0.0
 40
7.0
  0
CIRCLE
  5
149
330
1F
100
AcDbEntity
  8
Modulos
100
AcDbCircle
 10
151.1305664806609
 20
135.7756858462161
 30
0.0
 40
7.0
  0
POLYLINE
  5
14A
330
1F
100
AcDbEntity
  8
Modulos
100
AcDb2dPolyline
 66
     1
 10
0.0
 20
0.0
 30
0.0
  0
VERTEX
  5
14B
330
14A
100
AcDbEntity
  8
Modulos
100
AcDbVertex
100
AcDb2dVertex
 10
133.4670447480053
 20
141.2756858462161
 30
0.0
  0
VERTEX
  5
14C
330
14A
100
AcDbEntity
  8
Modulos
100
AcDbVertex
100
AcDb2dVertex
 10
97.87081527931657
 20
141.2756858462161
 30
0.0
  0
SEQEND
  5
14D
330
14A
100
AcDbEntity
  8
Modulos
  0
ARC
  5
14E
330
1F
100
AcDbEntity
  8
Modulos
100
AcDbCircle
 10
80.20729354666088
 20
135.7756858462161
 30
0.0
 40
18.5
100
AcDbArc
 50
17.29534462885837
 51
342.7046553711418
  0
POLYLINE
  5
14F
330
1F
100
AcDbEntity
  8
Modulos
100
AcDb2dPolyline
 66
     1
 10
0.0
 20
0.0
 30
0.0
  0
VERTEX
  5
150
330
14F
100
AcDbEntity
  8
Modulos
100
AcDbVertex
100
AcDb2dVertex
 10
97.87081527931657
 20
130.2756858462161
 30
0.0
  0
VERTEX
  5
151
330
14F
100
AcDbEntity
  8
Modulos
100
AcDbVertex
100
AcDb2dVertex
 10
133.4670447480052
 20
130.2756858462161
 30
0.0
  0
SEQEND
  5
152
330
14F
100
AcDbEntity
  8
Modulos
  0
ARC
  5
153
330
1F
100
AcDbEntity
  8
Modulos
100
AcDbCircle
 10
151.1305664806609
 20
135.7756858462161
 30
0.0
 40
18.5
100
AcDbArc
 50
197.2953446288584
 51
162.7046553711415
  0
POLYLINE
  5
154
330
1F
100
AcDbEntity
  8
Modulos
100
AcDb2dPolyline
 66
     1
 10
0.0
 20
0.0
 30
0.0
  0
VERTEX
  5
155
330
154
100
AcDbEntity
  8
Modulos
100
AcDbVertex
100
AcDb2dVertex
 10
246.0998271033796
 20
141.2756858462161
 30
0.0
  0
VERTEX
  5
156
330
154
100
AcDbEntity
  8
Modulos
100
AcDbVertex
100
AcDb2dVertex
 10
210.5035976346909
 20
141.2756858462161
 30
0.0
  0
SEQEND
  5
157
330
154
100
AcDbEntity
  8
Modulos
  0
ARC
  5
158
330
1F
100
AcDbEntity
  8
Modulos
100
AcDbCircle
 10
192.8400759020352
 20
135.7756858462161
 30
0.0
 40
18.5
100
AcDbArc
 50
17.29534462885838
 51
342.7046553711418
  0
POLYLINE
  5
159
330
1F
100
AcDbEntity
  8
Modulos
100
AcDb2dPolyline
 66
     1
 10
0.0
 20
0.0
 30
0.0
  0
VERTEX
  5
15A
330
159
100
AcDbEntity
  8
Modulos
100
AcDbVertex
100
AcDb2dVertex
 10
210.5035976346909
 20
130.2756858462161
 30
0.0
  0
VERTEX
  5
15B
330
159
100
AcDbEntity
  8
Modulos
100
AcDbVertex
100
AcDb2dVertex
 10
246.0998271033796
 20
130.2756858462161
 30
0.0
  0
SEQEND
  5
15C
330
159
100
AcDbEntity
  8
Modulos
  0
ARC
  5
15D
330
1F
100
AcDbEntity
  8
Modulos
100
AcDbCircle
 10
263.7633488360353
 20
135.7756858462161
 30
0.0
 40
18.5
100
AcDbArc
 50
197.2953446288584
 51
162.7046553711415
  0
CIRCLE
  5
15E
330
1F
100
AcDbEntity
  8
Modulos
100
AcDbCircle
 10
263.7633488360353
 20
135.7756858462161
 30
0.0
 40
7.0
  0
CIRCLE
  5
15F
330
1F
100
AcDbEntity
  8
Modulos
100
AcDbCircle
 10
263.7633488360353
 20
135.7756858462161
 30
0.0
 40
7.0
  0
CIRCLE
  5
160
330
1F
100
AcDbEntity
  8
Modulos
100
AcDbCircle
 10
192.8400759020352
 20
135.7756858462161
 30
0.0
 40
7.0
  0
CIRCLE
  5
161
330
1F
100
AcDbEntity
  8
Modulos
100
AcDbCircle
 10
192.8400759020352
 20
176.2669315685668
 30
0.0
 40
7.0
  0
CIRCLE
  5
162
330
1F
100
AcDbEntity
  8
Modulos
100
AcDbCircle
 10
263.7633488360353
 20
176.2669315685668
 30
0.0
 40
7.0
  0
CIRCLE
  5
163
330
1F
100
AcDbEntity
  8
Modulos
100
AcDbCircle
 10
263.7633488360353
 20
176.2669315685668
 30
0.0
 40
7.0
  0
POLYLINE
  5
164
330
1F
100
AcDbEntity
  8
Modulos
100
AcDb2dPolyline
 66
     1
 10
0.0
 20
0.0
 30
0.0
  0
VERTEX
  5
165
330
164
100
AcDbEntity
  8
Modulos
100
AcDbVertex
100
AcDb2dVertex
 10
246.0998271033796
 20
181.7669315685669
 30
0.0
  0
VERTEX
  5
166
330
164
100
AcDbEntity
  8
Modulos
100
AcDbVertex
100
AcDb2dVertex
 10
210.5035976346909
 20
181.7669315685668
 30
0.0
  0
SEQEND
  5
167
330
164
100
AcDbEntity
  8
Modulos
  0
ARC
  5
168
330
1F
100
AcDbEntity
  8
Modulos
100
AcDbCircle
 10
192.8400759020352
 20
176.2669315685668
 30
0.0
 40
18.5
100
AcDbArc
 50
17.29534462885838
 51
342.7046553711418
  0
POLYLINE
  5
169
330
1F
100
AcDbEntity
  8
Modulos
100
AcDb2dPolyline
 66
     1
 10
0.0
 20
0.0
 30
0.0
  0
VERTEX
  5
16A
330
169
100
AcDbEntity
  8
Modulos
100
AcDbVertex
100
AcDb2dVertex
 10
210.5035976346909
 20
170.7669315685669
 30
0.0
  0
VERTEX
  5
16B
330
169
100
AcDbEntity
  8
Modulos
100
AcDbVertex
100
AcDb2dVertex
 10
246.0998271033796
 20
170.7669315685668
 30
0.0
  0
SEQEND
  5
16C
330
169
100
AcDbEntity
  8
Modulos
  0
ARC
  5
16D
330
1F
100
AcDbEntity
  8
Modulos
100
AcDbCircle
 10
263.7633488360353
 20
176.2669315685668
 30
0.0
 40
18.5
100
AcDbArc
 50
197.2953446288584
 51
162.7046553711415
  0
CIRCLE
  5
16E
330
1F
100
AcDbEntity
  8
Modulos
100
AcDbCircle
 10
122.415938763806
 20
203.6743125038288
 30
0.0
 40
7.0
  0
POLYLINE
  5
16F
330
1F
100
AcDbEntity
  8
Modulos
100
AcDb2dPolyline
 66
     1
 10
0.0
 20
0.0
 30
0.0
  0
VERTEX
  5
170
330
16F
100
AcDbEntity
  8
Modulos
100
AcDbVertex
100
AcDb2dVertex
 10
212.9368099338027
 20
209.1743125038143
 30
0.0
  0
VERTEX
  5
171
330
16F
100
AcDbEntity
  8
Modulos
100
AcDbVertex
100
AcDb2dVertex
 10
140.0794604964617
 20
209.1743125038288
 30
0.0
  0
SEQEND
  5
172
330
16F
100
AcDbEntity
  8
Modulos
  0
ARC
  5
173
330
1F
100
AcDbEntity
  8
Modulos
100
AcDbCircle
 10
122.415938763806
 20
203.6743125038288
 30
0.0
 40
18.5
100
AcDbArc
 50
17.29534462885837
 51
342.7046553711417
  0
POLYLINE
  5
174
330
1F
100
AcDbEntity
  8
Modulos
100
AcDb2dPolyline
 66
     1
 10
0.0
 20
0.0
 30
0.0
  0
VERTEX
  5
175
330
174
100
AcDbEntity
  8
Modulos
100
AcDbVertex
100
AcDb2dVertex
 10
140.0794604964617
 20
198.1743125038289
 30
0.0
  0
VERTEX
  5
176
330
174
100
AcDbEntity
  8
Modulos
100
AcDbVertex
100
AcDb2dVertex
 10
212.9368099338118
 20
198.1743125038143
 30
0.0
  0
SEQEND
  5
177
330
174
100
AcDbEntity
  8
Modulos
  0
ARC
  5
178
330
1F
100
AcDbEntity
  8
Modulos
100
AcDbCircle
 10
230.600331666463
 20
203.6743125038288
 30
0.0
 40
18.5
100
AcDbArc
 50
197.2953446289056
 51
162.7046553711889
  0
CIRCLE
  5
179
330
1F
100
AcDbEntity
  8
Modulos
100
AcDbCircle
 10
230.600331666463
 20
203.6743125038288
 30
0.0
 40
7.0
  0
CIRCLE
  5
17A
330
1F
100
AcDbEntity
  8
Modulos
100
AcDbCircle
 10
230.600331666463
 20
203.6743125038288
 30
0.0
 40
7.0
  0
POLYLINE
  5
17B
330
1F
100
AcDbEntity
  8
Modulos
100
AcDb2dPolyline
 66
     1
 10
0.0
 20
0.0
 30
0.0
  0
VERTEX
  5
17C
330
17B
100
AcDbEntity
  8
Modulos
100
AcDbVertex
100
AcDb2dVertex
 10
133.4670447480053
 20
181.7669315685669
 30
0.0
  0
VERTEX
  5
17D
330
17B
100
AcDbEntity
  8
Modulos
100
AcDbVertex
100
AcDb2dVertex
 10
97.87081527931657
 20
181.7669315685668
 30
0.0
  0
SEQEND
  5
17E
330
17B
100
AcDbEntity
  8
Modulos
  0
ARC
  5
17F
330
1F
100
AcDbEntity
  8
Modulos
100
AcDbCircle
 10
80.20729354666088
 20
176.2669315685668
 30
0.0
 40
18.5
100
AcDbArc
 50
17.29534462885837
 51
342.7046553711418
  0
POLYLINE
  5
180
330
1F
100
AcDbEntity
  8
Modulos
100
AcDb2dPolyline
 66
     1
 10
0.0
 20
0.0
 30
0.0
  0
VERTEX
  5
181
330
180
100
AcDbEntity
  8
Modulos
100
AcDbVertex
100
AcDb2dVertex
 10
97.87081527931657
 20
170.7669315685669
 30
0.0
  0
VERTEX
  5
182
330
180
100
AcDbEntity
  8
Modulos
100
AcDbVertex
100
AcDb2dVertex
 10
133.4670447480052
 20
170.7669315685668
 30
0.0
  0
SEQEND
  5
183
330
180
100
AcDbEntity
  8
Modulos
  0
ARC
  5
184
330
1F
100
AcDbEntity
  8
Modulos
100
AcDbCircle
 10
151.1305664806609
 20
176.2669315685668
 30
0.0
 40
18.5
100
AcDbArc
 50
197.2953446288584
 51
162.7046553711415
  0
CIRCLE
  5
185
330
1F
100
AcDbEntity
  8
Modulos
100
AcDbCircle
 10
151.1305664806609
 20
176.2669315685668
 30
0.0
 40
7.0
  0
CIRCLE
  5
186
330
1F
100
AcDbEntity
  8
Modulos
100
AcDbCircle
 10
151.1305664806609
 20
176.2669315685668
 30
0.0
 40
7.0
  0
CIRCLE
  5
187
330
1F
100
AcDbEntity
  8
Modulos
100
AcDbCircle
 10
80.20729354666088
 20
176.2669315685668
 30
0.0
 40
7.0
  0
CIRCLE
  5
188
330
1F
100
AcDbEntity
  8
Modulos
100
AcDbCircle
 10
-31.99973157803429
 20
216.1678519732332
 30
0.0
 40
7.0
  0
POLYLINE
  5
189
330
1F
100
AcDbEntity
  8
Modulos
100
AcDb2dPolyline
 66
     1
 10
0.0
 20
0.0
 30
0.0
  0
VERTEX
  5
18A
330
189
100
AcDbEntity
  8
Modulos
100
AcDbVertex
100
AcDb2dVertex
 10
58.52113959196249
 20
221.6678519732186
 30
0.0
  0
VERTEX
  5
18B
330
189
100
AcDbEntity
  8
Modulos
100
AcDbVertex
100
AcDb2dVertex
 10
-14.3362098453786
 20
221.6678519732332
 30
0.0
  0
SEQEND
  5
18C
330
189
100
AcDbEntity
  8
Modulos
  0
ARC
  5
18D
330
1F
100
AcDbEntity
  8
Modulos
100
AcDbCircle
 10
-31.99973157803429
 20
216.1678519732332
 30
0.0
 40
18.5
100
AcDbArc
 50
17.29534462885837
 51
342.7046553711417
  0
POLYLINE
  5
18E
330
1F
100
AcDbEntity
  8
Modulos
100
AcDb2dPolyline
 66
     1
 10
0.0
 20
0.0
 30
0.0
  0
VERTEX
  5
18F
330
18E
100
AcDbEntity
  8
Modulos
100
AcDbVertex
100
AcDb2dVertex
 10
-14.33620984537859
 20
210.6678519732332
 30
0.0
  0
VERTEX
  5
190
330
18E
100
AcDbEntity
  8
Modulos
100
AcDbVertex
100
AcDb2dVertex
 10
58.52113959197156
 20
210.6678519732186
 30
0.0
  0
SEQEND
  5
191
330
18E
100
AcDbEntity
  8
Modulos
  0
ARC
  5
192
330
1F
100
AcDbEntity
  8
Modulos
100
AcDbCircle
 10
76.18466132462272
 20
216.1678519732332
 30
0.0
 40
18.5
100
AcDbArc
 50
197.2953446289056
 51
162.7046553711889
  0
CIRCLE
  5
193
330
1F
100
AcDbEntity
  8
Modulos
100
AcDbCircle
 10
76.18466132462272
 20
216.1678519732332
 30
0.0
 40
7.0
  0
CIRCLE
  5
194
330
1F
100
AcDbEntity
  8
Modulos
100
AcDbCircle
 10
76.18466132462272
 20
216.1678519732332
 30
0.0
 40
7.0
  0
POLYLINE
  5
195
330
1F
100
AcDbEntity
  8
Modulos
100
AcDb2dPolyline
 66
     1
 10
0.0
 20
0.0
 30
0.0
  0
VERTEX
  5
196
330
195
100
AcDbEntity
  8
Modulos
100
AcDbVertex
100
AcDb2dVertex
 10
21.29527714748889
 20
181.7669315685669
 30
0.0
  0
VERTEX
  5
197
330
195
100
AcDbEntity
  8
Modulos
100
AcDbVertex
100
AcDb2dVertex
 10
-14.30095232119979
 20
181.7669315685668
 30
0.0
  0
SEQEND
  5
198
330
195
100
AcDbEntity
  8
Modulos
  0
ARC
  5
199
330
1F
100
AcDbEntity
  8
Modulos
100
AcDbCircle
 10
-31.96447405385548
 20
176.2669315685668
 30
0.0
 40
18.5
100
AcDbArc
 50
17.29534462885837
 51
342.7046553711418
  0
POLYLINE
  5
19A
330
1F
100
AcDbEntity
  8
Modulos
100
AcDb2dPolyline
 66
     1
 10
0.0
 20
0.0
 30
0.0
  0
VERTEX
  5
19B
330
19A
100
AcDbEntity
  8
Modulos
100
AcDbVertex
100
AcDb2dVertex
 10
-14.30095232119978
 20
170.7669315685669
 30
0.0
  0
VERTEX
  5
19C
330
19A
100
AcDbEntity
  8
Modulos
100
AcDbVertex
100
AcDb2dVertex
 10
21.29527714748887
 20
170.7669315685668
 30
0.0
  0
SEQEND
  5
19D
330
19A
100
AcDbEntity
  8
Modulos
  0
ARC
  5
19E
330
1F
100
AcDbEntity
  8
Modulos
100
AcDbCircle
 10
38.95879888014457
 20
176.2669315685668
 30
0.0
 40
18.5
100
AcDbArc
 50
197.2953446288584
 51
162.7046553711415
  0
CIRCLE
  5
19F
330
1F
100
AcDbEntity
  8
Modulos
100
AcDbCircle
 10
38.95879888014457
 20
176.2669315685668
 30
0.0
 40
7.0
  0
CIRCLE
  5
1A0
330
1F
100
AcDbEntity
  8
Modulos
100
AcDbCircle
 10
38.95879888014457
 20
176.2669315685668
 30
0.0
 40
7.0
  0
CIRCLE
  5
1A1
330
1F
100
AcDbEntity
  8
Modulos
100
AcDbCircle
 10
-31.96447405385548
 20
176.2669315685668
 30
0.0
 40
7.0
  0
CIRCLE
  5
1A2
330
1F
100
AcDbEntity
  8
Modulos
100
AcDbCircle
 10
77.90126486529157
 20
14.52608210324962
 30
0.0
 40
7.0
  0
CIRCLE
  5
1A3
330
1F
100
AcDbEntity
  8
Modulos
100
AcDbCircle
 10
77.90126486529157
 20
14.52608210324962
 30
0.0
 40
7.0
  0
POLYLINE
  5
1A4
330
1F
100
AcDbEntity
  8
Modulos
100
AcDb2dPolyline
 66
     1
 10
0.0
 20
0.0
 30
0.0
  0
VERTEX
  5
1A5
330
1A4
100
AcDbEntity
  8
Modulos
100
AcDbVertex
100
AcDb2dVertex
 10
60.23774313263134
 20
20.02608210323506
 30
0.0
  0
VERTEX
  5
1A6
330
1A4
100
AcDbEntity
  8
Modulos
100
AcDbVertex
100
AcDb2dVertex
 10
-12.61960630470973
 20
20.02608210324962
 30
0.0
  0
SEQEND
  5
1A7
330
1A4
100
AcDbEntity
  8
Modulos
  0
ARC
  5
1A8
330
1F
100
AcDbEntity
  8
Modulos
100
AcDbCircle
 10
-30.28312803736544
 20
14.52608210324962
 30
0.0
 40
18.5
100
AcDbArc
 50
17.29534462885837
 51
342.7046553711417
  0
POLYLINE
  5
1A9
330
1F
100
AcDbEntity
  8
Modulos
100
AcDb2dPolyline
 66
     1
 10
0.0
 20
0.0
 30
0.0
  0
VERTEX
  5
1AA
330
1A9
100
AcDbEntity
  8
Modulos
100
AcDbVertex
100
AcDb2dVertex
 10
-12.61960630470973
 20
9.026082103249639
 30
0.0
  0
VERTEX
  5
1AB
330
1A9
100
AcDbEntity
  8
Modulos
100
AcDbVertex
100
AcDb2dVertex
 10
60.23774313264043
 20
9.02608210323508
 30
0.0
  0
SEQEND
  5
1AC
330
1A9
100
AcDbEntity
  8
Modulos
  0
ARC
  5
1AD
330
1F
100
AcDbEntity
  8
Modulos
100
AcDbCircle
 10
77.90126486529157
 20
14.52608210324962
 30
0.0
 40
18.5
100
AcDbArc
 50
197.2953446289056
 51
162.7046553711889
  0
CIRCLE
  5
1AE
330
1F
100
AcDbEntity
  8
Modulos
100
AcDbCircle
 10
-30.28312803736544
 20
14.52608210324962
 30
0.0
 40
7.0
  0
CIRCLE
  5
1AF
330
1F
100
AcDbEntity
  8
Modulos
100
AcDbCircle
 10
303.4602437127256
 20
190.9962312579409
 30
0.0
 40
7.0
  0
CIRCLE
  5
1B0
330
1F
100
AcDbEntity
  8
Modulos
100
AcDbCircle
 10
303.4602437127256
 20
190.9962312579409
 30
0.0
 40
7.0
  0
ARC
  5
1B1
330
1F
100
AcDbEntity
  8
Modulos
100
AcDbCircle
 10
303.4602437127256
 20
190.9962312579409
 30
0.0
 40
18.5
100
AcDbArc
 50
287.2953446288583
 51
252.7046553711416
  0
POLYLINE
  5
1B2
330
1F
100
AcDbEntity
  8
Modulos
100
AcDb2dPolyline
 66
     1
 10
0.0
 20
0.0
 30
0.0
  0
VERTEX
  5
1B3
330
1B2
100
AcDbEntity
  8
Modulos
100
AcDbVertex
100
AcDb2dVertex
 10
297.9602437127256
 20
173.3327095252852
 30
0.0
  0
VERTEX
  5
1B4
330
1B2
100
AcDbEntity
  8
Modulos
100
AcDbVertex
100
AcDb2dVertex
 10
297.9602437127256
 20
64.04876500205752
 30
0.0
  0
SEQEND
  5
1B5
330
1B2
100
AcDbEntity
  8
Modulos
  0
ARC
  5
1B6
330
1F
100
AcDbEntity
  8
Modulos
100
AcDbCircle
 10
303.4602437127256
 20
46.38524326940181
 30
0.0
 40
18.5
100
AcDbArc
 50
107.2953446288584
 51
72.70465537114164
  0
POLYLINE
  5
1B7
330
1F
100
AcDbEntity
  8
Modulos
100
AcDb2dPolyline
 66
     1
 10
0.0
 20
0.0
 30
0.0
  0
VERTEX
  5
1B8
330
1B7
100
AcDbEntity
  8
Modulos
100
AcDbVertex
100
AcDb2dVertex
 10
308.9602437127256
 20
64.04876500205752
 30
0.0
  0
VERTEX
  5
1B9
330
1B7
100
AcDbEntity
  8
Modulos
100
AcDbVertex
100
AcDb2dVertex
 10
308.9602437127256
 20
173.3327095252852
 30
0.0
  0
SEQEND
  5
1BA
330
1B7
100
AcDbEntity
  8
Modulos
  0
CIRCLE
  5
1BB
330
1F
100
AcDbEntity
  8
Modulos
100
AcDbCircle
 10
303.4602437127256
 20
46.38524326940181
 30
0.0
 40
7.0
  0
POLYLINE
  5
1BC
330
1F
100
AcDbEntity
  8
Tamaño pieza cuero
100
AcDb2dPolyline
 66
     1
 10
0.0
 20
0.0
 30
0.0
 70
     1
  0
VERTEX
  5
1BD
330
1BC
100
AcDbEntity
  8
Tamaño pieza cuero
100
AcDbVertex
100
AcDb2dVertex
 10
-63.27993135925489
 20
-9.529717837815554
 30
0.0
  0
VERTEX
  5
1BE
330
1BC
100
AcDbEntity
  8
Tamaño pieza cuero
100
AcDbVertex
100
AcDb2dVertex
 10
329.0785555274186
 20
-9.529717837815554
 30
0.0
  0
VERTEX
  5
1BF
330
1BC
100
AcDbEntity
  8
Tamaño pieza cuero
100
AcDbVertex
100
AcDb2dVertex
 10
329.0785555274186
 20
254.1972387515786
 30
0.0
  0
VERTEX
  5
1C0
330
1BC
100
AcDbEntity
  8
Tamaño pieza cuero
100
AcDbVertex
100
AcDb2dVertex
 10
-63.27993135925489
 20
254.1972387515786
 30
0.0
  0
SEQEND
  5
1C1
330
1BC
100
AcDbEntity
  8
Tamaño pieza cuero
  0
CIRCLE
  5
1C2
330
1F
100
AcDbEntity
  8
Modulos
100
AcDbCircle
 10
48.11890729504383
 20
-43.46960934043268
 30
0.0
 40
7.0
  0
CIRCLE
  5
1C3
330
1F
100
AcDbEntity
  8
Modulos
100
AcDbCircle
 10
119.0421802290439
 20
-43.46960934043268
 30
0.0
 40
7.0
  0
CIRCLE
  5
1C4
330
1F
100
AcDbEntity
  8
Modulos
100
AcDbCircle
 10
119.0421802290439
 20
-43.46960934043268
 30
0.0
 40
7.0
  0
POLYLINE
  5
1C5
330
1F
100
AcDbEntity
  8
Modulos
100
AcDb2dPolyline
 66
     1
 10
0.0
 20
0.0
 30
0.0
  0
VERTEX
  5
1C6
330
1C5
100
AcDbEntity
  8
Modulos
100
AcDbVertex
100
AcDb2dVertex
 10
101.3786584963882
 20
-37.96960934043267
 30
0.0
  0
VERTEX
  5
1C7
330
1C5
100
AcDbEntity
  8
Modulos
100
AcDbVertex
100
AcDb2dVertex
 10
65.78242902769952
 20
-37.96960934043268
 30
0.0
  0
SEQEND
  5
1C8
330
1C5
100
AcDbEntity
  8
Modulos
  0
ARC
  5
1C9
330
1F
100
AcDbEntity
  8
Modulos
100
AcDbCircle
 10
48.11890729504383
 20
-43.46960934043268
 30
0.0
 40
18.5
100
AcDbArc
 50
17.29534462885837
 51
342.7046553711417
  0
POLYLINE
  5
1CA
330
1F
100
AcDbEntity
  8
Modulos
100
AcDb2dPolyline
 66
     1
 10
0.0
 20
0.0
 30
0.0
  0
VERTEX
  5
1CB
330
1CA
100
AcDbEntity
  8
Modulos
100
AcDbVertex
100
AcDb2dVertex
 10
65.78242902769952
 20
-48.96960934043267
 30
0.0
  0
VERTEX
  5
1CC
330
1CA
100
AcDbEntity
  8
Modulos
100
AcDbVertex
100
AcDb2dVertex
 10
101.3786584963882
 20
-48.96960934043268
 30
0.0
  0
SEQEND
  5
1CD
330
1CA
100
AcDbEntity
  8
Modulos
  0
ARC
  5
1CE
330
1F
100
AcDbEntity
  8
Modulos
100
AcDbCircle
 10
119.0421802290439
 20
-43.46960934043268
 30
0.0
 40
18.5
100
AcDbArc
 50
197.2953446288584
 51
162.7046553711416
  0
POLYLINE
  5
1CF
330
1F
100
AcDbEntity
  8
Modulos
100
AcDb2dPolyline
 66
     1
 10
0.0
 20
0.0
 30
0.0
  0
VERTEX
  5
1D0
330
1CF
100
AcDbEntity
  8
Modulos
100
AcDbVertex
100
AcDb2dVertex
 10
213.9070492582966
 20
-37.73268354410188
 30
0.0
  0
VERTEX
  5
1D1
330
1CF
100
AcDbEntity
  8
Modulos
100
AcDbVertex
100
AcDb2dVertex
 10
178.310819789608
 20
-37.7326835441019
 30
0.0
  0
SEQEND
  5
1D2
330
1CF
100
AcDbEntity
  8
Modulos
  0
ARC
  5
1D3
330
1F
100
AcDbEntity
  8
Modulos
100
AcDbCircle
 10
160.6472980569523
 20
-43.2326835441019
 30
0.0
 40
18.5
100
AcDbArc
 50
17.29534462885838
 51
342.7046553711417
  0
POLYLINE
  5
1D4
330
1F
100
AcDbEntity
  8
Modulos
100
AcDb2dPolyline
 66
     1
 10
0.0
 20
0.0
 30
0.0
  0
VERTEX
  5
1D5
330
1D4
100
AcDbEntity
  8
Modulos
100
AcDbVertex
100
AcDb2dVertex
 10
178.310819789608
 20
-48.73268354410188
 30
0.0
  0
VERTEX
  5
1D6
330
1D4
100
AcDbEntity
  8
Modulos
100
AcDbVertex
100
AcDb2dVertex
 10
213.9070492582966
 20
-48.7326835441019
 30
0.0
  0
SEQEND
  5
1D7
330
1D4
100
AcDbEntity
  8
Modulos
  0
ARC
  5
1D8
330
1F
100
AcDbEntity
  8
Modulos
100
AcDbCircle
 10
231.5705709909523
 20
-43.2326835441019
 30
0.0
 40
18.5
100
AcDbArc
 50
197.2953446288584
 51
162.7046553711415
  0
CIRCLE
  5
1D9
330
1F
100
AcDbEntity
  8
Modulos
100
AcDbCircle
 10
231.5705709909523
 20
-43.2326835441019
 30
0.0
 40
7.0
  0
CIRCLE
  5
1DA
330
1F
100
AcDbEntity
  8
Modulos
100
AcDbCircle
 10
231.5705709909523
 20
-43.2326835441019
 30
0.0
 40
7.0
  0
CIRCLE
  5
1DB
330
1F
100
AcDbEntity
  8
Modulos
100
AcDbCircle
 10
160.6472980569523
 20
-43.2326835441019
 30
0.0
 40
7.0
  0
CIRCLE
  5
1DC
330
1F
100
AcDbEntity
  8
Modulos
100
AcDbCircle
 10
160.6974097020186
 20
-83.78660128823974
 30
0.0
 40
7.0
  0
CIRCLE
  5
1DD
330
1F
100
AcDbEntity
  8
Modulos
100
AcDbCircle
 10
231.6206826360187
 20
-83.78660128823974
 30
0.0
 40
7.0
  0
CIRCLE
  5
1DE
330
1F
100
AcDbEntity
  8
Modulos
100
AcDbCircle
 10
231.6206826360187
 20
-83.78660128823974
 30
0.0
 40
7.0
  0
POLYLINE
  5
1DF
330
1F
100
AcDbEntity
  8
Modulos
100
AcDb2dPolyline
 66
     1
 10
0.0
 20
0.0
 30
0.0
  0
VERTEX
  5
1E0
330
1DF
100
AcDbEntity
  8
Modulos
100
AcDbVertex
100
AcDb2dVertex
 10
213.957160903363
 20
-78.28660128823974
 30
0.0
  0
VERTEX
  5
1E1
330
1DF
100
AcDbEntity
  8
Modulos
100
AcDbVertex
100
AcDb2dVertex
 10
178.3609314346743
 20
-78.28660128823974
 30
0.0
  0
SEQEND
  5
1E2
330
1DF
100
AcDbEntity
  8
Modulos
  0
ARC
  5
1E3
330
1F
100
AcDbEntity
  8
Modulos
100
AcDbCircle
 10
160.6974097020186
 20
-83.78660128823974
 30
0.0
 40
18.5
100
AcDbArc
 50
17.29534462885838
 51
342.7046553711417
  0
POLYLINE
  5
1E4
330
1F
100
AcDbEntity
  8
Modulos
100
AcDb2dPolyline
 66
     1
 10
0.0
 20
0.0
 30
0.0
  0
VERTEX
  5
1E5
330
1E4
100
AcDbEntity
  8
Modulos
100
AcDbVertex
100
AcDb2dVertex
 10
178.3609314346743
 20
-89.28660128823974
 30
0.0
  0
VERTEX
  5
1E6
330
1E4
100
AcDbEntity
  8
Modulos
100
AcDbVertex
100
AcDb2dVertex
 10
213.957160903363
 20
-89.28660128823974
 30
0.0
  0
SEQEND
  5
1E7
330
1E4
100
AcDbEntity
  8
Modulos
  0
ARC
  5
1E8
330
1F
100
AcDbEntity
  8
Modulos
100
AcDbCircle
 10
231.6206826360187
 20
-83.78660128823974
 30
0.0
 40
18.5
100
AcDbArc
 50
197.2953446288583
 51
162.7046553711416
  0
CIRCLE
  5
1E9
330
1F
100
AcDbEntity
  8
Modulos
100
AcDbCircle
 10
-14.28523628111456
 20
-62.3854955148162
 30
0.0
 40
30.0
  0
CIRCLE
  5
1EA
330
1F
100
AcDbEntity
  8
Modulos
100
AcDbCircle
 10
-14.28523628111456
 20
-62.3854955148162
 30
0.0
 40
40.0
  0
CIRCLE
  5
1EB
330
1F
100
AcDbEntity
  8
Modulos
100
AcDbCircle
 10
-14.20678269437813
 20
-61.95452304452748
 30
0.0
 40
19.93623676139908
  0
LINE
  5
1EC
330
1F
100
AcDbEntity
  8
Modulos
100
AcDbLine
 10
-4.87937130783051
 20
278.9375574085592
 30
0.0
 11
-4.935393716794096
 21
278.9375574085592
 31
0.0
  0
LINE
  5
1ED
330
1F
100
AcDbEntity
  8
Modulos
100
AcDbLine
 10
-4.935393716794096
 20
278.9375574085592
 30
0.0
 11
-4.935393716794096
 21
286.5846162320886
 31
0.0
  0
LINE
  5
1EE
330
1F
100
AcDbEntity
  8
Modulos
100
AcDbLine
 10
-4.935393716794096
 20
286.5846162320886
 30
0.0
 11
-7.316346097746475
 21
286.5846162320886
 31
0.0
  0
LINE
  5
1EF
330
1F
100
AcDbEntity
  8
Modulos
100
AcDbLine
 10
-7.316346097746475
 20
286.5846162320886
 30
0.0
 11
-7.316346097746475
 21
266.5846162320886
 31
0.0
  0
LINE
  5
1F0
330
1F
100
AcDbEntity
  8
Modulos
100
AcDbLine
 10
-7.316346097746475
 20
266.5846162320886
 30
0.0
 11
-4.935393716794096
 21
266.5846162320886
 31
0.0
  0
LINE
  5
1F1
330
1F
100
AcDbEntity
  8
Modulos
100
AcDbLine
 10
-4.935393716794096
 20
266.5846162320886
 30
0.0
 11
-4.935393716794096
 21
274.7638879407721
 31
0.0
  0
SPLINE
  5
1F2
330
1F
100
AcDbEntity
  8
Modulos
100
AcDbSpline
210
0.0
220
0.0
230
1.0
 70
     8
 71
     2
 72
    16
 73
    13
 74
     0
 42
0.000000001
 43
0.0000000001
 40
-19.0
 40
-19.0
 40
-19.0
 40
-18.0
 40
-18.0
 40
-17.0
 40
-17.0
 40
-16.0
 40
-16.0
 40
-15.0
 40
-15.0
 40
-14.0
 40
-14.0
 40
-13.0
 40
-13.0
 40
-13.0
 10
-4.935393716794096
 20
274.7638879407721
 30
0.0
 10
-4.935393716794096
 20
275.7442800976348
 30
0.0
 10
-4.669287274217062
 20
276.5706106298477
 30
0.0
 10
-4.403180831640036
 20
277.3969411620606
 30
0.0
 10
-3.870967946485969
 20
278.01318766066
 30
0.0
 10
-3.338755061331909
 20
278.6294341592595
 30
0.0
 10
-2.540435733600816
 20
278.965568613041
 30
0.0
 10
-1.742116405869723
 20
279.3017030668225
 30
0.0
 10
-0.6496794310798109
 20
279.3017030668225
 30
0.0
 10
0.7228695885280345
 20
279.3017030668225
 30
0.0
 10
1.507183314018228
 20
278.5173893413323
 30
0.0
 10
2.291497039508421
 20
277.7330756158421
 30
0.0
 10
2.291497039508421
 20
276.3885378007161
 30
0.0
  0
SPLINE
  5
1F3
330
1F
100
AcDbEntity
  8
Modulos
100
AcDbSpline
210
0.0
220
0.0
230
1.0
 70
    24
 71
     2
 72
     6
 73
     3
 74
     0
 42
0.000000001
 43
0.0000000001
 40
-13.0
 40
-13.0
 40
-13.0
 40
-12.0
 40
-12.0
 40
-12.0
 10
2.291497039508421
 20
276.3885378007161
 30
0.0
 10
2.291497039508421
 20
271.4865770164023
 30
0.0
 10
2.291497039508421
 20
266.5846162320886
 30
0.0
  0
SPLINE
  5
1F4
330
1F
100
AcDbEntity
  8
Modulos
100
AcDbSpline
210
0.0
220
0.0
230
1.0
 70
    24
 71
     2
 72
     6
 73
     3
 74
     0
 42
0.000000001
 43
0.0000000001
 40
-12.0
 40
-12.0
 40
-12.0
 40
-11.0
 40
-11.0
 40
-11.0
 10
2.291497039508421
 20
266.5846162320886
 30
0.0
 10
3.481973229984611
 20
266.5846162320886
 30
0.0
 10
4.672449420460801
 20
266.5846162320886
 30
0.0
  0
SPLINE
  5
1F5
330
1F
100
AcDbEntity
  8
Modulos
100
AcDbSpline
210
0.0
220
0.0
230
1.0
 70
    24
 71
     2
 72
     6
 73
     3
 74
     0
 42
0.000000001
 43
0.0000000001
 40
-11.0
 40
-11.0
 40
-11.0
 40
-10.0
 40
-10.0
 40
-10.0
 10
4.672449420460801
 20
266.5846162320886
 30
0.0
 10
4.672449420460801
 20
271.3465209939934
 30
0.0
 10
4.672449420460801
 20
276.1084257558981
 30
0.0
  0
SPLINE
  5
1F6
330
1F
100
AcDbEntity
  8
Modulos
100
AcDbSpline
210
0.0
220
0.0
230
1.0
 70
     8
 71
     2
 72
    20
 73
    17
 74
     0
 42
0.000000001
 43
0.0000000001
 40
-10.0
 40
-10.0
 40
-10.0
 40
-9.0
 40
-9.0
 40
-8.0
 40
-8.0
 40
-7.0
 40
-7.0
 40
-6.0
 40
-6.0
 40
-5.0
 40
-5.0
 40
-4.0
 40
-4.0
 40
-3.0
 40
-3.0
 40
-2.0
 40
-2.0
 40
-2.0
 10
4.672449420460801
 20
276.1084257558981
 30
0.0
 10
4.672449420460801
 20
277.2848963441334
 30
0.0
 10
4.434354182365574
 20
278.2512828987553
 30
0.0
 10
4.196258944270333
 20
279.2176694533771
 30
0.0
 10
3.608023650152681
 20
279.9179495654219
 30
0.0
 10
3.019788356035043
 20
280.6182296774667
 30
0.0
 10
2.06740740365408
 20
281.0103865402119
 30
0.0
 10
1.115026451273131
 20
281.402543402957
 30
0.0
 10
-0.3135449772982994
 20
281.402543402957
 30
0.0
 10
-0.9578026803795296
 20
281.402543402957
 30
0.0
 10
-1.644077190183452
 20
281.262487380548
 30
0.0
 10
-2.330351699987375
 20
281.122431358139
 30
0.0
 10
-2.960603800827705
 20
280.8283137110802
 30
0.0
 10
-3.590855901668043
 20
280.5341960640214
 30
0.0
 10
-4.09505758234031
 20
280.0720111900718
 30
0.0
 10
-4.599259263012584
 20
279.6098263161222
 30
0.0
 10
-4.87937130783051
 20
278.9375574085592
 30
0.0
  0
LINE
  5
1F7
330
1F
100
AcDbEntity
  8
Modulos
100
AcDbLine
 10
41.05900404230955
 20
282.7190700136012
 30
0.0
 11
41.05900404230955
 21
280.8143081088393
 31
0.0
  0
LINE
  5
1F8
330
1F
100
AcDbEntity
  8
Modulos
100
AcDbLine
 10
41.05900404230955
 20
280.8143081088393
 30
0.0
 11
46.2130656669594
 21
280.8143081088393
 31
0.0
  0
LINE
  5
1F9
330
1F
100
AcDbEntity
  8
Modulos
100
AcDbLine
 10
46.2130656669594
 20
280.8143081088393
 30
0.0
 11
46.2130656669594
 21
266.5846162320886
 31
0.0
  0
LINE
  5
1FA
330
1F
100
AcDbEntity
  8
Modulos
100
AcDbLine
 10
46.2130656669594
 20
266.5846162320886
 30
0.0
 11
48.5940180479118
 21
266.5846162320886
 31
0.0
  0
LINE
  5
1FB
330
1F
100
AcDbEntity
  8
Modulos
100
AcDbLine
 10
48.5940180479118
 20
266.5846162320886
 30
0.0
 11
48.5940180479118
 21
286.4445602096797
 31
0.0
  0
LINE
  5
1FC
330
1F
100
AcDbEntity
  8
Modulos
100
AcDbLine
 10
48.5940180479118
 20
286.4445602096797
 30
0.0
 11
46.77328975659527
 21
286.4445602096797
 31
0.0
  0
SPLINE
  5
1FD
330
1F
100
AcDbEntity
  8
Modulos
100
AcDbSpline
210
0.0
220
0.0
230
1.0
 70
     8
 71
     2
 72
    12
 73
     9
 74
     0
 42
0.000000001
 43
0.0000000001
 40
-10.0
 40
-10.0
 40
-10.0
 40
-9.0
 40
-9.0
 40
-8.0
 40
-8.0
 40
-7.0
 40
-7.0
 40
-6.0
 40
-6.0
 40
-6.0
 10
46.77328975659527
 20
286.4445602096797
 30
0.0
 10
46.57721132522271
 20
285.3241120304079
 30
0.0
 10
46.04499844006865
 20
284.5958207138813
 30
0.0
 10
45.51278555491459
 20
283.8675293973547
 30
0.0
 10
44.74247743166529
 20
283.4473613301278
 30
0.0
 10
43.97216930841599
 20
283.0271932629009
 30
0.0
 10
43.01978835603504
 20
282.873131638251
 30
0.0
 10
42.06740740365408
 20
282.7190700136012
 30
0.0
 10
41.05900404230955
 20
282.7190700136012
 30
0.0
  0
LINE
  5
1FE
330
1F
100
AcDbEntity
  8
Modulos
100
AcDbLine
 10
25.51278555491459
 20
278.01318766066
 30
0.0
 11
25.45676314595099
 21
278.01318766066
 31
0.0
  0
LINE
  5
1FF
330
1F
100
AcDbEntity
  8
Modulos
100
AcDbLine
 10
25.45676314595099
 20
278.01318766066
 30
0.0
 11
25.45676314595099
 21
281.0664089491754
 31
0.0
  0
LINE
  5
200
330
1F
100
AcDbEntity
  8
Modulos
100
AcDbLine
 10
25.45676314595099
 20
281.0664089491754
 30
0.0
 11
23.21586678740758
 21
281.0664089491754
 31
0.0
  0
LINE
  5
201
330
1F
100
AcDbEntity
  8
Modulos
100
AcDbLine
 10
23.21586678740758
 20
281.0664089491754
 30
0.0
 11
23.21586678740758
 21
266.5846162320886
 31
0.0
  0
LINE
  5
202
330
1F
100
AcDbEntity
  8
Modulos
100
AcDbLine
 10
23.21586678740758
 20
266.5846162320886
 30
0.0
 11
25.59681916835996
 21
266.5846162320886
 31
0.0
  0
LINE
  5
203
330
1F
100
AcDbEntity
  8
Modulos
100
AcDbLine
 10
25.59681916835996
 20
266.5846162320886
 30
0.0
 11
25.59681916835996
 21
273.0271932629009
 31
0.0
  0
SPLINE
  5
204
330
1F
100
AcDbEntity
  8
Modulos
100
AcDbSpline
210
0.0
220
0.0
230
1.0
 70
     8
 71
     2
 72
    12
 73
     9
 74
     0
 42
0.000000001
 43
0.0000000001
 40
-17.0
 40
-17.0
 40
-17.0
 40
-16.0
 40
-16.0
 40
-15.0
 40
-15.0
 40
-14.0
 40
-14.0
 40
-13.0
 40
-13.0
 40
-13.0
 10
25.59681916835996
 20
273.0271932629009
 30
0.0
 10
25.59681916835996
 20
274.4277534869906
 30
0.0
 10
25.87693121317789
 20
275.5061848595396
 30
0.0
 10
26.15704325799582
 20
276.5846162320886
 30
0.0
 10
26.77328975659525
 20
277.340918753097
 30
0.0
 10
27.38953625519469
 20
278.0972212741054
 30
0.0
 10
28.39793961653924
 20
278.4893781368505
 30
0.0
 10
29.40634297788377
 20
278.8815349995956
 30
0.0
 10
30.8349144064552
 20
278.8815349995956
 30
0.0
  0
SPLINE
  5
205
330
1F
100
AcDbEntity
  8
Modulos
100
AcDbSpline
210
0.0
220
0.0
230
1.0
 70
    24
 71
     2
 72
     6
 73
     3
 74
     0
 42
0.000000001
 43
0.0000000001
 40
-13.0
 40
-13.0
 40
-13.0
 40
-12.0
 40
-12.0
 40
-12.0
 10
30.8349144064552
 20
278.8815349995956
 30
0.0
 10
30.8349144064552
 20
280.1420392012762
 30
0.0
 10
30.8349144064552
 20
281.402543402957
 30
0.0
  0
SPLINE
  5
206
330
1F
100
AcDbEntity
  8
Modulos
100
AcDbSpline
210
0.0
220
0.0
230
1.0
 70
     8
 71
     2
 72
     8
 73
     5
 74
     0
 42
0.000000001
 43
0.0000000001
 40
-12.0
 40
-12.0
 40
-12.0
 40
-11.0
 40
-11.0
 40
-10.0
 40
-10.0
 40
-10.0
 10
30.8349144064552
 20
281.402543402957
 30
0.0
 10
28.90214129721151
 20
281.4585658119206
 30
0.0
 10
27.64163709553083
 20
280.6182296774667
 30
0.0
 10
26.38113289385016
 20
279.777893543013
 30
0.0
 10
25.51278555491459
 20
278.01318766066
 30
0.0
  0
SPLINE
  5
207
330
1F
100
AcDbEntity
  8
Modulos
100
AcDbSpline
210
0.0
220
0.0
230
1.0
 70
     8
 71
     2
 72
    20
 73
    17
 74
     0
 42
0.000000001
 43
0.0000000001
 40
1.0
 40
1.0
 40
1.0
 40
2.0
 40
2.0
 40
3.0
 40
3.0
 40
4.0
 40
4.0
 40
5.0
 40
5.0
 40
6.0
 40
6.0
 40
7.0
 40
7.0
 40
8.0
 40
8.0
 40
9.0
 40
9.0
 40
9.0
 10
18.31390600309386
 20
275.2120672124807
 30
0.0
 10
18.25788359413028
 20
276.0524033469345
 30
0.0
 10
17.93575474258966
 20
276.8087058679429
 30
0.0
 10
17.61362589104905
 20
277.5650083889514
 30
0.0
 10
17.06740740365408
 20
278.1112268763463
 30
0.0
 10
16.52118891625913
 20
278.6574453637413
 30
0.0
 10
15.77889199749162
 20
278.9795742152818
 30
0.0
 10
15.03659507872411
 20
279.3017030668225
 30
0.0
 10
14.14023653530675
 20
279.3017030668225
 30
0.0
 10
13.21586678740758
 20
279.3017030668225
 30
0.0
 10
12.47356986864008
 20
278.9795742152818
 30
0.0
 10
11.73127294987257
 20
278.6574453637413
 30
0.0
 10
11.19906006471852
 20
278.0972212741054
 30
0.0
 10
10.66684717956445
 20
277.5369971844696
 30
0.0
 10
10.35872393026472
 20
276.794700265702
 30
0.0
 10
10.05060068096501
 20
276.0524033469345
 30
0.0
 10
9.994578272001426
 20
275.2120672124807
 30
0.0
  0
SPLINE
  5
208
330
1F
100
AcDbEntity
  8
Modulos
100
AcDbSpline
210
0.0
220
0.0
230
1.0
 70
    24
 71
     2
 72
     6
 73
     3
 74
     0
 42
0.000000001
 43
0.0000000001
 40
9.0
 40
9.0
 40
9.0
 40
10.0
 40
10.0
 40
10.0
 10
9.994578272001426
 20
275.2120672124807
 30
0.0
 10
14.15424213754764
 20
275.2120672124807
 30
0.0
 10
18.31390600309386
 20
275.2120672124807
 30
0.0
  0
SPLINE
  5
209
330
1F
100
AcDbEntity
  8
Modulos
100
AcDbSpline
210
0.0
220
0.0
230
1.0
 70
    24
 71
     2
 72
     6
 73
     3
 74
     0
 42
0.000000001
 43
0.0000000001
 40
-23.0
 40
-23.0
 40
-23.0
 40
-22.0
 40
-22.0
 40
-22.0
 10
20.61082477060086
 20
271.1784537671026
 30
0.0
 10
19.43435418236557
 20
271.1784537671026
 30
0.0
 10
18.25788359413028
 20
271.1784537671026
 30
0.0
  0
SPLINE
  5
20A
330
1F
100
AcDbEntity
  8
Modulos
100
AcDbSpline
210
0.0
220
0.0
230
1.0
 70
     8
 71
     2
 72
    16
 73
    13
 74
     0
 42
0.000000001
 43
0.0000000001
 40
-22.0
 40
-22.0
 40
-22.0
 40
-21.0
 40
-21.0
 40
-20.0
 40
-20.0
 40
-19.0
 40
-19.0
 40
-18.0
 40
-18.0
 40
-17.0
 40
-17.0
 40
-16.0
 40
-16.0
 40
-16.0
 10
18.25788359413028
 20
271.1784537671026
 30
0.0
 10
17.94976034483056
 20
269.7498823385312
 30
0.0
 10
16.98337379020871
 20
269.0496022264863
 30
0.0
 10
16.01698723558686
 20
268.3493221144415
 30
0.0
 10
14.50438219357006
 20
268.3493221144415
 30
0.0
 10
13.32791160533476
 20
268.3493221144415
 30
0.0
 10
12.45956426639919
 20
268.7414789771867
 30
0.0
 10
11.59121692746361
 20
269.1336358399317
 30
0.0
 10
11.03099283782776
 20
269.7918991452539
 30
0.0
 10
10.47076874819189
 20
270.450162450576
 30
0.0
 10
10.21866790785577
 20
271.3045041872707
 30
0.0
 10
9.966567067519627
 20
272.1588459239653
 30
0.0
 10
9.994578272001426
 20
273.1112268763463
 30
0.0
  0
SPLINE
  5
20B
330
1F
100
AcDbEntity
  8
Modulos
100
AcDbSpline
210
0.0
220
0.0
230
1.0
 70
    24
 71
     2
 72
     6
 73
     3
 74
     0
 42
0.000000001
 43
0.0000000001
 40
-16.0
 40
-16.0
 40
-16.0
 40
-15.0
 40
-15.0
 40
-15.0
 10
9.994578272001426
 20
273.1112268763463
 30
0.0
 10
15.41474633922832
 20
273.1112268763463
 30
0.0
 10
20.8349144064552
 20
273.1112268763463
 30
0.0
  0
SPLINE
  5
20C
330
1F
100
AcDbEntity
  8
Modulos
100
AcDbSpline
210
0.0
220
0.0
230
1.0
 70
     8
 71
     2
 72
    20
 73
    17
 74
     0
 42
0.000000001
 43
0.0000000001
 40
-15.0
 40
-15.0
 40
-15.0
 40
-14.0
 40
-14.0
 40
-13.0
 40
-13.0
 40
-12.0
 40
-12.0
 40
-11.0
 40
-11.0
 40
-10.0
 40
-10.0
 40
-9.0
 40
-9.0
 40
-8.0
 40
-8.0
 40
-7.0
 40
-7.0
 40
-7.0
 10
20.8349144064552
 20
273.1112268763463
 30
0.0
 10
20.89093681541879
 20
274.4277534869906
 30
0.0
 10
20.59681916835996
 20
275.8843361200438
 30
0.0
 10
20.30270152130115
 20
277.340918753097
 30
0.0
 10
19.53239339805184
 20
278.5734117502959
 30
0.0
 10
18.76208527480255
 20
279.8059047474948
 30
0.0
 10
17.48757547088098
 20
280.6042240752258
 30
0.0
 10
16.21306566695942
 20
281.402543402957
 30
0.0
 10
14.28029255771572
 20
281.402543402957
 30
0.0
 10
12.7956987201807
 20
281.402543402957
 30
0.0
 10
11.54920012074093
 20
280.8423193133211
 30
0.0
 10
10.30270152130114
 20
280.2820952236852
 30
0.0
 10
9.392337375642889
 20
279.2736918623407
 30
0.0
 10
8.481973229984625
 20
278.2652885009962
 30
0.0
 10
7.977771549312344
 20
276.8927394813883
 30
0.0
 10
7.473569868640077
 20
275.5201904617805
 30
0.0
 10
7.473569868640077
 20
273.8675293973547
 30
0.0
  0
SPLINE
  5
20D
330
1F
100
AcDbEntity
  8
Modulos
100
AcDbSpline
210
0.0
220
0.0
230
1.0
 70
     8
 71
     2
 72
    16
 73
    13
 74
     0
 42
0.000000001
 43
0.0000000001
 40
-7.0
 40
-7.0
 40
-7.0
 40
-6.0
 40
-6.0
 40
-5.0
 40
-5.0
 40
-4.0
 40
-4.0
 40
-3.0
 40
-3.0
 40
-2.0
 40
-2.0
 40
-1.0
 40
-1.0
 40
-1.0
 10
7.473569868640077
 20
273.8675293973547
 30
0.0
 10
7.529592277603662
 20
272.2148683329289
 30
0.0
 10
7.963765947071458
 20
270.8143081088393
 30
0.0
 10
8.39793961653924
 20
269.4137478847497
 30
0.0
 10
9.266286955474818
 20
268.4053445234051
 30
0.0
 10
10.13463429441038
 20
267.3969411620606
 30
0.0
 10
11.40914409833196
 20
266.8367170724247
 30
0.0
 10
12.68365390225353
 20
266.2764929827889
 30
0.0
 10
14.42034858012467
 20
266.2764929827889
 30
0.0
 10
16.88533457452244
 20
266.2764929827889
 30
0.0
 10
18.50998443446641
 20
267.5089859799878
 30
0.0
 10
20.13463429441038
 20
268.7414789771867
 30
0.0
 10
20.61082477060086
 20
271.1784537671026
 30
0.0
  0
LINE
  5
20E
330
1F
100
AcDbEntity
  8
Modulos
100
AcDbLine
 10
-12.83455338065964
 20
269.9739719743855
 30
0.0
 11
-12.83455338065964
 21
278.965568613041
 31
0.0
  0
LINE
  5
20F
330
1F
100
AcDbEntity
  8
Modulos
100
AcDbLine
 10
-12.83455338065964
 20
278.965568613041
 30
0.0
 11
-9.949399319034995
 21
278.965568613041
 31
0.0
  0
LINE
  5
210
330
1F
100
AcDbEntity
  8
Modulos
100
AcDbLine
 10
-9.949399319034995
 20
278.965568613041
 30
0.0
 11
-9.949399319034995
 21
281.0664089491754
 31
0.0
  0
LINE
  5
211
330
1F
100
AcDbEntity
  8
Modulos
100
AcDbLine
 10
-9.949399319034995
 20
281.0664089491754
 30
0.0
 11
-12.83455338065964
 21
281.0664089491754
 31
0.0
  0
LINE
  5
212
330
1F
100
AcDbEntity
  8
Modulos
100
AcDbLine
 10
-12.83455338065964
 20
281.0664089491754
 30
0.0
 11
-12.83455338065964
 21
285.4081456438533
 31
0.0
  0
LINE
  5
213
330
1F
100
AcDbEntity
  8
Modulos
100
AcDbLine
 10
-12.83455338065964
 20
285.4081456438533
 30
0.0
 11
-15.21550576161203
 21
285.4081456438533
 31
0.0
  0
LINE
  5
214
330
1F
100
AcDbEntity
  8
Modulos
100
AcDbLine
 10
-15.21550576161203
 20
285.4081456438533
 30
0.0
 11
-15.21550576161203
 21
281.0664089491754
 31
0.0
  0
LINE
  5
215
330
1F
100
AcDbEntity
  8
Modulos
100
AcDbLine
 10
-15.21550576161203
 20
281.0664089491754
 30
0.0
 11
-17.68049175600979
 21
281.0664089491754
 31
0.0
  0
LINE
  5
216
330
1F
100
AcDbEntity
  8
Modulos
100
AcDbLine
 10
-17.68049175600979
 20
281.0664089491754
 30
0.0
 11
-17.68049175600979
 21
278.965568613041
 31
0.0
  0
LINE
  5
217
330
1F
100
AcDbEntity
  8
Modulos
100
AcDbLine
 10
-17.68049175600979
 20
278.965568613041
 30
0.0
 11
-15.21550576161203
 21
278.965568613041
 31
0.0
  0
LINE
  5
218
330
1F
100
AcDbEntity
  8
Modulos
100
AcDbLine
 10
-15.21550576161203
 20
278.965568613041
 30
0.0
 11
-15.21550576161203
 21
269.7498823385312
 31
0.0
  0
SPLINE
  5
219
330
1F
100
AcDbEntity
  8
Modulos
100
AcDbSpline
210
0.0
220
0.0
230
1.0
 70
     8
 71
     2
 72
    12
 73
     9
 74
     0
 42
0.000000001
 43
0.0000000001
 40
-14.0
 40
-14.0
 40
-14.0
 40
-13.0
 40
-13.0
 40
-12.0
 40
-12.0
 40
-11.0
 40
-11.0
 40
-10.0
 40
-10.0
 40
-10.0
 10
-15.21550576161203
 20
269.7498823385312
 30
0.0
 10
-15.21550576161203
 20
268.7414789771867
 30
0.0
 10
-15.01942733023947
 20
268.1252324785872
 30
0.0
 10
-14.82334889886693
 20
267.5089859799878
 30
0.0
 10
-14.41718643388094
 20
267.1728515262062
 30
0.0
 10
-14.01102396889494
 20
266.8367170724247
 30
0.0
 10
-13.35276066357281
 20
266.7106666522566
 30
0.0
 10
-12.69449735825068
 20
266.5846162320886
 30
0.0
 10
-11.77012761035152
 20
266.5846162320886
 30
0.0
  0
SPLINE
  5
21A
330
1F
100
AcDbEntity
  8
Modulos
100
AcDbSpline
210
0.0
220
0.0
230
1.0
 70
    24
 71
     2
 72
     6
 73
     3
 74
     0
 42
0.000000001
 43
0.0000000001
 40
-10.0
 40
-10.0
 40
-10.0
 40
-9.0
 40
-9.0
 40
-9.0
 10
-11.77012761035152
 20
266.5846162320886
 30
0.0
 10
-10.85976346469326
 20
266.5846162320886
 30
0.0
 10
-9.949399319034995
 20
266.5846162320886
 30
0.0
  0
SPLINE
  5
21B
330
1F
100
AcDbEntity
  8
Modulos
100
AcDbSpline
210
0.0
220
0.0
230
1.0
 70
    24
 71
     2
 72
     6
 73
     3
 74
     0
 42
0.000000001
 43
0.0000000001
 40
-9.0
 40
-9.0
 40
-9.0
 40
-8.0
 40
-8.0
 40
-8.0
 10
-9.949399319034995
 20
266.5846162320886
 30
0.0
 10
-9.949399319034995
 20
267.6350364001559
 30
0.0
 10
-9.949399319034995
 20
268.6854565682231
 30
0.0
  0
SPLINE
  5
21C
330
1F
100
AcDbEntity
  8
Modulos
100
AcDbSpline
210
0.0
220
0.0
230
1.0
 70
    24
 71
     2
 72
     6
 73
     3
 74
     0
 42
0.000000001
 43
0.0000000001
 40
-8.0
 40
-8.0
 40
-8.0
 40
-7.0
 40
-7.0
 40
-7.0
 10
-9.949399319034995
 20
268.6854565682231
 30
0.0
 10
-10.49561780642995
 20
268.6854565682231
 30
0.0
 10
-11.04183629382491
 20
268.6854565682231
 30
0.0
  0
SPLINE
  5
21D
330
1F
100
AcDbEntity
  8
Modulos
100
AcDbSpline
210
0.0
220
0.0
230
1.0
 70
     8
 71
     2
 72
    12
 73
     9
 74
     0
 42
0.000000001
 43
0.0000000001
 40
-7.0
 40
-7.0
 40
-7.0
 40
-6.0
 40
-6.0
 40
-5.0
 40
-5.0
 40
-4.0
 40
-4.0
 40
-3.0
 40
-3.0
 40
-3.0
 10
-11.04183629382491
 20
268.6854565682231
 30
0.0
 10
-11.60206038346077
 20
268.6854565682231
 30
0.0
 10
-11.95220043948317
 20
268.7274733749458
 30
0.0
 10
-12.30234049550558
 20
268.7694901816684
 30
0.0
 10
-12.49841892687813
 20
268.9095462040774
 30
0.0
 10
-12.69449735825068
 20
269.0496022264863
 30
0.0
 10
-12.76452536945516
 20
269.3017030668225
 30
0.0
 10
-12.83455338065964
 20
269.5538039071586
 30
0.0
 10
-12.83455338065964
 20
269.9739719743855
 30
0.0
  0
SPLINE
  5
21E
330
1F
100
AcDbEntity
  8
Modulos
100
AcDbSpline
210
0.0
220
0.0
230
1.0
 70
     8
 71
     2
 72
    32
 73
    29
 74
     0
 42
0.000000001
 43
0.0000000001
 40
0.0
 40
0.0
 40
0.0
 40
1.0
 40
1.0
 40
2.0
 40
2.0
 40
3.0
 40
3.0
 40
4.0
 40
4.0
 40
5.0
 40
5.0
 40
6.0
 40
6.0
 40
7.0
 40
7.0
 40
8.0
 40
8.0
 40
9.0
 40
9.0
 40
10.0
 40
10.0
 40
11.0
 40
11.0
 40
12.0
 40
12.0
 40
13.0
 40
13.0
 40
14.0
 40
14.0
 40
14.0
 10
-22.2183068820602
 20
274.0636078287272
 30
0.0
 10
-22.66648615376889
 20
273.7274733749458
 30
0.0
 10
-23.39477747029549
 20
273.5734117502959
 30
0.0
 10
-24.12306878682211
 20
273.419350125646
 30
0.0
 10
-24.9213881145532
 20
273.3213109099597
 30
0.0
 10
-25.71970744228429
 20
273.2232716942735
 30
0.0
 10
-26.53203237225628
 20
273.0972212741054
 30
0.0
 10
-27.34435730222827
 20
272.9711708539373
 30
0.0
 10
-27.98861500530951
 20
272.6910588091194
 30
0.0
 10
-28.63287270839074
 20
272.4109467643015
 30
0.0
 10
-29.03903517337672
 20
271.8927394813883
 30
0.0
 10
-29.44519763836272
 20
271.3745321984752
 30
0.0
 10
-29.44519763836272
 20
270.4781736550578
 30
0.0
 10
-29.44519763836272
 20
269.8899383609401
 30
0.0
 10
-29.20710240026749
 20
269.4837758959541
 30
0.0
 10
-28.96900716217225
 20
269.0776134309681
 30
0.0
 10
-28.59085590166804
 20
268.825512590632
 30
0.0
 10
-28.21270464116385
 20
268.5734117502959
 30
0.0
 10
-27.70850296049157
 20
268.4613669323687
 30
0.0
 10
-27.2043012798193
 20
268.3493221144415
 30
0.0
 10
-26.64407719018345
 20
268.3493221144415
 30
0.0
 10
-25.46760660194816
 20
268.3493221144415
 30
0.0
 10
-24.62727046749438
 20
268.6714509659822
 30
0.0
 10
-23.78693433304059
 20
268.9935798175227
 30
0.0
 10
-23.25472144788653
 20
269.4837758959541
 30
0.0
 10
-22.72250856273247
 20
269.9739719743855
 30
0.0
 10
-22.47040772239634
 20
270.5482016662623
 30
0.0
 10
-22.2183068820602
 20
271.122431358139
 30
0.0
 10
-22.2183068820602
 20
271.6266330388113
 30
0.0
  0
SPLINE
  5
21F
330
1F
100
AcDbEntity
  8
Modulos
100
AcDbSpline
210
0.0
220
0.0
230
1.0
 70
    24
 71
     2
 72
     6
 73
     3
 74
     0
 42
0.000000001
 43
0.0000000001
 40
14.0
 40
14.0
 40
14.0
 40
15.0
 40
15.0
 40
15.0
 10
-22.2183068820602
 20
271.6266330388113
 30
0.0
 10
-22.2183068820602
 20
272.8451204337692
 30
0.0
 10
-22.2183068820602
 20
274.0636078287272
 30
0.0
  0
SPLINE
  5
220
330
1F
100
AcDbEntity
  8
Modulos
100
AcDbSpline
210
0.0
220
0.0
230
1.0
 70
    24
 71
     2
 72
     6
 73
     3
 74
     0
 42
0.000000001
 43
0.0000000001
 40
-38.0
 40
-38.0
 40
-38.0
 40
-37.0
 40
-37.0
 40
-37.0
 10
-18.3527606635728
 20
266.6406386410522
 30
0.0
 10
-18.3527606635728
 20
267.5650083889514
 30
0.0
 10
-18.3527606635728
 20
268.4893781368505
 30
0.0
  0
SPLINE
  5
221
330
1F
100
AcDbEntity
  8
Modulos
100
AcDbSpline
210
0.0
220
0.0
230
1.0
 70
     8
 71
     2
 72
    10
 73
     7
 74
     0
 42
0.000000001
 43
0.0000000001
 40
-37.0
 40
-37.0
 40
-37.0
 40
-36.0
 40
-36.0
 40
-35.0
 40
-35.0
 40
-34.0
 40
-34.0
 40
-34.0
 10
-18.3527606635728
 20
268.4893781368505
 30
0.0
 10
-18.7729287307997
 20
268.3493221144415
 30
0.0
 10
-19.08105198009942
 20
268.3493221144415
 30
0.0
 10
-19.64127606973527
 20
268.3493221144415
 30
0.0
 10
-19.73931528542155
 20
268.7414789771867
 30
0.0
 10
-19.83735450110782
 20
269.1336358399317
 30
0.0
 10
-19.83735450110782
 20
269.9739719743855
 30
0.0
  0
SPLINE
  5
222
330
1F
100
AcDbEntity
  8
Modulos
100
AcDbSpline
210
0.0
220
0.0
230
1.0
 70
    24
 71
     2
 72
     6
 73
     3
 74
     0
 42
0.000000001
 43
0.0000000001
 40
-34.0
 40
-34.0
 40
-34.0
 40
-33.0
 40
-33.0
 40
-33.0
 10
-19.83735450110782
 20
269.9739719743855
 30
0.0
 10
-19.83735450110782
 20
273.6994621704639
 30
0.0
 10
-19.83735450110782
 20
277.4249523665424
 30
0.0
  0
SPLINE
  5
223
330
1F
100
AcDbEntity
  8
Modulos
100
AcDbSpline
210
0.0
220
0.0
230
1.0
 70
     8
 71
     2
 72
    20
 73
    17
 74
     0
 42
0.000000001
 43
0.0000000001
 40
-33.0
 40
-33.0
 40
-33.0
 40
-32.0
 40
-32.0
 40
-31.0
 40
-31.0
 40
-30.0
 40
-30.0
 40
-29.0
 40
-29.0
 40
-28.0
 40
-28.0
 40
-27.0
 40
-27.0
 40
-26.0
 40
-26.0
 40
-25.0
 40
-25.0
 40
-25.0
 10
-19.83735450110782
 20
277.4249523665424
 30
0.0
 10
-19.83735450110782
 20
278.6854565682231
 30
0.0
 10
-20.3135449772983
 20
279.4697702937132
 30
0.0
 10
-20.78973545348877
 20
280.2540840192034
 30
0.0
 10
-21.57404917897897
 20
280.6882576886712
 30
0.0
 10
-22.35836290446917
 20
281.122431358139
 30
0.0
 10
-23.32474945909102
 20
281.262487380548
 30
0.0
 10
-24.29113601371287
 20
281.402543402957
 30
0.0
 10
-25.27152817057561
 20
281.402543402957
 30
0.0
 10
-26.50402116777449
 20
281.402543402957
 30
0.0
 10
-27.58245254032351
 20
281.1504425626208
 30
0.0
 10
-28.66088391287253
 20
280.8983417222847
 30
0.0
 10
-29.50122004732631
 20
280.3241120304079
 30
0.0
 10
-30.34155618178009
 20
279.7498823385312
 30
0.0
 10
-30.84575786245236
 20
278.825512590632
 30
0.0
 10
-31.34995954312463
 20
277.9011428427328
 30
0.0
 10
-31.40598195208821
 20
276.5566050276068
 30
0.0
  0
SPLINE
  5
224
330
1F
100
AcDbEntity
  8
Modulos
100
AcDbSpline
210
0.0
220
0.0
230
1.0
 70
    24
 71
     2
 72
     6
 73
     3
 74
     0
 42
0.000000001
 43
0.0000000001
 40
-25.0
 40
-25.0
 40
-25.0
 40
-24.0
 40
-24.0
 40
-24.0
 10
-31.40598195208821
 20
276.5566050276068
 30
0.0
 10
-30.21550576161202
 20
276.5566050276068
 30
0.0
 10
-29.02502957113583
 20
276.5566050276068
 30
0.0
  0
SPLINE
  5
225
330
1F
100
AcDbEntity
  8
Modulos
100
AcDbSpline
210
0.0
220
0.0
230
1.0
 70
     8
 71
     2
 72
    24
 73
    21
 74
     0
 42
0.000000001
 43
0.0000000001
 40
-24.0
 40
-24.0
 40
-24.0
 40
-23.0
 40
-23.0
 40
-22.0
 40
-22.0
 40
-21.0
 40
-21.0
 40
-20.0
 40
-20.0
 40
-19.0
 40
-19.0
 40
-18.0
 40
-18.0
 40
-17.0
 40
-17.0
 40
-16.0
 40
-16.0
 40
-15.0
 40
-15.0
 40
-14.0
 40
-14.0
 40
-14.0
 10
-29.02502957113583
 20
276.5566050276068
 30
0.0
 10
-28.94099595769045
 20
278.153243683069
 30
0.0
 10
-27.93259259634592
 20
278.7274733749458
 30
0.0
 10
-26.92418923500138
 20
279.3017030668225
 30
0.0
 10
-25.41158419298457
 20
279.3017030668225
 30
0.0
 10
-24.85136010334872
 20
279.3017030668225
 30
0.0
 10
-24.27713041147197
 20
279.2176694533771
 30
0.0
 10
-23.70290071959521
 20
279.1336358399317
 30
0.0
 10
-23.24071584564563
 20
278.8815349995956
 30
0.0
 10
-22.77853097169606
 20
278.6294341592595
 30
0.0
 10
-22.48441332463723
 20
278.153243683069
 30
0.0
 10
-22.19029567757841
 20
277.6770532068785
 30
0.0
 10
-22.19029567757841
 20
276.8927394813883
 30
0.0
 10
-22.19029567757841
 20
276.2204705738253
 30
0.0
 10
-22.58245254032351
 20
275.8703305178029
 30
0.0
 10
-22.97460940306861
 20
275.5201904617805
 30
0.0
 10
-23.64687831063163
 20
275.3381176326488
 30
0.0
 10
-24.31914721819465
 20
275.1560448035171
 30
0.0
 10
-25.20150015937113
 20
275.0580055878309
 30
0.0
 10
-26.08385310054759
 20
274.9599663721446
 30
0.0
 10
-27.06424525741034
 20
274.7638879407721
 30
0.0
  0
SPLINE
  5
226
330
1F
100
AcDbEntity
  8
Modulos
100
AcDbSpline
210
0.0
220
0.0
230
1.0
 70
     8
 71
     2
 72
    24
 73
    21
 74
     0
 42
0.000000001
 43
0.0000000001
 40
-14.0
 40
-14.0
 40
-14.0
 40
-13.0
 40
-13.0
 40
-12.0
 40
-12.0
 40
-11.0
 40
-11.0
 40
-10.0
 40
-10.0
 40
-9.0
 40
-9.0
 40
-8.0
 40
-8.0
 40
-7.0
 40
-7.0
 40
-6.0
 40
-6.0
 40
-5.0
 40
-5.0
 40
-4.0
 40
-4.0
 40
-4.0
 10
-27.06424525741034
 20
274.7638879407721
 30
0.0
 10
-27.98861500530951
 20
274.5958207138813
 30
0.0
 10
-28.87096794648597
 20
274.3437198735452
 30
0.0
 10
-29.75332088766244
 20
274.091619033209
 30
0.0
 10
-30.43959539746636
 20
273.6014229547777
 30
0.0
 10
-31.12586990727029
 20
273.1112268763463
 30
0.0
 10
-31.54603797449717
 20
272.3269131508561
 30
0.0
 10
-31.96620604172407
 20
271.5425994253659
 30
0.0
 10
-31.96620604172407
 20
270.310106428167
 30
0.0
 10
-31.96620604172407
 20
269.2176694533771
 30
0.0
 10
-31.58805478121987
 20
268.4473613301278
 30
0.0
 10
-31.20990352071566
 20
267.6770532068785
 30
0.0
 10
-30.56564581763443
 20
267.200862730688
 30
0.0
 10
-29.9213881145532
 20
266.7246722544975
 30
0.0
 10
-29.03903517337672
 20
266.5005826186432
 30
0.0
 10
-28.15668223220026
 20
266.2764929827889
 30
0.0
 10
-27.17629007533751
 20
266.2764929827889
 30
0.0
 10
-25.6636850333207
 20
266.2764929827889
 30
0.0
 10
-24.36116402491734
 20
266.794700265702
 30
0.0
 10
-23.05864301651398
 20
267.3129075486152
 30
0.0
 10
-22.07825085965124
 20
268.4893781368505
 30
0.0
  0
SPLINE
  5
227
330
1F
100
AcDbEntity
  8
Modulos
100
AcDbSpline
210
0.0
220
0.0
230
1.0
 70
     8
 71
     2
 72
    10
 73
     7
 74
     0
 42
0.000000001
 43
0.0000000001
 40
-4.0
 40
-4.0
 40
-4.0
 40
-3.0
 40
-3.0
 40
-2.0
 40
-2.0
 40
-1.0
 40
-1.0
 40
-1.0
 10
-22.07825085965124
 20
268.4893781368505
 30
0.0
 10
-22.07825085965124
 20
267.3129075486152
 30
0.0
 10
-21.53203237225628
 20
266.794700265702
 30
0.0
 10
-20.98581388486132
 20
266.2764929827889
 30
0.0
 10
-20.06144413696216
 20
266.2764929827889
 30
0.0
 10
-18.96900716217225
 20
266.2764929827889
 30
0.0
 10
-18.3527606635728
 20
266.6406386410522
 30
0.0
  0
SPLINE
  5
228
330
1F
100
AcDbEntity
  8
Modulos
100
AcDbSpline
210
0.0
220
0.0
230
1.0
 70
     8
 71
     2
 72
    20
 73
    17
 74
     0
 42
0.000000001
 43
0.0000000001
 40
1.0
 40
1.0
 40
1.0
 40
2.0
 40
2.0
 40
3.0
 40
3.0
 40
4.0
 40
4.0
 40
5.0
 40
5.0
 40
6.0
 40
6.0
 40
7.0
 40
7.0
 40
8.0
 40
8.0
 40
9.0
 40
9.0
 40
9.0
 10
-36.16788671399297
 20
275.2120672124807
 30
0.0
 10
-36.22390912295656
 20
276.0524033469345
 30
0.0
 10
-36.54603797449717
 20
276.8087058679429
 30
0.0
 10
-36.86816682603779
 20
277.5650083889514
 30
0.0
 10
-37.41438531343275
 20
278.1112268763463
 30
0.0
 10
-37.96060380082771
 20
278.6574453637413
 30
0.0
 10
-38.70290071959521
 20
278.9795742152818
 30
0.0
 10
-39.44519763836272
 20
279.3017030668225
 30
0.0
 10
-40.34155618178009
 20
279.3017030668225
 30
0.0
 10
-41.26592592967925
 20
279.3017030668225
 30
0.0
 10
-42.00822284844676
 20
278.9795742152818
 30
0.0
 10
-42.75051976721426
 20
278.6574453637413
 30
0.0
 10
-43.28273265236832
 20
278.0972212741054
 30
0.0
 10
-43.81494553752238
 20
277.5369971844696
 30
0.0
 10
-44.1230687868221
 20
276.794700265702
 30
0.0
 10
-44.43119203612183
 20
276.0524033469345
 30
0.0
 10
-44.48721444508541
 20
275.2120672124807
 30
0.0
  0
SPLINE
  5
229
330
1F
100
AcDbEntity
  8
Modulos
100
AcDbSpline
210
0.0
220
0.0
230
1.0
 70
    24
 71
     2
 72
     6
 73
     3
 74
     0
 42
0.000000001
 43
0.0000000001
 40
9.0
 40
9.0
 40
9.0
 40
10.0
 40
10.0
 40
10.0
 10
-44.48721444508541
 20
275.2120672124807
 30
0.0
 10
-40.32755057953919
 20
275.2120672124807
 30
0.0
 10
-36.16788671399297
 20
275.2120672124807
 30
0.0
  0
SPLINE
  5
22A
330
1F
100
AcDbEntity
  8
Modulos
100
AcDbSpline
210
0.0
220
0.0
230
1.0
 70
    24
 71
     2
 72
     6
 73
     3
 74
     0
 42
0.000000001
 43
0.0000000001
 40
-23.0
 40
-23.0
 40
-23.0
 40
-22.0
 40
-22.0
 40
-22.0
 10
-33.87096794648597
 20
271.1784537671026
 30
0.0
 10
-35.04743853472127
 20
271.1784537671026
 30
0.0
 10
-36.22390912295656
 20
271.1784537671026
 30
0.0
  0
SPLINE
  5
22B
330
1F
100
AcDbEntity
  8
Modulos
100
AcDbSpline
210
0.0
220
0.0
230
1.0
 70
     8
 71
     2
 72
    16
 73
    13
 74
     0
 42
0.000000001
 43
0.0000000001
 40
-22.0
 40
-22.0
 40
-22.0
 40
-21.0
 40
-21.0
 40
-20.0
 40
-20.0
 40
-19.0
 40
-19.0
 40
-18.0
 40
-18.0
 40
-17.0
 40
-17.0
 40
-16.0
 40
-16.0
 40
-16.0
 10
-36.22390912295656
 20
271.1784537671026
 30
0.0
 10
-36.53203237225628
 20
269.7498823385312
 30
0.0
 10
-37.49841892687813
 20
269.0496022264863
 30
0.0
 10
-38.46480548149998
 20
268.3493221144415
 30
0.0
 10
-39.97741052351678
 20
268.3493221144415
 30
0.0
 10
-41.15388111175208
 20
268.3493221144415
 30
0.0
 10
-42.02222845068765
 20
268.7414789771867
 30
0.0
 10
-42.89057578962323
 20
269.1336358399317
 30
0.0
 10
-43.45079987925908
 20
269.7918991452539
 30
0.0
 10
-44.01102396889493
 20
270.450162450576
 30
0.0
 10
-44.26312480923107
 20
271.3045041872707
 30
0.0
 10
-44.5152256495672
 20
272.1588459239653
 30
0.0
 10
-44.48721444508541
 20
273.1112268763463
 30
0.0
  0
SPLINE
  5
22C
330
1F
100
AcDbEntity
  8
Modulos
100
AcDbSpline
210
0.0
220
0.0
230
1.0
 70
    24
 71
     2
 72
     6
 73
     3
 74
     0
 42
0.000000001
 43
0.0000000001
 40
-16.0
 40
-16.0
 40
-16.0
 40
-15.0
 40
-15.0
 40
-15.0
 10
-44.48721444508541
 20
273.1112268763463
 30
0.0
 10
-39.06704637785852
 20
273.1112268763463
 30
0.0
 10
-33.64687831063163
 20
273.1112268763463
 30
0.0
  0
SPLINE
  5
22D
330
1F
100
AcDbEntity
  8
Modulos
100
AcDbSpline
210
0.0
220
0.0
230
1.0
 70
     8
 71
     2
 72
    20
 73
    17
 74
     0
 42
0.000000001
 43
0.0000000001
 40
-15.0
 40
-15.0
 40
-15.0
 40
-14.0
 40
-14.0
 40
-13.0
 40
-13.0
 40
-12.0
 40
-12.0
 40
-11.0
 40
-11.0
 40
-10.0
 40
-10.0
 40
-9.0
 40
-9.0
 40
-8.0
 40
-8.0
 40
-7.0
 40
-7.0
 40
-7.0
 10
-33.64687831063163
 20
273.1112268763463
 30
0.0
 10
-33.59085590166804
 20
274.4277534869906
 30
0.0
 10
-33.88497354872686
 20
275.8843361200438
 30
0.0
 10
-34.17909119578569
 20
277.340918753097
 30
0.0
 10
-34.94939931903499
 20
278.5734117502959
 30
0.0
 10
-35.71970744228429
 20
279.8059047474948
 30
0.0
 10
-36.99421724620586
 20
280.6042240752258
 30
0.0
 10
-38.26872705012742
 20
281.402543402957
 30
0.0
 10
-40.20150015937112
 20
281.402543402957
 30
0.0
 10
-41.68609399690614
 20
281.402543402957
 30
0.0
 10
-42.93259259634591
 20
280.8423193133211
 30
0.0
 10
-44.17909119578569
 20
280.2820952236852
 30
0.0
 10
-45.08945534144395
 20
279.2736918623407
 30
0.0
 10
-45.99981948710222
 20
278.2652885009962
 30
0.0
 10
-46.50402116777448
 20
276.8927394813883
 30
0.0
 10
-47.00822284844676
 20
275.5201904617805
 30
0.0
 10
-47.00822284844676
 20
273.8675293973547
 30
0.0
  0
SPLINE
  5
22E
330
1F
100
AcDbEntity
  8
Modulos
100
AcDbSpline
210
0.0
220
0.0
230
1.0
 70
     8
 71
     2
 72
    16
 73
    13
 74
     0
 42
0.000000001
 43
0.0000000001
 40
-7.0
 40
-7.0
 40
-7.0
 40
-6.0
 40
-6.0
 40
-5.0
 40
-5.0
 40
-4.0
 40
-4.0
 40
-3.0
 40
-3.0
 40
-2.0
 40
-2.0
 40
-1.0
 40
-1.0
 40
-1.0
 10
-47.00822284844676
 20
273.8675293973547
 30
0.0
 10
-46.95220043948316
 20
272.2148683329289
 30
0.0
 10
-46.51802677001538
 20
270.8143081088393
 30
0.0
 10
-46.0838531005476
 20
269.4137478847497
 30
0.0
 10
-45.21550576161202
 20
268.4053445234051
 30
0.0
 10
-44.34715842267644
 20
267.3969411620606
 30
0.0
 10
-43.07264861875488
 20
266.8367170724247
 30
0.0
 10
-41.79813881483331
 20
266.2764929827889
 30
0.0
 10
-40.06144413696216
 20
266.2764929827889
 30
0.0
 10
-37.5964581425644
 20
266.2764929827889
 30
0.0
 10
-35.97180828262042
 20
267.5089859799878
 30
0.0
 10
-34.34715842267644
 20
268.7414789771867
 30
0.0
 10
-33.87096794648597
 20
271.1784537671026
 30
0.0
  0
SPLINE
  5
22F
330
1F
100
AcDbEntity
  8
Modulos
100
AcDbSpline
210
0.0
220
0.0
230
1.0
 70
    24
 71
     2
 72
     6
 73
     3
 74
     0
 42
0.000000001
 43
0.0000000001
 40
-6.0
 40
-6.0
 40
-6.0
 40
-5.0
 40
-5.0
 40
-5.0
 10
-58.74491752631791
 20
286.5846162320886
 30
0.0
 10
-60.07544973920306
 20
286.5846162320886
 30
0.0
 10
-61.40598195208821
 20
286.5846162320886
 30
0.0
  0
SPLINE
  5
230
330
1F
100
AcDbEntity
  8
Modulos
100
AcDbSpline
210
0.0
220
0.0
230
1.0
 70
    24
 71
     2
 72
     6
 73
     3
 74
     0
 42
0.000000001
 43
0.0000000001
 40
-5.0
 40
-5.0
 40
-5.0
 40
-4.0
 40
-4.0
 40
-4.0
 10
-61.40598195208821
 20
286.5846162320886
 30
0.0
 10
-61.40598195208821
 20
276.5846162320886
 30
0.0
 10
-61.40598195208821
 20
266.5846162320886
 30
0.0
  0
SPLINE
  5
231
330
1F
100
AcDbEntity
  8
Modulos
100
AcDbSpline
210
0.0
220
0.0
230
1.0
 70
    24
 71
     2
 72
     6
 73
     3
 74
     0
 42
0.000000001
 43
0.0000000001
 40
-4.0
 40
-4.0
 40
-4.0
 40
-3.0
 40
-3.0
 40
-3.0
 10
-61.40598195208821
 20
266.5846162320886
 30
0.0
 10
-54.78133209214423
 20
266.5846162320886
 30
0.0
 10
-48.15668223220025
 20
266.5846162320886
 30
0.0
  0
SPLINE
  5
232
330
1F
100
AcDbEntity
  8
Modulos
100
AcDbSpline
210
0.0
220
0.0
230
1.0
 70
    24
 71
     2
 72
     6
 73
     3
 74
     0
 42
0.000000001
 43
0.0000000001
 40
-3.0
 40
-3.0
 40
-3.0
 40
-2.0
 40
-2.0
 40
-2.0
 10
-48.15668223220025
 20
266.5846162320886
 30
0.0
 10
-48.15668223220025
 20
267.7050644113603
 30
0.0
 10
-48.15668223220025
 20
268.825512590632
 30
0.0
  0
SPLINE
  5
233
330
1F
100
AcDbEntity
  8
Modulos
100
AcDbSpline
210
0.0
220
0.0
230
1.0
 70
    24
 71
     2
 72
     6
 73
     3
 74
     0
 42
0.000000001
 43
0.0000000001
 40
-2.0
 40
-2.0
 40
-2.0
 40
-1.0
 40
-1.0
 40
-1.0
 10
-48.15668223220025
 20
268.825512590632
 30
0.0
 10
-53.45079987925908
 20
268.825512590632
 30
0.0
 10
-58.74491752631791
 20
268.825512590632
 30
0.0
  0
SPLINE
  5
234
330
1F
100
AcDbEntity
  8
Modulos
100
AcDbSpline
210
0.0
220
0.0
230
1.0
 70
    24
 71
     2
 72
     6
 73
     3
 74
     0
 42
0.000000001
 43
0.0000000001
 40
-1.0
 40
-1.0
 40
-1.0
 40
0.0
 40
0.0
 40
0.0
 10
-58.74491752631791
 20
268.825512590632
 30
0.0
 10
-58.74491752631791
 20
277.7050644113603
 30
0.0
 10
-58.74491752631791
 20
286.5846162320886
 30
0.0
  0
SPLINE
  5
235
330
1F
100
AcDbEntity
  8
Modulos
100
AcDbSpline
210
0.0
220
0.0
230
1.0
 70
    24
 71
     2
 72
     6
 73
     3
 74
     0
 42
0.000000001
 43
0.0000000001
 40
-6.0
 40
-6.0
 40
-6.0
 40
-5.0
 40
-5.0
 40
-5.0
 10
356.234879975909
 20
287.3808007490844
 30
0.0
 10
354.9043477630238
 20
287.3808007490844
 30
0.0
 10
353.5738155501386
 20
287.3808007490844
 30
0.0
  0
SPLINE
  5
236
330
1F
100
AcDbEntity
  8
Modulos
100
AcDbSpline
210
0.0
220
0.0
230
1.0
 70
    24
 71
     2
 72
     6
 73
     3
 74
     0
 42
0.000000001
 43
0.0000000001
 40
-5.0
 40
-5.0
 40
-5.0
 40
-4.0
 40
-4.0
 40
-4.0
 10
353.5738155501386
 20
287.3808007490844
 30
0.0
 10
353.5738155501386
 20
277.3808007490844
 30
0.0
 10
353.5738155501386
 20
267.3808007490844
 30
0.0
  0
SPLINE
  5
237
330
1F
100
AcDbEntity
  8
Modulos
100
AcDbSpline
210
0.0
220
0.0
230
1.0
 70
    24
 71
     2
 72
     6
 73
     3
 74
     0
 42
0.000000001
 43
0.0000000001
 40
-4.0
 40
-4.0
 40
-4.0
 40
-3.0
 40
-3.0
 40
-3.0
 10
353.5738155501386
 20
267.3808007490844
 30
0.0
 10
360.1984654100826
 20
267.3808007490844
 30
0.0
 10
366.8231152700266
 20
267.3808007490844
 30
0.0
  0
SPLINE
  5
238
330
1F
100
AcDbEntity
  8
Modulos
100
AcDbSpline
210
0.0
220
0.0
230
1.0
 70
    24
 71
     2
 72
     6
 73
     3
 74
     0
 42
0.000000001
 43
0.0000000001
 40
-3.0
 40
-3.0
 40
-3.0
 40
-2.0
 40
-2.0
 40
-2.0
 10
366.8231152700266
 20
267.3808007490844
 30
0.0
 10
366.8231152700266
 20
268.5012489283561
 30
0.0
 10
366.8231152700266
 20
269.6216971076278
 30
0.0
  0
SPLINE
  5
239
330
1F
100
AcDbEntity
  8
Modulos
100
AcDbSpline
210
0.0
220
0.0
230
1.0
 70
    24
 71
     2
 72
     6
 73
     3
 74
     0
 42
0.000000001
 43
0.0000000001
 40
-2.0
 40
-2.0
 40
-2.0
 40
-1.0
 40
-1.0
 40
-1.0
 10
366.8231152700266
 20
269.6216971076278
 30
0.0
 10
361.5289976229678
 20
269.6216971076278
 30
0.0
 10
356.234879975909
 20
269.6216971076278
 30
0.0
  0
SPLINE
  5
23A
330
1F
100
AcDbEntity
  8
Modulos
100
AcDbSpline
210
0.0
220
0.0
230
1.0
 70
    24
 71
     2
 72
     6
 73
     3
 74
     0
 42
0.000000001
 43
0.0000000001
 40
-1.0
 40
-1.0
 40
-1.0
 40
0.0
 40
0.0
 40
0.0
 10
356.234879975909
 20
269.6216971076278
 30
0.0
 10
356.234879975909
 20
278.5012489283561
 30
0.0
 10
356.234879975909
 20
287.3808007490844
 30
0.0
  0
SPLINE
  5
23B
330
1F
100
AcDbEntity
  8
Modulos
100
AcDbSpline
210
0.0
220
0.0
230
1.0
 70
    24
 71
     2
 72
     6
 73
     3
 74
     0
 42
0.000000001
 43
0.0000000001
 40
-23.0
 40
-23.0
 40
-23.0
 40
-22.0
 40
-22.0
 40
-22.0
 10
381.1088295557409
 20
271.9746382840984
 30
0.0
 10
379.9323589675056
 20
271.9746382840984
 30
0.0
 10
378.7558883792703
 20
271.9746382840984
 30
0.0
  0
SPLINE
  5
23C
330
1F
100
AcDbEntity
  8
Modulos
100
AcDbSpline
210
0.0
220
0.0
230
1.0
 70
     8
 71
     2
 72
    16
 73
    13
 74
     0
 42
0.000000001
 43
0.0000000001
 40
-22.0
 40
-22.0
 40
-22.0
 40
-21.0
 40
-21.0
 40
-20.0
 40
-20.0
 40
-19.0
 40
-19.0
 40
-18.0
 40
-18.0
 40
-17.0
 40
-17.0
 40
-16.0
 40
-16.0
 40
-16.0
 10
378.7558883792703
 20
271.9746382840984
 30
0.0
 10
378.4477651299706
 20
270.546066855527
 30
0.0
 10
377.4813785753487
 20
269.8457867434822
 30
0.0
 10
376.5149920207269
 20
269.1455066314373
 30
0.0
 10
375.0023869787101
 20
269.1455066314373
 30
0.0
 10
373.8259163904748
 20
269.1455066314373
 30
0.0
 10
372.9575690515392
 20
269.5376634941825
 30
0.0
 10
372.0892217126037
 20
269.9298203569276
 30
0.0
 10
371.5289976229678
 20
270.5880836622497
 30
0.0
 10
370.968773533332
 20
271.2463469675718
 30
0.0
 10
370.7166726929958
 20
272.1006887042665
 30
0.0
 10
370.4645718526597
 20
272.9550304409611
 30
0.0
 10
370.4925830571415
 20
273.9074113933421
 30
0.0
  0
SPLINE
  5
23D
330
1F
100
AcDbEntity
  8
Modulos
100
AcDbSpline
210
0.0
220
0.0
230
1.0
 70
    24
 71
     2
 72
     6
 73
     3
 74
     0
 42
0.000000001
 43
0.0000000001
 40
-16.0
 40
-16.0
 40
-16.0
 40
-15.0
 40
-15.0
 40
-15.0
 10
370.4925830571415
 20
273.9074113933421
 30
0.0
 10
375.9127511243684
 20
273.9074113933421
 30
0.0
 10
381.3329191915952
 20
273.9074113933421
 30
0.0
  0
SPLINE
  5
23E
330
1F
100
AcDbEntity
  8
Modulos
100
AcDbSpline
210
0.0
220
0.0
230
1.0
 70
     8
 71
     2
 72
    20
 73
    17
 74
     0
 42
0.000000001
 43
0.0000000001
 40
-15.0
 40
-15.0
 40
-15.0
 40
-14.0
 40
-14.0
 40
-13.0
 40
-13.0
 40
-12.0
 40
-12.0
 40
-11.0
 40
-11.0
 40
-10.0
 40
-10.0
 40
-9.0
 40
-9.0
 40
-8.0
 40
-8.0
 40
-7.0
 40
-7.0
 40
-7.0
 10
381.3329191915952
 20
273.9074113933421
 30
0.0
 10
381.3889416005588
 20
275.2239380039864
 30
0.0
 10
381.0948239535
 20
276.6805206370396
 30
0.0
 10
380.8007063064412
 20
278.1371032700928
 30
0.0
 10
380.0303981831919
 20
279.3695962672917
 30
0.0
 10
379.2600900599426
 20
280.6020892644906
 30
0.0
 10
377.985580256021
 20
281.4004085922217
 30
0.0
 10
376.7110704520995
 20
282.1987279199528
 30
0.0
 10
374.7782973428558
 20
282.1987279199528
 30
0.0
 10
373.2937035053208
 20
282.1987279199528
 30
0.0
 10
372.047204905881
 20
281.6385038303169
 30
0.0
 10
370.8007063064412
 20
281.0782797406811
 30
0.0
 10
369.890342160783
 20
280.0698763793365
 30
0.0
 10
368.9799780151247
 20
279.061473017992
 30
0.0
 10
368.4757763344524
 20
277.6889239983842
 30
0.0
 10
367.9715746537801
 20
276.3163749787763
 30
0.0
 10
367.9715746537801
 20
274.6637139143505
 30
0.0
  0
SPLINE
  5
23F
330
1F
100
AcDbEntity
  8
Modulos
100
AcDbSpline
210
0.0
220
0.0
230
1.0
 70
     8
 71
     2
 72
    16
 73
    13
 74
     0
 42
0.000000001
 43
0.0000000001
 40
-7.0
 40
-7.0
 40
-7.0
 40
-6.0
 40
-6.0
 40
-5.0
 40
-5.0
 40
-4.0
 40
-4.0
 40
-3.0
 40
-3.0
 40
-2.0
 40
-2.0
 40
-1.0
 40
-1.0
 40
-1.0
 10
367.9715746537801
 20
274.6637139143505
 30
0.0
 10
368.0275970627437
 20
273.0110528499247
 30
0.0
 10
368.4617707322115
 20
271.6104926258351
 30
0.0
 10
368.8959444016793
 20
270.2099324017455
 30
0.0
 10
369.7642917406149
 20
269.2015290404009
 30
0.0
 10
370.6326390795504
 20
268.1931256790564
 30
0.0
 10
371.907148883472
 20
267.6329015894206
 30
0.0
 10
373.1816586873936
 20
267.0726774997847
 30
0.0
 10
374.9183533652647
 20
267.0726774997847
 30
0.0
 10
377.3833393596625
 20
267.0726774997847
 30
0.0
 10
379.0079892196064
 20
268.3051704969836
 30
0.0
 10
380.6326390795504
 20
269.5376634941825
 30
0.0
 10
381.1088295557409
 20
271.9746382840984
 30
0.0
  0
SPLINE
  5
240
330
1F
100
AcDbEntity
  8
Modulos
100
AcDbSpline
210
0.0
220
0.0
230
1.0
 70
     8
 71
     2
 72
    20
 73
    17
 74
     0
 42
0.000000001
 43
0.0000000001
 40
1.0
 40
1.0
 40
1.0
 40
2.0
 40
2.0
 40
3.0
 40
3.0
 40
4.0
 40
4.0
 40
5.0
 40
5.0
 40
6.0
 40
6.0
 40
7.0
 40
7.0
 40
8.0
 40
8.0
 40
9.0
 40
9.0
 40
9.0
 10
378.8119107882339
 20
276.0082517294766
 30
0.0
 10
378.7558883792703
 20
276.8485878639303
 30
0.0
 10
378.4337595277297
 20
277.6048903849388
 30
0.0
 10
378.1116306761891
 20
278.3611929059472
 30
0.0
 10
377.5654121887941
 20
278.9074113933421
 30
0.0
 10
377.0191937013992
 20
279.4536298807371
 30
0.0
 10
376.2768967826316
 20
279.7757587322777
 30
0.0
 10
375.5345998638642
 20
280.0978875838183
 30
0.0
 10
374.6382413204468
 20
280.0978875838183
 30
0.0
 10
373.7138715725476
 20
280.0978875838183
 30
0.0
 10
372.9715746537801
 20
279.7757587322777
 30
0.0
 10
372.2292777350126
 20
279.4536298807371
 30
0.0
 10
371.6970648498586
 20
278.8934057911012
 30
0.0
 10
371.1648519647045
 20
278.3331817014654
 30
0.0
 10
370.8567287154048
 20
277.5908847826979
 30
0.0
 10
370.5486054661051
 20
276.8485878639303
 30
0.0
 10
370.4925830571415
 20
276.0082517294766
 30
0.0
  0
SPLINE
  5
241
330
1F
100
AcDbEntity
  8
Modulos
100
AcDbSpline
210
0.0
220
0.0
230
1.0
 70
    24
 71
     2
 72
     6
 73
     3
 74
     0
 42
0.000000001
 43
0.0000000001
 40
9.0
 40
9.0
 40
9.0
 40
10.0
 40
10.0
 40
10.0
 10
370.4925830571415
 20
276.0082517294766
 30
0.0
 10
374.6522469226877
 20
276.0082517294766
 30
0.0
 10
378.8119107882339
 20
276.0082517294766
 30
0.0
  0
SPLINE
  5
242
330
1F
100
AcDbEntity
  8
Modulos
100
AcDbSpline
210
0.0
220
0.0
230
1.0
 70
    24
 71
     2
 72
     6
 73
     3
 74
     0
 42
0.000000001
 43
0.0000000001
 40
-38.0
 40
-38.0
 40
-38.0
 40
-37.0
 40
-37.0
 40
-37.0
 10
396.6270368386541
 20
267.436823158048
 30
0.0
 10
396.6270368386541
 20
268.3611929059472
 30
0.0
 10
396.6270368386541
 20
269.2855626538463
 30
0.0
  0
SPLINE
  5
243
330
1F
100
AcDbEntity
  8
Modulos
100
AcDbSpline
210
0.0
220
0.0
230
1.0
 70
     8
 71
     2
 72
    10
 73
     7
 74
     0
 42
0.000000001
 43
0.0000000001
 40
-37.0
 40
-37.0
 40
-37.0
 40
-36.0
 40
-36.0
 40
-35.0
 40
-35.0
 40
-34.0
 40
-34.0
 40
-34.0
 10
396.6270368386541
 20
269.2855626538463
 30
0.0
 10
396.2068687714272
 20
269.1455066314373
 30
0.0
 10
395.8987455221275
 20
269.1455066314373
 30
0.0
 10
395.3385214324916
 20
269.1455066314373
 30
0.0
 10
395.2404822168053
 20
269.5376634941825
 30
0.0
 10
395.1424430011191
 20
269.9298203569276
 30
0.0
 10
395.1424430011191
 20
270.7701564913813
 30
0.0
  0
SPLINE
  5
244
330
1F
100
AcDbEntity
  8
Modulos
100
AcDbSpline
210
0.0
220
0.0
230
1.0
 70
    24
 71
     2
 72
     6
 73
     3
 74
     0
 42
0.000000001
 43
0.0000000001
 40
-34.0
 40
-34.0
 40
-34.0
 40
-33.0
 40
-33.0
 40
-33.0
 10
395.1424430011191
 20
270.7701564913813
 30
0.0
 10
395.1424430011191
 20
274.4956466874597
 30
0.0
 10
395.1424430011191
 20
278.2211368835382
 30
0.0
  0
SPLINE
  5
245
330
1F
100
AcDbEntity
  8
Modulos
100
AcDbSpline
210
0.0
220
0.0
230
1.0
 70
     8
 71
     2
 72
    20
 73
    17
 74
     0
 42
0.000000001
 43
0.0000000001
 40
-33.0
 40
-33.0
 40
-33.0
 40
-32.0
 40
-32.0
 40
-31.0
 40
-31.0
 40
-30.0
 40
-30.0
 40
-29.0
 40
-29.0
 40
-28.0
 40
-28.0
 40
-27.0
 40
-27.0
 40
-26.0
 40
-26.0
 40
-25.0
 40
-25.0
 40
-25.0
 10
395.1424430011191
 20
278.2211368835382
 30
0.0
 10
395.1424430011191
 20
279.4816410852189
 30
0.0
 10
394.6662525249286
 20
280.265954810709
 30
0.0
 10
394.1900620487381
 20
281.0502685361993
 30
0.0
 10
393.4057483232479
 20
281.4844422056671
 30
0.0
 10
392.6214345977577
 20
281.9186158751348
 30
0.0
 10
391.6550480431359
 20
282.0586718975438
 30
0.0
 10
390.688661488514
 20
282.1987279199528
 30
0.0
 10
389.7082693316513
 20
282.1987279199528
 30
0.0
 10
388.4757763344524
 20
282.1987279199528
 30
0.0
 10
387.3973449619034
 20
281.9466270796166
 30
0.0
 10
386.3189135893543
 20
281.6945262392805
 30
0.0
 10
385.4785774549006
 20
281.1202965474038
 30
0.0
 10
384.6382413204468
 20
280.546066855527
 30
0.0
 10
384.1340396397745
 20
279.6216971076278
 30
0.0
 10
383.6298379591022
 20
278.6973273597287
 30
0.0
 10
383.5738155501386
 20
277.3527895446026
 30
0.0
  0
SPLINE
  5
246
330
1F
100
AcDbEntity
  8
Modulos
100
AcDbSpline
210
0.0
220
0.0
230
1.0
 70
    24
 71
     2
 72
     6
 73
     3
 74
     0
 42
0.000000001
 43
0.0000000001
 40
-25.0
 40
-25.0
 40
-25.0
 40
-24.0
 40
-24.0
 40
-24.0
 10
383.5738155501386
 20
277.3527895446026
 30
0.0
 10
384.7642917406149
 20
277.3527895446026
 30
0.0
 10
385.9547679310911
 20
277.3527895446026
 30
0.0
  0
SPLINE
  5
247
330
1F
100
AcDbEntity
  8
Modulos
100
AcDbSpline
210
0.0
220
0.0
230
1.0
 70
     8
 71
     2
 72
    24
 73
    21
 74
     0
 42
0.000000001
 43
0.0000000001
 40
-24.0
 40
-24.0
 40
-24.0
 40
-23.0
 40
-23.0
 40
-22.0
 40
-22.0
 40
-21.0
 40
-21.0
 40
-20.0
 40
-20.0
 40
-19.0
 40
-19.0
 40
-18.0
 40
-18.0
 40
-17.0
 40
-17.0
 40
-16.0
 40
-16.0
 40
-15.0
 40
-15.0
 40
-14.0
 40
-14.0
 40
-14.0
 10
385.9547679310911
 20
277.3527895446026
 30
0.0
 10
386.0388015445365
 20
278.9494282000648
 30
0.0
 10
387.047204905881
 20
279.5236578919416
 30
0.0
 10
388.0556082672255
 20
280.0978875838183
 30
0.0
 10
389.5682133092423
 20
280.0978875838183
 30
0.0
 10
390.1284373988782
 20
280.0978875838183
 30
0.0
 10
390.7026670907549
 20
280.0138539703729
 30
0.0
 10
391.2768967826316
 20
279.9298203569276
 30
0.0
 10
391.7390816565812
 20
279.6777195165914
 30
0.0
 10
392.2012665305308
 20
279.4256186762553
 30
0.0
 10
392.4953841775896
 20
278.9494282000648
 30
0.0
 10
392.7895018246485
 20
278.4732377238743
 30
0.0
 10
392.7895018246485
 20
277.6889239983842
 30
0.0
 10
392.7895018246485
 20
277.0166550908211
 30
0.0
 10
392.3973449619034
 20
276.6665150347987
 30
0.0
 10
392.0051880991583
 20
276.3163749787763
 30
0.0
 10
391.3329191915952
 20
276.1343021496447
 30
0.0
 10
390.6606502840322
 20
275.952229320513
 30
0.0
 10
389.7782973428558
 20
275.8541901048267
 30
0.0
 10
388.8959444016793
 20
275.7561508891404
 30
0.0
 10
387.9155522448165
 20
275.5600724577679
 30
0.0
  0
SPLINE
  5
248
330
1F
100
AcDbEntity
  8
Modulos
100
AcDbSpline
210
0.0
220
0.0
230
1.0
 70
     8
 71
     2
 72
    24
 73
    21
 74
     0
 42
0.000000001
 43
0.0000000001
 40
-14.0
 40
-14.0
 40
-14.0
 40
-13.0
 40
-13.0
 40
-12.0
 40
-12.0
 40
-11.0
 40
-11.0
 40
-10.0
 40
-10.0
 40
-9.0
 40
-9.0
 40
-8.0
 40
-8.0
 40
-7.0
 40
-7.0
 40
-6.0
 40
-6.0
 40
-5.0
 40
-5.0
 40
-4.0
 40
-4.0
 40
-4.0
 10
387.9155522448165
 20
275.5600724577679
 30
0.0
 10
386.9911824969174
 20
275.3920052308771
 30
0.0
 10
386.1088295557409
 20
275.139904390541
 30
0.0
 10
385.2264766145644
 20
274.8878035502049
 30
0.0
 10
384.5402021047605
 20
274.3976074717735
 30
0.0
 10
383.8539275949566
 20
273.9074113933421
 30
0.0
 10
383.4337595277297
 20
273.1230976678519
 30
0.0
 10
383.0135914605028
 20
272.3387839423617
 30
0.0
 10
383.0135914605028
 20
271.1062909451629
 30
0.0
 10
383.0135914605028
 20
270.0138539703729
 30
0.0
 10
383.391742721007
 20
269.2435458471236
 30
0.0
 10
383.7698939815112
 20
268.4732377238743
 30
0.0
 10
384.4141516845925
 20
267.9970472476838
 30
0.0
 10
385.0584093876737
 20
267.5208567714934
 30
0.0
 10
385.9407623288502
 20
267.296767135639
 30
0.0
 10
386.8231152700266
 20
267.0726774997847
 30
0.0
 10
387.8035074268894
 20
267.0726774997847
 30
0.0
 10
389.3161124689062
 20
267.0726774997847
 30
0.0
 10
390.6186334773095
 20
267.5908847826979
 30
0.0
 10
391.9211544857129
 20
268.109092065611
 30
0.0
 10
392.9015466425756
 20
269.2855626538463
 30
0.0
  0
SPLINE
  5
249
330
1F
100
AcDbEntity
  8
Modulos
100
AcDbSpline
210
0.0
220
0.0
230
1.0
 70
     8
 71
     2
 72
    10
 73
     7
 74
     0
 42
0.000000001
 43
0.0000000001
 40
-4.0
 40
-4.0
 40
-4.0
 40
-3.0
 40
-3.0
 40
-2.0
 40
-2.0
 40
-1.0
 40
-1.0
 40
-1.0
 10
392.9015466425756
 20
269.2855626538463
 30
0.0
 10
392.9015466425756
 20
268.109092065611
 30
0.0
 10
393.4477651299706
 20
267.5908847826979
 30
0.0
 10
393.9939836173655
 20
267.0726774997847
 30
0.0
 10
394.9183533652647
 20
267.0726774997847
 30
0.0
 10
396.0107903400547
 20
267.0726774997847
 30
0.0
 10
396.6270368386541
 20
267.436823158048
 30
0.0
  0
SPLINE
  5
24A
330
1F
100
AcDbEntity
  8
Modulos
100
AcDbSpline
210
0.0
220
0.0
230
1.0
 70
     8
 71
     2
 72
    32
 73
    29
 74
     0
 42
0.000000001
 43
0.0000000001
 40
0.0
 40
0.0
 40
0.0
 40
1.0
 40
1.0
 40
2.0
 40
2.0
 40
3.0
 40
3.0
 40
4.0
 40
4.0
 40
5.0
 40
5.0
 40
6.0
 40
6.0
 40
7.0
 40
7.0
 40
8.0
 40
8.0
 40
9.0
 40
9.0
 40
10.0
 40
10.0
 40
11.0
 40
11.0
 40
12.0
 40
12.0
 40
13.0
 40
13.0
 40
14.0
 40
14.0
 40
14.0
 10
392.7614906201667
 20
274.8597923457231
 30
0.0
 10
392.313311348458
 20
274.5236578919416
 30
0.0
 10
391.5850200319314
 20
274.3695962672917
 30
0.0
 10
390.8567287154048
 20
274.2155346426418
 30
0.0
 10
390.0584093876737
 20
274.1174954269555
 30
0.0
 10
389.2600900599426
 20
274.0194562112693
 30
0.0
 10
388.4477651299706
 20
273.8934057911012
 30
0.0
 10
387.6354401999986
 20
273.7673553709332
 30
0.0
 10
386.9911824969174
 20
273.4872433261152
 30
0.0
 10
386.3469247938361
 20
273.2071312812973
 30
0.0
 10
385.9407623288502
 20
272.6889239983842
 30
0.0
 10
385.5345998638642
 20
272.170716715471
 30
0.0
 10
385.5345998638642
 20
271.2743581720536
 30
0.0
 10
385.5345998638642
 20
270.6861228779359
 30
0.0
 10
385.7726951019594
 20
270.2799604129499
 30
0.0
 10
386.0107903400547
 20
269.873797947964
 30
0.0
 10
386.3889416005588
 20
269.6216971076278
 30
0.0
 10
386.767092861063
 20
269.3695962672917
 30
0.0
 10
387.2712945417353
 20
269.2575514493645
 30
0.0
 10
387.7754962224076
 20
269.1455066314373
 30
0.0
 10
388.3357203120434
 20
269.1455066314373
 30
0.0
 10
389.5121909002787
 20
269.1455066314373
 30
0.0
 10
390.3525270347325
 20
269.467635482978
 30
0.0
 10
391.1928631691863
 20
269.7897643345186
 30
0.0
 10
391.7250760543403
 20
270.2799604129499
 30
0.0
 10
392.2572889394944
 20
270.7701564913813
 30
0.0
 10
392.5093897798305
 20
271.3443861832581
 30
0.0
 10
392.7614906201667
 20
271.9186158751348
 30
0.0
 10
392.7614906201667
 20
272.4228175558071
 30
0.0
  0
SPLINE
  5
24B
330
1F
100
AcDbEntity
  8
Modulos
100
AcDbSpline
210
0.0
220
0.0
230
1.0
 70
    24
 71
     2
 72
     6
 73
     3
 74
     0
 42
0.000000001
 43
0.0000000001
 40
14.0
 40
14.0
 40
14.0
 40
15.0
 40
15.0
 40
15.0
 10
392.7614906201667
 20
272.4228175558071
 30
0.0
 10
392.7614906201667
 20
273.6413049507651
 30
0.0
 10
392.7614906201667
 20
274.8597923457231
 30
0.0
  0
LINE
  5
24C
330
1F
100
AcDbEntity
  8
Modulos
100
AcDbLine
 10
402.1452441215673
 20
270.7701564913813
 30
0.0
 11
402.1452441215673
 21
279.7617531300368
 31
0.0
  0
LINE
  5
24D
330
1F
100
AcDbEntity
  8
Modulos
100
AcDbLine
 10
402.1452441215673
 20
279.7617531300368
 30
0.0
 11
405.0303981831919
 21
279.7617531300368
 31
0.0
  0
LINE
  5
24E
330
1F
100
AcDbEntity
  8
Modulos
100
AcDbLine
 10
405.0303981831919
 20
279.7617531300368
 30
0.0
 11
405.0303981831919
 21
281.8625934661712
 31
0.0
  0
LINE
  5
24F
330
1F
100
AcDbEntity
  8
Modulos
100
AcDbLine
 10
405.0303981831919
 20
281.8625934661712
 30
0.0
 11
402.1452441215673
 21
281.8625934661712
 31
0.0
  0
LINE
  5
250
330
1F
100
AcDbEntity
  8
Modulos
100
AcDbLine
 10
402.1452441215673
 20
281.8625934661712
 30
0.0
 11
402.1452441215673
 21
286.2043301608491
 31
0.0
  0
LINE
  5
251
330
1F
100
AcDbEntity
  8
Modulos
100
AcDbLine
 10
402.1452441215673
 20
286.2043301608491
 30
0.0
 11
399.7642917406149
 21
286.2043301608491
 31
0.0
  0
LINE
  5
252
330
1F
100
AcDbEntity
  8
Modulos
100
AcDbLine
 10
399.7642917406149
 20
286.2043301608491
 30
0.0
 11
399.7642917406149
 21
281.8625934661712
 31
0.0
  0
LINE
  5
253
330
1F
100
AcDbEntity
  8
Modulos
100
AcDbLine
 10
399.7642917406149
 20
281.8625934661712
 30
0.0
 11
397.2993057462171
 21
281.8625934661712
 31
0.0
  0
LINE
  5
254
330
1F
100
AcDbEntity
  8
Modulos
100
AcDbLine
 10
397.2993057462171
 20
281.8625934661712
 30
0.0
 11
397.2993057462171
 21
279.7617531300368
 31
0.0
  0
LINE
  5
255
330
1F
100
AcDbEntity
  8
Modulos
100
AcDbLine
 10
397.2993057462171
 20
279.7617531300368
 30
0.0
 11
399.7642917406149
 21
279.7617531300368
 31
0.0
  0
LINE
  5
256
330
1F
100
AcDbEntity
  8
Modulos
100
AcDbLine
 10
399.7642917406149
 20
279.7617531300368
 30
0.0
 11
399.7642917406149
 21
270.546066855527
 31
0.0
  0
SPLINE
  5
257
330
1F
100
AcDbEntity
  8
Modulos
100
AcDbSpline
210
0.0
220
0.0
230
1.0
 70
     8
 71
     2
 72
    12
 73
     9
 74
     0
 42
0.000000001
 43
0.0000000001
 40
-14.0
 40
-14.0
 40
-14.0
 40
-13.0
 40
-13.0
 40
-12.0
 40
-12.0
 40
-11.0
 40
-11.0
 40
-10.0
 40
-10.0
 40
-10.0
 10
399.7642917406149
 20
270.546066855527
 30
0.0
 10
399.7642917406149
 20
269.5376634941825
 30
0.0
 10
399.9603701719874
 20
268.921416995583
 30
0.0
 10
400.1564486033599
 20
268.3051704969836
 30
0.0
 10
400.562611068346
 20
267.969036043202
 30
0.0
 10
400.968773533332
 20
267.6329015894206
 30
0.0
 10
401.6270368386541
 20
267.5068511692525
 30
0.0
 10
402.2853001439762
 20
267.3808007490844
 30
0.0
 10
403.2096698918754
 20
267.3808007490844
 30
0.0
  0
SPLINE
  5
258
330
1F
100
AcDbEntity
  8
Modulos
100
AcDbSpline
210
0.0
220
0.0
230
1.0
 70
    24
 71
     2
 72
     6
 73
     3
 74
     0
 42
0.000000001
 43
0.0000000001
 40
-10.0
 40
-10.0
 40
-10.0
 40
-9.0
 40
-9.0
 40
-9.0
 10
403.2096698918754
 20
267.3808007490844
 30
0.0
 10
404.1200340375336
 20
267.3808007490844
 30
0.0
 10
405.0303981831919
 20
267.3808007490844
 30
0.0
  0
SPLINE
  5
259
330
1F
100
AcDbEntity
  8
Modulos
100
AcDbSpline
210
0.0
220
0.0
230
1.0
 70
    24
 71
     2
 72
     6
 73
     3
 74
     0
 42
0.000000001
 43
0.0000000001
 40
-9.0
 40
-9.0
 40
-9.0
 40
-8.0
 40
-8.0
 40
-8.0
 10
405.0303981831919
 20
267.3808007490844
 30
0.0
 10
405.0303981831919
 20
268.4312209171517
 30
0.0
 10
405.0303981831919
 20
269.4816410852189
 30
0.0
  0
SPLINE
  5
25A
330
1F
100
AcDbEntity
  8
Modulos
100
AcDbSpline
210
0.0
220
0.0
230
1.0
 70
    24
 71
     2
 72
     6
 73
     3
 74
     0
 42
0.000000001
 43
0.0000000001
 40
-8.0
 40
-8.0
 40
-8.0
 40
-7.0
 40
-7.0
 40
-7.0
 10
405.0303981831919
 20
269.4816410852189
 30
0.0
 10
404.4841796957969
 20
269.4816410852189
 30
0.0
 10
403.937961208402
 20
269.4816410852189
 30
0.0
  0
SPLINE
  5
25B
330
1F
100
AcDbEntity
  8
Modulos
100
AcDbSpline
210
0.0
220
0.0
230
1.0
 70
     8
 71
     2
 72
    12
 73
     9
 74
     0
 42
0.000000001
 43
0.0000000001
 40
-7.0
 40
-7.0
 40
-7.0
 40
-6.0
 40
-6.0
 40
-5.0
 40
-5.0
 40
-4.0
 40
-4.0
 40
-3.0
 40
-3.0
 40
-3.0
 10
403.937961208402
 20
269.4816410852189
 30
0.0
 10
403.3777371187661
 20
269.4816410852189
 30
0.0
 10
403.0275970627437
 20
269.5236578919416
 30
0.0
 10
402.6774570067213
 20
269.5656746986642
 30
0.0
 10
402.4813785753487
 20
269.7057307210732
 30
0.0
 10
402.2853001439762
 20
269.8457867434822
 30
0.0
 10
402.2152721327717
 20
270.0978875838183
 30
0.0
 10
402.1452441215673
 20
270.3499884241544
 30
0.0
 10
402.1452441215673
 20
270.7701564913813
 30
0.0
  0
LINE
  5
25C
330
1F
100
AcDbEntity
  8
Modulos
100
AcDbLine
 10
410.1004261943964
 20
279.733741925555
 30
0.0
 11
410.0444037854328
 21
279.733741925555
 31
0.0
  0
LINE
  5
25D
330
1F
100
AcDbEntity
  8
Modulos
100
AcDbLine
 10
410.0444037854328
 20
279.733741925555
 30
0.0
 11
410.0444037854328
 21
287.3808007490844
 31
0.0
  0
LINE
  5
25E
330
1F
100
AcDbEntity
  8
Modulos
100
AcDbLine
 10
410.0444037854328
 20
287.3808007490844
 30
0.0
 11
407.6634514044804
 21
287.3808007490844
 31
0.0
  0
LINE
  5
25F
330
1F
100
AcDbEntity
  8
Modulos
100
AcDbLine
 10
407.6634514044804
 20
287.3808007490844
 30
0.0
 11
407.6634514044804
 21
267.3808007490844
 31
0.0
  0
LINE
  5
260
330
1F
100
AcDbEntity
  8
Modulos
100
AcDbLine
 10
407.6634514044804
 20
267.3808007490844
 30
0.0
 11
410.0444037854328
 21
267.3808007490844
 31
0.0
  0
LINE
  5
261
330
1F
100
AcDbEntity
  8
Modulos
100
AcDbLine
 10
410.0444037854328
 20
267.3808007490844
 30
0.0
 11
410.0444037854328
 21
275.5600724577679
 31
0.0
  0
SPLINE
  5
262
330
1F
100
AcDbEntity
  8
Modulos
100
AcDbSpline
210
0.0
220
0.0
230
1.0
 70
     8
 71
     2
 72
    16
 73
    13
 74
     0
 42
0.000000001
 43
0.0000000001
 40
-19.0
 40
-19.0
 40
-19.0
 40
-18.0
 40
-18.0
 40
-17.0
 40
-17.0
 40
-16.0
 40
-16.0
 40
-15.0
 40
-15.0
 40
-14.0
 40
-14.0
 40
-13.0
 40
-13.0
 40
-13.0
 10
410.0444037854328
 20
275.5600724577679
 30
0.0
 10
410.0444037854328
 20
276.5404646146307
 30
0.0
 10
410.3105102280098
 20
277.3667951468435
 30
0.0
 10
410.5766166705869
 20
278.1931256790564
 30
0.0
 10
411.1088295557409
 20
278.8093721776559
 30
0.0
 10
411.641042440895
 20
279.4256186762553
 30
0.0
 10
412.439361768626
 20
279.7617531300368
 30
0.0
 10
413.2376810963572
 20
280.0978875838183
 30
0.0
 10
414.3301180711471
 20
280.0978875838183
 30
0.0
 10
415.7026670907549
 20
280.0978875838183
 30
0.0
 10
416.4869808162451
 20
279.3135738583281
 30
0.0
 10
417.2712945417353
 20
278.5292601328379
 30
0.0
 10
417.2712945417353
 20
277.1847223177119
 30
0.0
  0
SPLINE
  5
263
330
1F
100
AcDbEntity
  8
Modulos
100
AcDbSpline
210
0.0
220
0.0
230
1.0
 70
    24
 71
     2
 72
     6
 73
     3
 74
     0
 42
0.000000001
 43
0.0000000001
 40
-13.0
 40
-13.0
 40
-13.0
 40
-12.0
 40
-12.0
 40
-12.0
 10
417.2712945417353
 20
277.1847223177119
 30
0.0
 10
417.2712945417353
 20
272.2827615333981
 30
0.0
 10
417.2712945417353
 20
267.3808007490844
 30
0.0
  0
SPLINE
  5
264
330
1F
100
AcDbEntity
  8
Modulos
100
AcDbSpline
210
0.0
220
0.0
230
1.0
 70
    24
 71
     2
 72
     6
 73
     3
 74
     0
 42
0.000000001
 43
0.0000000001
 40
-12.0
 40
-12.0
 40
-12.0
 40
-11.0
 40
-11.0
 40
-11.0
 10
417.2712945417353
 20
267.3808007490844
 30
0.0
 10
418.4617707322115
 20
267.3808007490844
 30
0.0
 10
419.6522469226877
 20
267.3808007490844
 30
0.0
  0
SPLINE
  5
265
330
1F
100
AcDbEntity
  8
Modulos
100
AcDbSpline
210
0.0
220
0.0
230
1.0
 70
    24
 71
     2
 72
     6
 73
     3
 74
     0
 42
0.000000001
 43
0.0000000001
 40
-11.0
 40
-11.0
 40
-11.0
 40
-10.0
 40
-10.0
 40
-10.0
 10
419.6522469226877
 20
267.3808007490844
 30
0.0
 10
419.6522469226877
 20
272.1427055109892
 30
0.0
 10
419.6522469226877
 20
276.9046102728939
 30
0.0
  0
SPLINE
  5
266
330
1F
100
AcDbEntity
  8
Modulos
100
AcDbSpline
210
0.0
220
0.0
230
1.0
 70
     8
 71
     2
 72
    20
 73
    17
 74
     0
 42
0.000000001
 43
0.0000000001
 40
-10.0
 40
-10.0
 40
-10.0
 40
-9.0
 40
-9.0
 40
-8.0
 40
-8.0
 40
-7.0
 40
-7.0
 40
-6.0
 40
-6.0
 40
-5.0
 40
-5.0
 40
-4.0
 40
-4.0
 40
-3.0
 40
-3.0
 40
-2.0
 40
-2.0
 40
-2.0
 10
419.6522469226877
 20
276.9046102728939
 30
0.0
 10
419.6522469226877
 20
278.0810808611292
 30
0.0
 10
419.4141516845925
 20
279.0474674157511
 30
0.0
 10
419.1760564464972
 20
280.0138539703729
 30
0.0
 10
418.5878211523795
 20
280.7141340824177
 30
0.0
 10
417.9995858582619
 20
281.4144141944626
 30
0.0
 10
417.047204905881
 20
281.8065710572077
 30
0.0
 10
416.0948239535
 20
282.1987279199528
 30
0.0
 10
414.6662525249286
 20
282.1987279199528
 30
0.0
 10
414.0219948218473
 20
282.1987279199528
 30
0.0
 10
413.3357203120434
 20
282.0586718975438
 30
0.0
 10
412.6494458022395
 20
281.9186158751348
 30
0.0
 10
412.0191937013992
 20
281.624498228076
 30
0.0
 10
411.3889416005588
 20
281.3303805810172
 30
0.0
 10
410.8847399198866
 20
280.8681957070676
 30
0.0
 10
410.3805382392143
 20
280.406010833118
 30
0.0
 10
410.1004261943964
 20
279.733741925555
 30
0.0
  0
SPLINE
  5
267
330
1F
100
AcDbEntity
  8
Modulos
100
AcDbSpline
210
0.0
220
0.0
230
1.0
 70
    24
 71
     2
 72
     6
 73
     3
 74
     0
 42
0.000000001
 43
0.0000000001
 40
-23.0
 40
-23.0
 40
-23.0
 40
-22.0
 40
-22.0
 40
-22.0
 10
435.5906222728278
 20
271.9746382840984
 30
0.0
 10
434.4141516845925
 20
271.9746382840984
 30
0.0
 10
433.2376810963572
 20
271.9746382840984
 30
0.0
  0
SPLINE
  5
268
330
1F
100
AcDbEntity
  8
Modulos
100
AcDbSpline
210
0.0
220
0.0
230
1.0
 70
     8
 71
     2
 72
    16
 73
    13
 74
     0
 42
0.000000001
 43
0.0000000001
 40
-22.0
 40
-22.0
 40
-22.0
 40
-21.0
 40
-21.0
 40
-20.0
 40
-20.0
 40
-19.0
 40
-19.0
 40
-18.0
 40
-18.0
 40
-17.0
 40
-17.0
 40
-16.0
 40
-16.0
 40
-16.0
 10
433.2376810963572
 20
271.9746382840984
 30
0.0
 10
432.9295578470574
 20
270.546066855527
 30
0.0
 10
431.9631712924356
 20
269.8457867434822
 30
0.0
 10
430.9967847378138
 20
269.1455066314373
 30
0.0
 10
429.4841796957969
 20
269.1455066314373
 30
0.0
 10
428.3077091075617
 20
269.1455066314373
 30
0.0
 10
427.4393617686261
 20
269.5376634941825
 30
0.0
 10
426.5710144296905
 20
269.9298203569276
 30
0.0
 10
426.0107903400547
 20
270.5880836622497
 30
0.0
 10
425.4505662504188
 20
271.2463469675718
 30
0.0
 10
425.1984654100826
 20
272.1006887042665
 30
0.0
 10
424.9463645697465
 20
272.9550304409611
 30
0.0
 10
424.9743757742283
 20
273.9074113933421
 30
0.0
  0
SPLINE
  5
269
330
1F
100
AcDbEntity
  8
Modulos
100
AcDbSpline
210
0.0
220
0.0
230
1.0
 70
    24
 71
     2
 72
     6
 73
     3
 74
     0
 42
0.000000001
 43
0.0000000001
 40
-16.0
 40
-16.0
 40
-16.0
 40
-15.0
 40
-15.0
 40
-15.0
 10
424.9743757742283
 20
273.9074113933421
 30
0.0
 10
430.3945438414552
 20
273.9074113933421
 30
0.0
 10
435.8147119086821
 20
273.9074113933421
 30
0.0
  0
SPLINE
  5
26A
330
1F
100
AcDbEntity
  8
Modulos
100
AcDbSpline
210
0.0
220
0.0
230
1.0
 70
     8
 71
     2
 72
    20
 73
    17
 74
     0
 42
0.000000001
 43
0.0000000001
 40
-15.0
 40
-15.0
 40
-15.0
 40
-14.0
 40
-14.0
 40
-13.0
 40
-13.0
 40
-12.0
 40
-12.0
 40
-11.0
 40
-11.0
 40
-10.0
 40
-10.0
 40
-9.0
 40
-9.0
 40
-8.0
 40
-8.0
 40
-7.0
 40
-7.0
 40
-7.0
 10
435.8147119086821
 20
273.9074113933421
 30
0.0
 10
435.8707343176457
 20
275.2239380039864
 30
0.0
 10
435.5766166705869
 20
276.6805206370396
 30
0.0
 10
435.282499023528
 20
278.1371032700928
 30
0.0
 10
434.5121909002787
 20
279.3695962672917
 30
0.0
 10
433.7418827770294
 20
280.6020892644906
 30
0.0
 10
432.4673729731078
 20
281.4004085922217
 30
0.0
 10
431.1928631691863
 20
282.1987279199528
 30
0.0
 10
429.2600900599426
 20
282.1987279199528
 30
0.0
 10
427.7754962224076
 20
282.1987279199528
 30
0.0
 10
426.5289976229678
 20
281.6385038303169
 30
0.0
 10
425.282499023528
 20
281.0782797406811
 30
0.0
 10
424.3721348778698
 20
280.0698763793365
 30
0.0
 10
423.4617707322115
 20
279.061473017992
 30
0.0
 10
422.9575690515392
 20
277.6889239983842
 30
0.0
 10
422.4533673708669
 20
276.3163749787763
 30
0.0
 10
422.4533673708669
 20
274.6637139143505
 30
0.0
  0
SPLINE
  5
26B
330
1F
100
AcDbEntity
  8
Modulos
100
AcDbSpline
210
0.0
220
0.0
230
1.0
 70
     8
 71
     2
 72
    16
 73
    13
 74
     0
 42
0.000000001
 43
0.0000000001
 40
-7.0
 40
-7.0
 40
-7.0
 40
-6.0
 40
-6.0
 40
-5.0
 40
-5.0
 40
-4.0
 40
-4.0
 40
-3.0
 40
-3.0
 40
-2.0
 40
-2.0
 40
-1.0
 40
-1.0
 40
-1.0
 10
422.4533673708669
 20
274.6637139143505
 30
0.0
 10
422.5093897798305
 20
273.0110528499247
 30
0.0
 10
422.9435634492983
 20
271.6104926258351
 30
0.0
 10
423.3777371187661
 20
270.2099324017455
 30
0.0
 10
424.2460844577017
 20
269.2015290404009
 30
0.0
 10
425.1144317966373
 20
268.1931256790564
 30
0.0
 10
426.3889416005588
 20
267.6329015894206
 30
0.0
 10
427.6634514044804
 20
267.0726774997847
 30
0.0
 10
429.4001460823516
 20
267.0726774997847
 30
0.0
 10
431.8651320767493
 20
267.0726774997847
 30
0.0
 10
433.4897819366933
 20
268.3051704969836
 30
0.0
 10
435.1144317966373
 20
269.5376634941825
 30
0.0
 10
435.5906222728278
 20
271.9746382840984
 30
0.0
  0
SPLINE
  5
26C
330
1F
100
AcDbEntity
  8
Modulos
100
AcDbSpline
210
0.0
220
0.0
230
1.0
 70
     8
 71
     2
 72
    20
 73
    17
 74
     0
 42
0.000000001
 43
0.0000000001
 40
1.0
 40
1.0
 40
1.0
 40
2.0
 40
2.0
 40
3.0
 40
3.0
 40
4.0
 40
4.0
 40
5.0
 40
5.0
 40
6.0
 40
6.0
 40
7.0
 40
7.0
 40
8.0
 40
8.0
 40
9.0
 40
9.0
 40
9.0
 10
433.2937035053208
 20
276.0082517294766
 30
0.0
 10
433.2376810963572
 20
276.8485878639303
 30
0.0
 10
432.9155522448165
 20
277.6048903849388
 30
0.0
 10
432.5934233932759
 20
278.3611929059472
 30
0.0
 10
432.047204905881
 20
278.9074113933421
 30
0.0
 10
431.500986418486
 20
279.4536298807371
 30
0.0
 10
430.7586894997185
 20
279.7757587322777
 30
0.0
 10
430.016392580951
 20
280.0978875838183
 30
0.0
 10
429.1200340375336
 20
280.0978875838183
 30
0.0
 10
428.1956642896345
 20
280.0978875838183
 30
0.0
 10
427.4533673708669
 20
279.7757587322777
 30
0.0
 10
426.7110704520994
 20
279.4536298807371
 30
0.0
 10
426.1788575669454
 20
278.8934057911012
 30
0.0
 10
425.6466446817913
 20
278.3331817014654
 30
0.0
 10
425.3385214324916
 20
277.5908847826979
 30
0.0
 10
425.0303981831919
 20
276.8485878639303
 30
0.0
 10
424.9743757742283
 20
276.0082517294766
 30
0.0
  0
SPLINE
  5
26D
330
1F
100
AcDbEntity
  8
Modulos
100
AcDbSpline
210
0.0
220
0.0
230
1.0
 70
    24
 71
     2
 72
     6
 73
     3
 74
     0
 42
0.000000001
 43
0.0000000001
 40
9.0
 40
9.0
 40
9.0
 40
10.0
 40
10.0
 40
10.0
 10
424.9743757742283
 20
276.0082517294766
 30
0.0
 10
429.1340396397745
 20
276.0082517294766
 30
0.0
 10
433.2937035053208
 20
276.0082517294766
 30
0.0
  0
LINE
  5
26E
330
1F
100
AcDbEntity
  8
Modulos
100
AcDbLine
 10
440.4925830571415
 20
278.8093721776559
 30
0.0
 11
440.4365606481779
 21
278.8093721776559
 31
0.0
  0
LINE
  5
26F
330
1F
100
AcDbEntity
  8
Modulos
100
AcDbLine
 10
440.4365606481779
 20
278.8093721776559
 30
0.0
 11
440.4365606481779
 21
281.8625934661712
 31
0.0
  0
LINE
  5
270
330
1F
100
AcDbEntity
  8
Modulos
100
AcDbLine
 10
440.4365606481779
 20
281.8625934661712
 30
0.0
 11
438.1956642896345
 21
281.8625934661712
 31
0.0
  0
LINE
  5
271
330
1F
100
AcDbEntity
  8
Modulos
100
AcDbLine
 10
438.1956642896345
 20
281.8625934661712
 30
0.0
 11
438.1956642896345
 21
267.3808007490844
 31
0.0
  0
LINE
  5
272
330
1F
100
AcDbEntity
  8
Modulos
100
AcDbLine
 10
438.1956642896345
 20
267.3808007490844
 30
0.0
 11
440.5766166705869
 21
267.3808007490844
 31
0.0
  0
LINE
  5
273
330
1F
100
AcDbEntity
  8
Modulos
100
AcDbLine
 10
440.5766166705869
 20
267.3808007490844
 30
0.0
 11
440.5766166705869
 21
273.8233777798968
 31
0.0
  0
SPLINE
  5
274
330
1F
100
AcDbEntity
  8
Modulos
100
AcDbSpline
210
0.0
220
0.0
230
1.0
 70
     8
 71
     2
 72
    12
 73
     9
 74
     0
 42
0.000000001
 43
0.0000000001
 40
-17.0
 40
-17.0
 40
-17.0
 40
-16.0
 40
-16.0
 40
-15.0
 40
-15.0
 40
-14.0
 40
-14.0
 40
-13.0
 40
-13.0
 40
-13.0
 10
440.5766166705869
 20
273.8233777798968
 30
0.0
 10
440.5766166705869
 20
275.2239380039864
 30
0.0
 10
440.8567287154048
 20
276.3023693765354
 30
0.0
 10
441.1368407602227
 20
277.3808007490844
 30
0.0
 10
441.7530872588221
 20
278.1371032700928
 30
0.0
 10
442.3693337574216
 20
278.8934057911012
 30
0.0
 10
443.3777371187661
 20
279.2855626538463
 30
0.0
 10
444.3861404801107
 20
279.6777195165914
 30
0.0
 10
445.8147119086821
 20
279.6777195165914
 30
0.0
  0
SPLINE
  5
275
330
1F
100
AcDbEntity
  8
Modulos
100
AcDbSpline
210
0.0
220
0.0
230
1.0
 70
    24
 71
     2
 72
     6
 73
     3
 74
     0
 42
0.000000001
 43
0.0000000001
 40
-13.0
 40
-13.0
 40
-13.0
 40
-12.0
 40
-12.0
 40
-12.0
 10
445.8147119086821
 20
279.6777195165914
 30
0.0
 10
445.8147119086821
 20
280.9382237182721
 30
0.0
 10
445.8147119086821
 20
282.1987279199528
 30
0.0
  0
SPLINE
  5
276
330
1F
100
AcDbEntity
  8
Modulos
100
AcDbSpline
210
0.0
220
0.0
230
1.0
 70
     8
 71
     2
 72
     8
 73
     5
 74
     0
 42
0.000000001
 43
0.0000000001
 40
-12.0
 40
-12.0
 40
-12.0
 40
-11.0
 40
-11.0
 40
-10.0
 40
-10.0
 40
-10.0
 10
445.8147119086821
 20
282.1987279199528
 30
0.0
 10
443.8819387994384
 20
282.2547503289164
 30
0.0
 10
442.6214345977577
 20
281.4144141944626
 30
0.0
 10
441.360930396077
 20
280.5740780600088
 30
0.0
 10
440.4925830571415
 20
278.8093721776559
 30
0.0
  0
SPLINE
  5
277
330
1F
100
AcDbEntity
  8
Modulos
100
AcDbSpline
210
0.0
220
0.0
230
1.0
 70
    24
 71
     2
 72
     6
 73
     3
 74
     0
 42
0.000000001
 43
0.0000000001
 40
-37.0
 40
-37.0
 40
-37.0
 40
-36.0
 40
-36.0
 40
-36.0
 10
454.8343197518194
 20
280.2099324017455
 30
0.0
 10
456.0247959422956
 20
280.2099324017455
 30
0.0
 10
457.2152721327717
 20
280.2099324017455
 30
0.0
  0
SPLINE
  5
278
330
1F
100
AcDbEntity
  8
Modulos
100
AcDbSpline
210
0.0
220
0.0
230
1.0
 70
     8
 71
     2
 72
    28
 73
    25
 74
     0
 42
0.000000001
 43
0.0000000001
 40
-36.0
 40
-36.0
 40
-36.0
 40
-35.0
 40
-35.0
 40
-34.0
 40
-34.0
 40
-33.0
 40
-33.0
 40
-32.0
 40
-32.0
 40
-31.0
 40
-31.0
 40
-30.0
 40
-30.0
 40
-29.0
 40
-29.0
 40
-28.0
 40
-28.0
 40
-27.0
 40
-27.0
 40
-26.0
 40
-26.0
 40
-25.0
 40
-25.0
 40
-24.0
 40
-24.0
 40
-24.0
 10
457.2152721327717
 20
280.2099324017455
 30
0.0
 10
457.1872609282899
 20
281.1062909451629
 30
0.0
 10
457.3973449619034
 20
281.9886438863393
 30
0.0
 10
457.6074289955168
 20
282.8709968275158
 30
0.0
 10
458.0836194717073
 20
283.5712769395606
 30
0.0
 10
458.5598099478977
 20
284.2715570516054
 30
0.0
 10
459.3021068666653
 20
284.7057307210732
 30
0.0
 10
460.0444037854328
 20
285.139904390541
 30
0.0
 10
461.0808183512591
 20
285.139904390541
 30
0.0
 10
461.8651320767493
 20
285.139904390541
 30
0.0
 10
462.5654121887941
 20
284.8878035502049
 30
0.0
 10
463.265692300839
 20
284.6357027098687
 30
0.0
 10
463.7838995837521
 20
284.1595122336782
 30
0.0
 10
464.3021068666653
 20
283.6833217574878
 30
0.0
 10
464.610230115965
 20
283.0250584521656
 30
0.0
 10
464.9183533652647
 20
282.3667951468435
 30
0.0
 10
464.9183533652647
 20
281.5544702168716
 30
0.0
 10
464.9183533652647
 20
280.5180556510452
 30
0.0
 10
464.5962245137241
 20
279.733741925555
 30
0.0
 10
464.2740956621835
 20
278.9494282000648
 30
0.0
 10
463.6438435613431
 20
278.2771592925018
 30
0.0
 10
463.0135914605028
 20
277.6048903849388
 30
0.0
 10
462.0612105081219
 20
276.9466270796166
 30
0.0
 10
461.1088295557409
 20
276.2883637742945
 30
0.0
 10
459.8483253540603
 20
275.5040500488043
 30
0.0
  0
SPLINE
  5
279
330
1F
100
AcDbEntity
  8
Modulos
100
AcDbSpline
210
0.0
220
0.0
230
1.0
 70
     8
 71
     2
 72
    12
 73
     9
 74
     0
 42
0.000000001
 43
0.0000000001
 40
-24.0
 40
-24.0
 40
-24.0
 40
-23.0
 40
-23.0
 40
-22.0
 40
-22.0
 40
-21.0
 40
-21.0
 40
-20.0
 40
-20.0
 40
-20.0
 10
459.8483253540603
 20
275.5040500488043
 30
0.0
 10
458.8119107882339
 20
274.8878035502049
 30
0.0
 10
457.859529835853
 20
274.18752343816
 30
0.0
 10
456.907148883472
 20
273.4872433261152
 30
0.0
 10
456.1508463624636
 20
272.5628735782161
 30
0.0
 10
455.3945438414552
 20
271.6385038303169
 30
0.0
 10
454.9043477630238
 20
270.3920052308771
 30
0.0
 10
454.4141516845925
 20
269.1455066314373
 30
0.0
 10
454.2740956621835
 20
267.3808007490844
 30
0.0
  0
SPLINE
  5
27A
330
1F
100
AcDbEntity
  8
Modulos
100
AcDbSpline
210
0.0
220
0.0
230
1.0
 70
    24
 71
     2
 72
     6
 73
     3
 74
     0
 42
0.000000001
 43
0.0000000001
 40
-20.0
 40
-20.0
 40
-20.0
 40
-19.0
 40
-19.0
 40
-19.0
 10
454.2740956621835
 20
267.3808007490844
 30
0.0
 10
460.7586894997185
 20
267.3808007490844
 30
0.0
 10
467.2432833372535
 20
267.3808007490844
 30
0.0
  0
SPLINE
  5
27B
330
1F
100
AcDbEntity
  8
Modulos
100
AcDbSpline
210
0.0
220
0.0
230
1.0
 70
    24
 71
     2
 72
     6
 73
     3
 74
     0
 42
0.000000001
 43
0.0000000001
 40
-19.0
 40
-19.0
 40
-19.0
 40
-18.0
 40
-18.0
 40
-18.0
 10
467.2432833372535
 20
267.3808007490844
 30
0.0
 10
467.2432833372535
 20
268.4312209171517
 30
0.0
 10
467.2432833372535
 20
269.4816410852189
 30
0.0
  0
SPLINE
  5
27C
330
1F
100
AcDbEntity
  8
Modulos
100
AcDbSpline
210
0.0
220
0.0
230
1.0
 70
    24
 71
     2
 72
     6
 73
     3
 74
     0
 42
0.000000001
 43
0.0000000001
 40
-18.0
 40
-18.0
 40
-18.0
 40
-17.0
 40
-17.0
 40
-17.0
 10
467.2432833372535
 20
269.4816410852189
 30
0.0
 10
462.1452441215672
 20
269.4816410852189
 30
0.0
 10
457.047204905881
 20
269.4816410852189
 30
0.0
  0
SPLINE
  5
27D
330
1F
100
AcDbEntity
  8
Modulos
100
AcDbSpline
210
0.0
220
0.0
230
1.0
 70
     8
 71
     2
 72
    12
 73
     9
 74
     0
 42
0.000000001
 43
0.0000000001
 40
-17.0
 40
-17.0
 40
-17.0
 40
-16.0
 40
-16.0
 40
-15.0
 40
-15.0
 40
-14.0
 40
-14.0
 40
-13.0
 40
-13.0
 40
-13.0
 10
457.047204905881
 20
269.4816410852189
 30
0.0
 10
457.2152721327717
 20
270.406010833118
 30
0.0
 10
457.7614906201667
 20
271.1202965474038
 30
0.0
 10
458.3077091075617
 20
271.8345822616894
 30
0.0
 10
459.0780172308109
 20
272.4508287602889
 30
0.0
 10
459.8483253540603
 20
273.0670752588883
 30
0.0
 10
460.7726951019594
 20
273.6132937462833
 30
0.0
 10
461.6970648498585
 20
274.1595122336782
 30
0.0
 10
462.6214345977577
 20
274.7197363233141
 30
0.0
  0
SPLINE
  5
27E
330
1F
100
AcDbEntity
  8
Modulos
100
AcDbSpline
210
0.0
220
0.0
230
1.0
 70
     8
 71
     2
 72
    28
 73
    25
 74
     0
 42
0.000000001
 43
0.0000000001
 40
-13.0
 40
-13.0
 40
-13.0
 40
-12.0
 40
-12.0
 40
-11.0
 40
-11.0
 40
-10.0
 40
-10.0
 40
-9.0
 40
-9.0
 40
-8.0
 40
-8.0
 40
-7.0
 40
-7.0
 40
-6.0
 40
-6.0
 40
-5.0
 40
-5.0
 40
-4.0
 40
-4.0
 40
-3.0
 40
-3.0
 40
-2.0
 40
-2.0
 40
-1.0
 40
-1.0
 40
-1.0
 10
462.6214345977577
 20
274.7197363233141
 30
0.0
 10
463.5458043456568
 20
275.3079716174317
 30
0.0
 10
464.4141516845925
 20
275.952229320513
 30
0.0
 10
465.282499023528
 20
276.5964870235942
 30
0.0
 10
465.9547679310911
 20
277.3948063513253
 30
0.0
 10
466.6270368386541
 20
278.1931256790564
 30
0.0
 10
467.0331993036401
 20
279.2015290404009
 30
0.0
 10
467.4393617686261
 20
280.2099324017455
 30
0.0
 10
467.4393617686261
 20
281.5264590123898
 30
0.0
 10
467.4393617686261
 20
282.9270192364794
 30
0.0
 10
466.9491656901947
 20
283.9914450067875
 30
0.0
 10
466.4589696117633
 20
285.0558707770956
 30
0.0
 10
465.6186334773096
 20
285.7701564913813
 30
0.0
 10
464.7782973428558
 20
286.4844422056671
 30
0.0
 10
463.6438435613431
 20
286.8625934661712
 30
0.0
 10
462.5093897798305
 20
287.2407447266755
 30
0.0
 10
461.2208743736681
 20
287.2407447266755
 30
0.0
 10
459.6522469226877
 20
287.2407447266755
 30
0.0
 10
458.4197539254888
 20
286.7085318415214
 30
0.0
 10
457.1872609282899
 20
286.1763189563673
 30
0.0
 10
456.360930396077
 20
285.2379436062272
 30
0.0
 10
455.5345998638642
 20
284.2995682560872
 30
0.0
 10
455.1424430011191
 20
283.0110528499247
 30
0.0
 10
454.750286138374
 20
281.7225374437623
 30
0.0
 10
454.8343197518194
 20
280.2099324017455
 30
0.0
  0
CIRCLE
  5
27F
330
1F
100
AcDbEntity
  8
Modulos
100
AcDbCircle
 10
567.3477485407079
 20
231.1126137940432
 30
0.0
 40
7.0
  0
ARC
  5
280
330
1F
100
AcDbEntity
  8
Modulos
100
AcDbCircle
 10
711.9587365292471
 20
231.1126137940432
 30
0.0
 40
18.5
100
AcDbArc
 50
197.2953446288583
 51
162.7046553711416
  0
POLYLINE
  5
281
330
1F
100
AcDbEntity
  8
Modulos
100
AcDb2dPolyline
 66
     1
 10
0.0
 20
0.0
 30
0.0
  0
VERTEX
  5
282
330
281
100
AcDbEntity
  8
Modulos
100
AcDbVertex
100
AcDb2dVertex
 10
694.2952147965914
 20
236.6126137940432
 30
0.0
  0
VERTEX
  5
283
330
281
100
AcDbEntity
  8
Modulos
100
AcDbVertex
100
AcDb2dVertex
 10
585.0112702733636
 20
236.6126137940432
 30
0.0
  0
SEQEND
  5
284
330
281
100
AcDbEntity
  8
Modulos
  0
ARC
  5
285
330
1F
100
AcDbEntity
  8
Modulos
100
AcDbCircle
 10
567.3477485407079
 20
231.1126137940432
 30
0.0
 40
18.5
100
AcDbArc
 50
17.29534462885838
 51
342.7046553711417
  0
POLYLINE
  5
286
330
1F
100
AcDbEntity
  8
Modulos
100
AcDb2dPolyline
 66
     1
 10
0.0
 20
0.0
 30
0.0
  0
VERTEX
  5
287
330
286
100
AcDbEntity
  8
Modulos
100
AcDbVertex
100
AcDb2dVertex
 10
585.0112702733636
 20
225.6126137940432
 30
0.0
  0
VERTEX
  5
288
330
286
100
AcDbEntity
  8
Modulos
100
AcDbVertex
100
AcDb2dVertex
 10
694.2952147965914
 20
225.6126137940432
 30
0.0
  0
SEQEND
  5
289
330
286
100
AcDbEntity
  8
Modulos
  0
CIRCLE
  5
28A
330
1F
100
AcDbEntity
  8
Modulos
100
AcDbCircle
 10
711.9587365292471
 20
231.1126137940432
 30
0.0
 40
7.0
  0
CIRCLE
  5
28B
330
1F
100
AcDbEntity
  8
Modulos
100
AcDbCircle
 10
711.9587365292471
 20
231.1126137940432
 30
0.0
 40
7.0
  0
CIRCLE
  5
28C
330
1F
100
AcDbEntity
  8
Modulos
100
AcDbCircle
 10
637.6305373387628
 20
27.25794104727171
 30
0.0
 40
7.0
  0
CIRCLE
  5
28D
330
1F
100
AcDbEntity
  8
Modulos
100
AcDbCircle
 10
637.6305373387628
 20
27.25794104727171
 30
0.0
 40
7.0
  0
POLYLINE
  5
28E
330
1F
100
AcDbEntity
  8
Modulos
100
AcDb2dPolyline
 66
     1
 10
0.0
 20
0.0
 30
0.0
  0
VERTEX
  5
28F
330
28E
100
AcDbEntity
  8
Modulos
100
AcDbVertex
100
AcDb2dVertex
 10
619.9670156061026
 20
32.75794104725715
 30
0.0
  0
VERTEX
  5
290
330
28E
100
AcDbEntity
  8
Modulos
100
AcDbVertex
100
AcDb2dVertex
 10
547.1096661687616
 20
32.75794104727171
 30
0.0
  0
SEQEND
  5
291
330
28E
100
AcDbEntity
  8
Modulos
  0
ARC
  5
292
330
1F
100
AcDbEntity
  8
Modulos
100
AcDbCircle
 10
529.4461444361059
 20
27.25794104727171
 30
0.0
 40
18.5
100
AcDbArc
 50
17.29534462885839
 51
342.7046553711417
  0
POLYLINE
  5
293
330
1F
100
AcDbEntity
  8
Modulos
100
AcDb2dPolyline
 66
     1
 10
0.0
 20
0.0
 30
0.0
  0
VERTEX
  5
294
330
293
100
AcDbEntity
  8
Modulos
100
AcDbVertex
100
AcDb2dVertex
 10
547.1096661687616
 20
21.75794104727172
 30
0.0
  0
VERTEX
  5
295
330
293
100
AcDbEntity
  8
Modulos
100
AcDbVertex
100
AcDb2dVertex
 10
619.9670156061117
 20
21.75794104725717
 30
0.0
  0
SEQEND
  5
296
330
293
100
AcDbEntity
  8
Modulos
  0
ARC
  5
297
330
1F
100
AcDbEntity
  8
Modulos
100
AcDbCircle
 10
637.6305373387628
 20
27.25794104727171
 30
0.0
 40
18.5
100
AcDbArc
 50
197.2953446289056
 51
162.7046553711889
  0
CIRCLE
  5
298
330
1F
100
AcDbEntity
  8
Modulos
100
AcDbCircle
 10
529.4461444361059
 20
27.25794104727171
 30
0.0
 40
7.0
  0
CIRCLE
  5
299
330
1F
100
AcDbEntity
  8
Modulos
100
AcDbCircle
 10
491.4898149558612
 20
54.14701361535086
 30
0.0
 40
7.0
  0
CIRCLE
  5
29A
330
1F
100
AcDbEntity
  8
Modulos
100
AcDbCircle
 10
562.4130878898612
 20
54.14701361535086
 30
0.0
 40
7.0
  0
CIRCLE
  5
29B
330
1F
100
AcDbEntity
  8
Modulos
100
AcDbCircle
 10
562.4130878898612
 20
54.14701361535086
 30
0.0
 40
7.0
  0
POLYLINE
  5
29C
330
1F
100
AcDbEntity
  8
Modulos
100
AcDb2dPolyline
 66
     1
 10
0.0
 20
0.0
 30
0.0
  0
VERTEX
  5
29D
330
29C
100
AcDbEntity
  8
Modulos
100
AcDbVertex
100
AcDb2dVertex
 10
544.7495661572055
 20
59.64701361535087
 30
0.0
  0
VERTEX
  5
29E
330
29C
100
AcDbEntity
  8
Modulos
100
AcDbVertex
100
AcDb2dVertex
 10
509.1533366885168
 20
59.64701361535086
 30
0.0
  0
SEQEND
  5
29F
330
29C
100
AcDbEntity
  8
Modulos
  0
ARC
  5
2A0
330
1F
100
AcDbEntity
  8
Modulos
100
AcDbCircle
 10
491.4898149558612
 20
54.14701361535086
 30
0.0
 40
18.5
100
AcDbArc
 50
17.29534462885838
 51
342.7046553711417
  0
POLYLINE
  5
2A1
330
1F
100
AcDbEntity
  8
Modulos
100
AcDb2dPolyline
 66
     1
 10
0.0
 20
0.0
 30
0.0
  0
VERTEX
  5
2A2
330
2A1
100
AcDbEntity
  8
Modulos
100
AcDbVertex
100
AcDb2dVertex
 10
509.1533366885168
 20
48.64701361535087
 30
0.0
  0
VERTEX
  5
2A3
330
2A1
100
AcDbEntity
  8
Modulos
100
AcDbVertex
100
AcDb2dVertex
 10
544.7495661572055
 20
48.64701361535086
 30
0.0
  0
SEQEND
  5
2A4
330
2A1
100
AcDbEntity
  8
Modulos
  0
ARC
  5
2A5
330
1F
100
AcDbEntity
  8
Modulos
100
AcDbCircle
 10
562.4130878898612
 20
54.14701361535086
 30
0.0
 40
18.5
100
AcDbArc
 50
197.2953446288584
 51
162.7046553711416
  0
POLYLINE
  5
2A6
330
1F
100
AcDbEntity
  8
Modulos
100
AcDb2dPolyline
 66
     1
 10
0.0
 20
0.0
 30
0.0
  0
VERTEX
  5
2A7
330
2A6
100
AcDbEntity
  8
Modulos
100
AcDbVertex
100
AcDb2dVertex
 10
657.3823485125798
 20
59.64701361535087
 30
0.0
  0
VERTEX
  5
2A8
330
2A6
100
AcDbEntity
  8
Modulos
100
AcDbVertex
100
AcDb2dVertex
 10
621.7861190438912
 20
59.64701361535086
 30
0.0
  0
SEQEND
  5
2A9
330
2A6
100
AcDbEntity
  8
Modulos
  0
ARC
  5
2AA
330
1F
100
AcDbEntity
  8
Modulos
100
AcDbCircle
 10
604.1225973112355
 20
54.14701361535086
 30
0.0
 40
18.5
100
AcDbArc
 50
17.29534462885838
 51
342.7046553711417
  0
POLYLINE
  5
2AB
330
1F
100
AcDbEntity
  8
Modulos
100
AcDb2dPolyline
 66
     1
 10
0.0
 20
0.0
 30
0.0
  0
VERTEX
  5
2AC
330
2AB
100
AcDbEntity
  8
Modulos
100
AcDbVertex
100
AcDb2dVertex
 10
621.7861190438912
 20
48.64701361535087
 30
0.0
  0
VERTEX
  5
2AD
330
2AB
100
AcDbEntity
  8
Modulos
100
AcDbVertex
100
AcDb2dVertex
 10
657.3823485125798
 20
48.64701361535086
 30
0.0
  0
SEQEND
  5
2AE
330
2AB
100
AcDbEntity
  8
Modulos
  0
ARC
  5
2AF
330
1F
100
AcDbEntity
  8
Modulos
100
AcDbCircle
 10
675.0458702452356
 20
54.14701361535086
 30
0.0
 40
18.5
100
AcDbArc
 50
197.2953446288584
 51
162.7046553711416
  0
CIRCLE
  5
2B0
330
1F
100
AcDbEntity
  8
Modulos
100
AcDbCircle
 10
675.0458702452356
 20
54.14701361535086
 30
0.0
 40
7.0
  0
CIRCLE
  5
2B1
330
1F
100
AcDbEntity
  8
Modulos
100
AcDbCircle
 10
675.0458702452356
 20
54.14701361535086
 30
0.0
 40
7.0
  0
CIRCLE
  5
2B2
330
1F
100
AcDbEntity
  8
Modulos
100
AcDbCircle
 10
604.1225973112355
 20
54.14701361535086
 30
0.0
 40
7.0
  0
CIRCLE
  5
2B3
330
1F
100
AcDbEntity
  8
Modulos
100
AcDbCircle
 10
604.1225973112355
 20
95.33408738964079
 30
0.0
 40
7.0
  0
CIRCLE
  5
2B4
330
1F
100
AcDbEntity
  8
Modulos
100
AcDbCircle
 10
675.0458702452356
 20
95.33408738964079
 30
0.0
 40
7.0
  0
CIRCLE
  5
2B5
330
1F
100
AcDbEntity
  8
Modulos
100
AcDbCircle
 10
675.0458702452356
 20
95.33408738964079
 30
0.0
 40
7.0
  0
POLYLINE
  5
2B6
330
1F
100
AcDbEntity
  8
Modulos
100
AcDb2dPolyline
 66
     1
 10
0.0
 20
0.0
 30
0.0
  0
VERTEX
  5
2B7
330
2B6
100
AcDbEntity
  8
Modulos
100
AcDbVertex
100
AcDb2dVertex
 10
657.3823485125798
 20
100.8340873896408
 30
0.0
  0
VERTEX
  5
2B8
330
2B6
100
AcDbEntity
  8
Modulos
100
AcDbVertex
100
AcDb2dVertex
 10
621.7861190438912
 20
100.8340873896408
 30
0.0
  0
SEQEND
  5
2B9
330
2B6
100
AcDbEntity
  8
Modulos
  0
ARC
  5
2BA
330
1F
100
AcDbEntity
  8
Modulos
100
AcDbCircle
 10
604.1225973112355
 20
95.33408738964079
 30
0.0
 40
18.5
100
AcDbArc
 50
17.29534462885838
 51
342.7046553711417
  0
POLYLINE
  5
2BB
330
1F
100
AcDbEntity
  8
Modulos
100
AcDb2dPolyline
 66
     1
 10
0.0
 20
0.0
 30
0.0
  0
VERTEX
  5
2BC
330
2BB
100
AcDbEntity
  8
Modulos
100
AcDbVertex
100
AcDb2dVertex
 10
621.7861190438912
 20
89.83408738964079
 30
0.0
  0
VERTEX
  5
2BD
330
2BB
100
AcDbEntity
  8
Modulos
100
AcDbVertex
100
AcDb2dVertex
 10
657.3823485125798
 20
89.83408738964079
 30
0.0
  0
SEQEND
  5
2BE
330
2BB
100
AcDbEntity
  8
Modulos
  0
ARC
  5
2BF
330
1F
100
AcDbEntity
  8
Modulos
100
AcDbCircle
 10
675.0458702452356
 20
95.33408738964079
 30
0.0
 40
18.5
100
AcDbArc
 50
197.2953446288584
 51
162.7046553711416
  0
POLYLINE
  5
2C0
330
1F
100
AcDbEntity
  8
Modulos
100
AcDb2dPolyline
 66
     1
 10
0.0
 20
0.0
 30
0.0
  0
VERTEX
  5
2C1
330
2C0
100
AcDbEntity
  8
Modulos
100
AcDbVertex
100
AcDb2dVertex
 10
544.7495661572055
 20
100.8340873896408
 30
0.0
  0
VERTEX
  5
2C2
330
2C0
100
AcDbEntity
  8
Modulos
100
AcDbVertex
100
AcDb2dVertex
 10
509.1533366885168
 20
100.8340873896408
 30
0.0
  0
SEQEND
  5
2C3
330
2C0
100
AcDbEntity
  8
Modulos
  0
ARC
  5
2C4
330
1F
100
AcDbEntity
  8
Modulos
100
AcDbCircle
 10
491.4898149558612
 20
95.33408738964079
 30
0.0
 40
18.5
100
AcDbArc
 50
17.29534462885838
 51
342.7046553711417
  0
POLYLINE
  5
2C5
330
1F
100
AcDbEntity
  8
Modulos
100
AcDb2dPolyline
 66
     1
 10
0.0
 20
0.0
 30
0.0
  0
VERTEX
  5
2C6
330
2C5
100
AcDbEntity
  8
Modulos
100
AcDbVertex
100
AcDb2dVertex
 10
509.1533366885168
 20
89.83408738964079
 30
0.0
  0
VERTEX
  5
2C7
330
2C5
100
AcDbEntity
  8
Modulos
100
AcDbVertex
100
AcDb2dVertex
 10
544.7495661572055
 20
89.83408738964079
 30
0.0
  0
SEQEND
  5
2C8
330
2C5
100
AcDbEntity
  8
Modulos
  0
ARC
  5
2C9
330
1F
100
AcDbEntity
  8
Modulos
100
AcDbCircle
 10
562.4130878898612
 20
95.33408738964079
 30
0.0
 40
18.5
100
AcDbArc
 50
197.2953446288584
 51
162.7046553711416
  0
CIRCLE
  5
2CA
330
1F
100
AcDbEntity
  8
Modulos
100
AcDbCircle
 10
562.4130878898612
 20
95.33408738964079
 30
0.0
 40
7.0
  0
CIRCLE
  5
2CB
330
1F
100
AcDbEntity
  8
Modulos
100
AcDbCircle
 10
562.4130878898612
 20
95.33408738964079
 30
0.0
 40
7.0
  0
CIRCLE
  5
2CC
330
1F
100
AcDbEntity
  8
Modulos
100
AcDbCircle
 10
491.4898149558612
 20
95.33408738964079
 30
0.0
 40
7.0
  0
CIRCLE
  5
2CD
330
1F
100
AcDbEntity
  8
Modulos
100
AcDbCircle
 10
379.3180473553448
 20
135.5991316542147
 30
0.0
 40
7.0
  0
CIRCLE
  5
2CE
330
1F
100
AcDbEntity
  8
Modulos
100
AcDbCircle
 10
450.2413202893449
 20
135.5991316542147
 30
0.0
 40
7.0
  0
CIRCLE
  5
2CF
330
1F
100
AcDbEntity
  8
Modulos
100
AcDbCircle
 10
450.2413202893449
 20
135.5991316542147
 30
0.0
 40
7.0
  0
POLYLINE
  5
2D0
330
1F
100
AcDbEntity
  8
Modulos
100
AcDb2dPolyline
 66
     1
 10
0.0
 20
0.0
 30
0.0
  0
VERTEX
  5
2D1
330
2D0
100
AcDbEntity
  8
Modulos
100
AcDbVertex
100
AcDb2dVertex
 10
432.5777985566892
 20
141.0991316542147
 30
0.0
  0
VERTEX
  5
2D2
330
2D0
100
AcDbEntity
  8
Modulos
100
AcDbVertex
100
AcDb2dVertex
 10
396.9815690880005
 20
141.0991316542147
 30
0.0
  0
SEQEND
  5
2D3
330
2D0
100
AcDbEntity
  8
Modulos
  0
ARC
  5
2D4
330
1F
100
AcDbEntity
  8
Modulos
100
AcDbCircle
 10
379.3180473553448
 20
135.5991316542147
 30
0.0
 40
18.5
100
AcDbArc
 50
17.29534462885838
 51
342.7046553711417
  0
POLYLINE
  5
2D5
330
1F
100
AcDbEntity
  8
Modulos
100
AcDb2dPolyline
 66
     1
 10
0.0
 20
0.0
 30
0.0
  0
VERTEX
  5
2D6
330
2D5
100
AcDbEntity
  8
Modulos
100
AcDbVertex
100
AcDb2dVertex
 10
396.9815690880005
 20
130.0991316542147
 30
0.0
  0
VERTEX
  5
2D7
330
2D5
100
AcDbEntity
  8
Modulos
100
AcDbVertex
100
AcDb2dVertex
 10
432.5777985566892
 20
130.0991316542147
 30
0.0
  0
SEQEND
  5
2D8
330
2D5
100
AcDbEntity
  8
Modulos
  0
ARC
  5
2D9
330
1F
100
AcDbEntity
  8
Modulos
100
AcDbCircle
 10
450.2413202893449
 20
135.5991316542147
 30
0.0
 40
18.5
100
AcDbArc
 50
197.2953446288584
 51
162.7046553711416
  0
CIRCLE
  5
2DA
330
1F
100
AcDbEntity
  8
Modulos
100
AcDbCircle
 10
491.4898149558612
 20
135.5991316542147
 30
0.0
 40
7.0
  0
CIRCLE
  5
2DB
330
1F
100
AcDbEntity
  8
Modulos
100
AcDbCircle
 10
562.4130878898612
 20
135.5991316542147
 30
0.0
 40
7.0
  0
CIRCLE
  5
2DC
330
1F
100
AcDbEntity
  8
Modulos
100
AcDbCircle
 10
562.4130878898612
 20
135.5991316542147
 30
0.0
 40
7.0
  0
POLYLINE
  5
2DD
330
1F
100
AcDbEntity
  8
Modulos
100
AcDb2dPolyline
 66
     1
 10
0.0
 20
0.0
 30
0.0
  0
VERTEX
  5
2DE
330
2DD
100
AcDbEntity
  8
Modulos
100
AcDbVertex
100
AcDb2dVertex
 10
544.7495661572055
 20
141.0991316542147
 30
0.0
  0
VERTEX
  5
2DF
330
2DD
100
AcDbEntity
  8
Modulos
100
AcDbVertex
100
AcDb2dVertex
 10
509.1533366885168
 20
141.0991316542147
 30
0.0
  0
SEQEND
  5
2E0
330
2DD
100
AcDbEntity
  8
Modulos
  0
ARC
  5
2E1
330
1F
100
AcDbEntity
  8
Modulos
100
AcDbCircle
 10
491.4898149558612
 20
135.5991316542147
 30
0.0
 40
18.5
100
AcDbArc
 50
17.29534462885838
 51
342.7046553711417
  0
POLYLINE
  5
2E2
330
1F
100
AcDbEntity
  8
Modulos
100
AcDb2dPolyline
 66
     1
 10
0.0
 20
0.0
 30
0.0
  0
VERTEX
  5
2E3
330
2E2
100
AcDbEntity
  8
Modulos
100
AcDbVertex
100
AcDb2dVertex
 10
509.1533366885168
 20
130.0991316542147
 30
0.0
  0
VERTEX
  5
2E4
330
2E2
100
AcDbEntity
  8
Modulos
100
AcDbVertex
100
AcDb2dVertex
 10
544.7495661572055
 20
130.0991316542147
 30
0.0
  0
SEQEND
  5
2E5
330
2E2
100
AcDbEntity
  8
Modulos
  0
ARC
  5
2E6
330
1F
100
AcDbEntity
  8
Modulos
100
AcDbCircle
 10
562.4130878898612
 20
135.5991316542147
 30
0.0
 40
18.5
100
AcDbArc
 50
197.2953446288584
 51
162.7046553711416
  0
POLYLINE
  5
2E7
330
1F
100
AcDbEntity
  8
Modulos
100
AcDb2dPolyline
 66
     1
 10
0.0
 20
0.0
 30
0.0
  0
VERTEX
  5
2E8
330
2E7
100
AcDbEntity
  8
Modulos
100
AcDbVertex
100
AcDb2dVertex
 10
657.3823485125798
 20
141.0991316542147
 30
0.0
  0
VERTEX
  5
2E9
330
2E7
100
AcDbEntity
  8
Modulos
100
AcDbVertex
100
AcDb2dVertex
 10
621.7861190438912
 20
141.0991316542147
 30
0.0
  0
SEQEND
  5
2EA
330
2E7
100
AcDbEntity
  8
Modulos
  0
ARC
  5
2EB
330
1F
100
AcDbEntity
  8
Modulos
100
AcDbCircle
 10
604.1225973112355
 20
135.5991316542147
 30
0.0
 40
18.5
100
AcDbArc
 50
17.29534462885838
 51
342.7046553711417
  0
POLYLINE
  5
2EC
330
1F
100
AcDbEntity
  8
Modulos
100
AcDb2dPolyline
 66
     1
 10
0.0
 20
0.0
 30
0.0
  0
VERTEX
  5
2ED
330
2EC
100
AcDbEntity
  8
Modulos
100
AcDbVertex
100
AcDb2dVertex
 10
621.7861190438912
 20
130.0991316542147
 30
0.0
  0
VERTEX
  5
2EE
330
2EC
100
AcDbEntity
  8
Modulos
100
AcDbVertex
100
AcDb2dVertex
 10
657.3823485125798
 20
130.0991316542147
 30
0.0
  0
SEQEND
  5
2EF
330
2EC
100
AcDbEntity
  8
Modulos
  0
ARC
  5
2F0
330
1F
100
AcDbEntity
  8
Modulos
100
AcDbCircle
 10
675.0458702452356
 20
135.5991316542147
 30
0.0
 40
18.5
100
AcDbArc
 50
197.2953446288584
 51
162.7046553711416
  0
CIRCLE
  5
2F1
330
1F
100
AcDbEntity
  8
Modulos
100
AcDbCircle
 10
675.0458702452356
 20
135.5991316542147
 30
0.0
 40
7.0
  0
CIRCLE
  5
2F2
330
1F
100
AcDbEntity
  8
Modulos
100
AcDbCircle
 10
675.0458702452356
 20
135.5991316542147
 30
0.0
 40
7.0
  0
CIRCLE
  5
2F3
330
1F
100
AcDbEntity
  8
Modulos
100
AcDbCircle
 10
604.1225973112355
 20
135.5991316542147
 30
0.0
 40
7.0
  0
CIRCLE
  5
2F4
330
1F
100
AcDbEntity
  8
Modulos
100
AcDbCircle
 10
604.1225973112355
 20
176.0903773765654
 30
0.0
 40
7.0
  0
CIRCLE
  5
2F5
330
1F
100
AcDbEntity
  8
Modulos
100
AcDbCircle
 10
675.0458702452356
 20
176.0903773765654
 30
0.0
 40
7.0
  0
CIRCLE
  5
2F6
330
1F
100
AcDbEntity
  8
Modulos
100
AcDbCircle
 10
675.0458702452356
 20
176.0903773765654
 30
0.0
 40
7.0
  0
POLYLINE
  5
2F7
330
1F
100
AcDbEntity
  8
Modulos
100
AcDb2dPolyline
 66
     1
 10
0.0
 20
0.0
 30
0.0
  0
VERTEX
  5
2F8
330
2F7
100
AcDbEntity
  8
Modulos
100
AcDbVertex
100
AcDb2dVertex
 10
657.3823485125798
 20
181.5903773765654
 30
0.0
  0
VERTEX
  5
2F9
330
2F7
100
AcDbEntity
  8
Modulos
100
AcDbVertex
100
AcDb2dVertex
 10
621.7861190438912
 20
181.5903773765654
 30
0.0
  0
SEQEND
  5
2FA
330
2F7
100
AcDbEntity
  8
Modulos
  0
ARC
  5
2FB
330
1F
100
AcDbEntity
  8
Modulos
100
AcDbCircle
 10
604.1225973112355
 20
176.0903773765654
 30
0.0
 40
18.5
100
AcDbArc
 50
17.29534462885838
 51
342.7046553711417
  0
POLYLINE
  5
2FC
330
1F
100
AcDbEntity
  8
Modulos
100
AcDb2dPolyline
 66
     1
 10
0.0
 20
0.0
 30
0.0
  0
VERTEX
  5
2FD
330
2FC
100
AcDbEntity
  8
Modulos
100
AcDbVertex
100
AcDb2dVertex
 10
621.7861190438912
 20
170.5903773765654
 30
0.0
  0
VERTEX
  5
2FE
330
2FC
100
AcDbEntity
  8
Modulos
100
AcDbVertex
100
AcDb2dVertex
 10
657.3823485125798
 20
170.5903773765654
 30
0.0
  0
SEQEND
  5
2FF
330
2FC
100
AcDbEntity
  8
Modulos
  0
ARC
  5
300
330
1F
100
AcDbEntity
  8
Modulos
100
AcDbCircle
 10
675.0458702452356
 20
176.0903773765654
 30
0.0
 40
18.5
100
AcDbArc
 50
197.2953446288584
 51
162.7046553711416
  0
CIRCLE
  5
301
330
1F
100
AcDbEntity
  8
Modulos
100
AcDbCircle
 10
533.6984601730062
 20
203.4977583118274
 30
0.0
 40
7.0
  0
POLYLINE
  5
302
330
1F
100
AcDbEntity
  8
Modulos
100
AcDb2dPolyline
 66
     1
 10
0.0
 20
0.0
 30
0.0
  0
VERTEX
  5
303
330
302
100
AcDbEntity
  8
Modulos
100
AcDbVertex
100
AcDb2dVertex
 10
624.2193313430031
 20
208.9977583118129
 30
0.0
  0
VERTEX
  5
304
330
302
100
AcDbEntity
  8
Modulos
100
AcDbVertex
100
AcDb2dVertex
 10
551.361981905662
 20
208.9977583118274
 30
0.0
  0
SEQEND
  5
305
330
302
100
AcDbEntity
  8
Modulos
  0
ARC
  5
306
330
1F
100
AcDbEntity
  8
Modulos
100
AcDbCircle
 10
533.6984601730062
 20
203.4977583118274
 30
0.0
 40
18.5
100
AcDbArc
 50
17.29534462885838
 51
342.7046553711417
  0
POLYLINE
  5
307
330
1F
100
AcDbEntity
  8
Modulos
100
AcDb2dPolyline
 66
     1
 10
0.0
 20
0.0
 30
0.0
  0
VERTEX
  5
308
330
307
100
AcDbEntity
  8
Modulos
100
AcDbVertex
100
AcDb2dVertex
 10
551.361981905662
 20
197.9977583118275
 30
0.0
  0
VERTEX
  5
309
330
307
100
AcDbEntity
  8
Modulos
100
AcDbVertex
100
AcDb2dVertex
 10
624.2193313430122
 20
197.9977583118129
 30
0.0
  0
SEQEND
  5
30A
330
307
100
AcDbEntity
  8
Modulos
  0
ARC
  5
30B
330
1F
100
AcDbEntity
  8
Modulos
100
AcDbCircle
 10
641.8828530756633
 20
203.4977583118274
 30
0.0
 40
18.5
100
AcDbArc
 50
197.2953446289056
 51
162.7046553711888
  0
CIRCLE
  5
30C
330
1F
100
AcDbEntity
  8
Modulos
100
AcDbCircle
 10
641.8828530756633
 20
203.4977583118274
 30
0.0
 40
7.0
  0
CIRCLE
  5
30D
330
1F
100
AcDbEntity
  8
Modulos
100
AcDbCircle
 10
641.8828530756633
 20
203.4977583118274
 30
0.0
 40
7.0
  0
POLYLINE
  5
30E
330
1F
100
AcDbEntity
  8
Modulos
100
AcDb2dPolyline
 66
     1
 10
0.0
 20
0.0
 30
0.0
  0
VERTEX
  5
30F
330
30E
100
AcDbEntity
  8
Modulos
100
AcDbVertex
100
AcDb2dVertex
 10
544.7495661572055
 20
181.5903773765654
 30
0.0
  0
VERTEX
  5
310
330
30E
100
AcDbEntity
  8
Modulos
100
AcDbVertex
100
AcDb2dVertex
 10
509.1533366885168
 20
181.5903773765654
 30
0.0
  0
SEQEND
  5
311
330
30E
100
AcDbEntity
  8
Modulos
  0
ARC
  5
312
330
1F
100
AcDbEntity
  8
Modulos
100
AcDbCircle
 10
491.4898149558612
 20
176.0903773765654
 30
0.0
 40
18.5
100
AcDbArc
 50
17.29534462885838
 51
342.7046553711417
  0
POLYLINE
  5
313
330
1F
100
AcDbEntity
  8
Modulos
100
AcDb2dPolyline
 66
     1
 10
0.0
 20
0.0
 30
0.0
  0
VERTEX
  5
314
330
313
100
AcDbEntity
  8
Modulos
100
AcDbVertex
100
AcDb2dVertex
 10
509.1533366885168
 20
170.5903773765654
 30
0.0
  0
VERTEX
  5
315
330
313
100
AcDbEntity
  8
Modulos
100
AcDbVertex
100
AcDb2dVertex
 10
544.7495661572055
 20
170.5903773765654
 30
0.0
  0
SEQEND
  5
316
330
313
100
AcDbEntity
  8
Modulos
  0
ARC
  5
317
330
1F
100
AcDbEntity
  8
Modulos
100
AcDbCircle
 10
562.4130878898612
 20
176.0903773765654
 30
0.0
 40
18.5
100
AcDbArc
 50
197.2953446288584
 51
162.7046553711416
  0
CIRCLE
  5
318
330
1F
100
AcDbEntity
  8
Modulos
100
AcDbCircle
 10
562.4130878898612
 20
176.0903773765654
 30
0.0
 40
7.0
  0
CIRCLE
  5
319
330
1F
100
AcDbEntity
  8
Modulos
100
AcDbCircle
 10
562.4130878898612
 20
176.0903773765654
 30
0.0
 40
7.0
  0
CIRCLE
  5
31A
330
1F
100
AcDbEntity
  8
Modulos
100
AcDbCircle
 10
491.4898149558612
 20
176.0903773765654
 30
0.0
 40
7.0
  0
CIRCLE
  5
31B
330
1F
100
AcDbEntity
  8
Modulos
100
AcDbCircle
 10
379.282789831166
 20
215.9912977812317
 30
0.0
 40
7.0
  0
POLYLINE
  5
31C
330
1F
100
AcDbEntity
  8
Modulos
100
AcDb2dPolyline
 66
     1
 10
0.0
 20
0.0
 30
0.0
  0
VERTEX
  5
31D
330
31C
100
AcDbEntity
  8
Modulos
100
AcDbVertex
100
AcDb2dVertex
 10
469.8036610011628
 20
221.4912977812172
 30
0.0
  0
VERTEX
  5
31E
330
31C
100
AcDbEntity
  8
Modulos
100
AcDbVertex
100
AcDb2dVertex
 10
396.9463115638217
 20
221.4912977812317
 30
0.0
  0
SEQEND
  5
31F
330
31C
100
AcDbEntity
  8
Modulos
  0
ARC
  5
320
330
1F
100
AcDbEntity
  8
Modulos
100
AcDbCircle
 10
379.282789831166
 20
215.9912977812317
 30
0.0
 40
18.5
100
AcDbArc
 50
17.29534462885838
 51
342.7046553711417
  0
POLYLINE
  5
321
330
1F
100
AcDbEntity
  8
Modulos
100
AcDb2dPolyline
 66
     1
 10
0.0
 20
0.0
 30
0.0
  0
VERTEX
  5
322
330
321
100
AcDbEntity
  8
Modulos
100
AcDbVertex
100
AcDb2dVertex
 10
396.9463115638217
 20
210.4912977812318
 30
0.0
  0
VERTEX
  5
323
330
321
100
AcDbEntity
  8
Modulos
100
AcDbVertex
100
AcDb2dVertex
 10
469.8036610011719
 20
210.4912977812172
 30
0.0
  0
SEQEND
  5
324
330
321
100
AcDbEntity
  8
Modulos
  0
ARC
  5
325
330
1F
100
AcDbEntity
  8
Modulos
100
AcDbCircle
 10
487.467182733823
 20
215.9912977812317
 30
0.0
 40
18.5
100
AcDbArc
 50
197.2953446289055
 51
162.7046553711888
  0
CIRCLE
  5
326
330
1F
100
AcDbEntity
  8
Modulos
100
AcDbCircle
 10
487.467182733823
 20
215.9912977812317
 30
0.0
 40
7.0
  0
CIRCLE
  5
327
330
1F
100
AcDbEntity
  8
Modulos
100
AcDbCircle
 10
487.467182733823
 20
215.9912977812317
 30
0.0
 40
7.0
  0
POLYLINE
  5
328
330
1F
100
AcDbEntity
  8
Modulos
100
AcDb2dPolyline
 66
     1
 10
0.0
 20
0.0
 30
0.0
  0
VERTEX
  5
329
330
328
100
AcDbEntity
  8
Modulos
100
AcDbVertex
100
AcDb2dVertex
 10
432.5777985566892
 20
181.5903773765654
 30
0.0
  0
VERTEX
  5
32A
330
328
100
AcDbEntity
  8
Modulos
100
AcDbVertex
100
AcDb2dVertex
 10
396.9815690880005
 20
181.5903773765654
 30
0.0
  0
SEQEND
  5
32B
330
328
100
AcDbEntity
  8
Modulos
  0
ARC
  5
32C
330
1F
100
AcDbEntity
  8
Modulos
100
AcDbCircle
 10
379.3180473553448
 20
176.0903773765654
 30
0.0
 40
18.5
100
AcDbArc
 50
17.29534462885838
 51
342.7046553711417
  0
POLYLINE
  5
32D
330
1F
100
AcDbEntity
  8
Modulos
100
AcDb2dPolyline
 66
     1
 10
0.0
 20
0.0
 30
0.0
  0
VERTEX
  5
32E
330
32D
100
AcDbEntity
  8
Modulos
100
AcDbVertex
100
AcDb2dVertex
 10
396.9815690880005
 20
170.5903773765654
 30
0.0
  0
VERTEX
  5
32F
330
32D
100
AcDbEntity
  8
Modulos
100
AcDbVertex
100
AcDb2dVertex
 10
432.5777985566892
 20
170.5903773765654
 30
0.0
  0
SEQEND
  5
330
330
32D
100
AcDbEntity
  8
Modulos
  0
ARC
  5
331
330
1F
100
AcDbEntity
  8
Modulos
100
AcDbCircle
 10
450.2413202893449
 20
176.0903773765654
 30
0.0
 40
18.5
100
AcDbArc
 50
197.2953446288584
 51
162.7046553711416
  0
CIRCLE
  5
332
330
1F
100
AcDbEntity
  8
Modulos
100
AcDbCircle
 10
450.2413202893449
 20
176.0903773765654
 30
0.0
 40
7.0
  0
CIRCLE
  5
333
330
1F
100
AcDbEntity
  8
Modulos
100
AcDbCircle
 10
450.2413202893449
 20
176.0903773765654
 30
0.0
 40
7.0
  0
CIRCLE
  5
334
330
1F
100
AcDbEntity
  8
Modulos
100
AcDbCircle
 10
379.3180473553448
 20
176.0903773765654
 30
0.0
 40
7.0
  0
CIRCLE
  5
335
330
1F
100
AcDbEntity
  8
Modulos
100
AcDbCircle
 10
489.1837862744919
 20
14.34952791124821
 30
0.0
 40
7.0
  0
CIRCLE
  5
336
330
1F
100
AcDbEntity
  8
Modulos
100
AcDbCircle
 10
489.1837862744919
 20
14.34952791124821
 30
0.0
 40
7.0
  0
POLYLINE
  5
337
330
1F
100
AcDbEntity
  8
Modulos
100
AcDb2dPolyline
 66
     1
 10
0.0
 20
0.0
 30
0.0
  0
VERTEX
  5
338
330
337
100
AcDbEntity
  8
Modulos
100
AcDbVertex
100
AcDb2dVertex
 10
471.5202645418316
 20
19.84952791123364
 30
0.0
  0
VERTEX
  5
339
330
337
100
AcDbEntity
  8
Modulos
100
AcDbVertex
100
AcDb2dVertex
 10
398.6629151044905
 20
19.84952791124821
 30
0.0
  0
SEQEND
  5
33A
330
337
100
AcDbEntity
  8
Modulos
  0
ARC
  5
33B
330
1F
100
AcDbEntity
  8
Modulos
100
AcDbCircle
 10
380.9993933718349
 20
14.34952791124821
 30
0.0
 40
18.5
100
AcDbArc
 50
17.29534462885838
 51
342.7046553711417
  0
POLYLINE
  5
33C
330
1F
100
AcDbEntity
  8
Modulos
100
AcDb2dPolyline
 66
     1
 10
0.0
 20
0.0
 30
0.0
  0
VERTEX
  5
33D
330
33C
100
AcDbEntity
  8
Modulos
100
AcDbVertex
100
AcDb2dVertex
 10
398.6629151044905
 20
8.84952791124822
 30
0.0
  0
VERTEX
  5
33E
330
33C
100
AcDbEntity
  8
Modulos
100
AcDbVertex
100
AcDb2dVertex
 10
471.5202645418407
 20
8.849527911233661
 30
0.0
  0
SEQEND
  5
33F
330
33C
100
AcDbEntity
  8
Modulos
  0
ARC
  5
340
330
1F
100
AcDbEntity
  8
Modulos
100
AcDbCircle
 10
489.1837862744919
 20
14.34952791124821
 30
0.0
 40
18.5
100
AcDbArc
 50
197.2953446289055
 51
162.7046553711889
  0
CIRCLE
  5
341
330
1F
100
AcDbEntity
  8
Modulos
100
AcDbCircle
 10
380.9993933718349
 20
14.34952791124821
 30
0.0
 40
7.0
  0
CIRCLE
  5
342
330
1F
100
AcDbEntity
  8
Modulos
100
AcDbCircle
 10
714.7427651219258
 20
190.8196770659395
 30
0.0
 40
7.0
  0
CIRCLE
  5
343
330
1F
100
AcDbEntity
  8
Modulos
100
AcDbCircle
 10
714.7427651219258
 20
190.8196770659395
 30
0.0
 40
7.0
  0
ARC
  5
344
330
1F
100
AcDbEntity
  8
Modulos
100
AcDbCircle
 10
714.7427651219258
 20
190.8196770659395
 30
0.0
 40
18.5
100
AcDbArc
 50
287.2953446288583
 51
252.7046553711416
  0
POLYLINE
  5
345
330
1F
100
AcDbEntity
  8
Modulos
100
AcDb2dPolyline
 66
     1
 10
0.0
 20
0.0
 30
0.0
  0
VERTEX
  5
346
330
345
100
AcDbEntity
  8
Modulos
100
AcDbVertex
100
AcDb2dVertex
 10
709.2427651219258
 20
173.1561553332838
 30
0.0
  0
VERTEX
  5
347
330
345
100
AcDbEntity
  8
Modulos
100
AcDbVertex
100
AcDb2dVertex
 10
709.2427651219258
 20
63.8722108100561
 30
0.0
  0
SEQEND
  5
348
330
345
100
AcDbEntity
  8
Modulos
  0
ARC
  5
349
330
1F
100
AcDbEntity
  8
Modulos
100
AcDbCircle
 10
714.7427651219258
 20
46.20868907740039
 30
0.0
 40
18.5
100
AcDbArc
 50
107.2953446288584
 51
72.70465537114164
  0
POLYLINE
  5
34A
330
1F
100
AcDbEntity
  8
Modulos
100
AcDb2dPolyline
 66
     1
 10
0.0
 20
0.0
 30
0.0
  0
VERTEX
  5
34B
330
34A
100
AcDbEntity
  8
Modulos
100
AcDbVertex
100
AcDb2dVertex
 10
720.2427651219258
 20
63.8722108100561
 30
0.0
  0
VERTEX
  5
34C
330
34A
100
AcDbEntity
  8
Modulos
100
AcDbVertex
100
AcDb2dVertex
 10
720.2427651219258
 20
173.1561553332838
 30
0.0
  0
SEQEND
  5
34D
330
34A
100
AcDbEntity
  8
Modulos
  0
CIRCLE
  5
34E
330
1F
100
AcDbEntity
  8
Modulos
100
AcDbCircle
 10
714.7427651219258
 20
46.20868907740039
 30
0.0
 40
7.0
  0
POLYLINE
  5
34F
330
1F
100
AcDbEntity
  8
Tamaño pieza cuero
100
AcDb2dPolyline
 66
     1
 10
0.0
 20
0.0
 30
0.0
 70
     1
  0
VERTEX
  5
350
330
34F
100
AcDbEntity
  8
Tamaño pieza cuero
100
AcDbVertex
100
AcDb2dVertex
 10
348.0025900499454
 20
-9.706272029816972
 30
0.0
  0
VERTEX
  5
351
330
34F
100
AcDbEntity
  8
Tamaño pieza cuero
100
AcDbVertex
100
AcDb2dVertex
 10
740.3610769366188
 20
-9.706272029816972
 30
0.0
  0
VERTEX
  5
352
330
34F
100
AcDbEntity
  8
Tamaño pieza cuero
100
AcDbVertex
100
AcDb2dVertex
 10
740.3610769366188
 20
254.0206845595772
 30
0.0
  0
VERTEX
  5
353
330
34F
100
AcDbEntity
  8
Tamaño pieza cuero
100
AcDbVertex
100
AcDb2dVertex
 10
348.0025900499454
 20
254.0206845595772
 30
0.0
  0
SEQEND
  5
354
330
34F
100
AcDbEntity
  8
Tamaño pieza cuero
  0
ENDSEC
  0
SECTION
  2
OBJECTS
  0
DICTIONARY
  5
C
330
0
100
AcDbDictionary
281
     1
  3
ACAD_DETAILVIEWSTYLE
350
390
  3
ACAD_GROUP
350
D
  3
ACAD_LAYOUT
350
1A
  3
ACAD_MATERIAL
350
43
  3
ACAD_MLEADERSTYLE
350
6B
  3
ACAD_MLINESTYLE
350
17
  3
ACAD_PLOTSETTINGS
350
19
  3
ACAD_PLOTSTYLENAME
350
E
  3
ACAD_SCALELIST
350
47
  3
ACAD_SECTIONVIEWSTYLE
350
391
  3
ACAD_TABLESTYLE
350
69
  3
ACAD_VISUALSTYLE
350
2A
  3
AcDbVariableDictionary
350
355
  3
ACDB_RECOMPOSE_DATA
350
38D
  0
SUN
  5
6D
330
29
100
AcDbSun
 90
        1
290
     0
 63
     7
421
 16777215
 40
1.0
291
     1
 91
  2455826
 92
 54000000
292
     0
 70
     2
 71
   256
280
     1
  0
DICTIONARY
  5
390
102
{ACAD_REACTORS
330
C
102
}
330
C
100
AcDbDictionary
281
     1
  0
DICTIONARY
  5
D
102
{ACAD_REACTORS
330
C
102
}
330
C
100
AcDbDictionary
281
     1
  0
DICTIONARY
  5
1A
102
{ACAD_REACTORS
330
C
102
}
330
C
100
AcDbDictionary
281
     1
  3
Layout1
350
1E
  3
Layout2
350
26
  3
Model
350
22
  0
DICTIONARY
  5
43
102
{ACAD_REACTORS
330
C
102
}
330
C
100
AcDbDictionary
281
     1
  3
ByBlock
350
45
  3
ByLayer
350
44
  3
Global
350
46
  0
DICTIONARY
  5
6B
102
{ACAD_REACTORS
330
C
102
}
330
C
100
AcDbDictionary
281
     1
  3
Standard
350
6C
  0
DICTIONARY
  5
17
102
{ACAD_REACTORS
330
C
102
}
330
C
100
AcDbDictionary
281
     1
  3
Standard
350
18
  0
DICTIONARY
  5
19
102
{ACAD_REACTORS
330
C
102
}
330
C
100
AcDbDictionary
281
     1
  0
ACDBDICTIONARYWDFLT
  5
E
102
{ACAD_REACTORS
330
C
102
}
330
C
100
AcDbDictionary
281
     1
  3
Normal
350
F
100
AcDbDictionaryWithDefault
340
F
  0
DICTIONARY
  5
47
102
{ACAD_REACTORS
330
C
102
}
330
C
100
AcDbDictionary
281
     1
  3
A0
350
48
  3
A1
350
49
  3
A2
350
4A
  3
A3
350
4B
  3
A4
350
4C
  3
A5
350
4D
  3
A6
350
4E
  3
A7
350
4F
  3
A8
350
50
  3
A9
350
51
  3
B0
350
52
  3
B1
350
53
  3
B2
350
54
  3
B3
350
55
  3
B4
350
56
  3
B5
350
57
  3
B6
350
58
  3
B7
350
59
  3
B8
350
5A
  3
B9
350
5B
  3
C0
350
5C
  3
C1
350
5D
  3
C2
350
5E
  3
C3
350
5F
  3
C4
350
60
  3
C5
350
61
  3
C6
350
62
  3
C7
350
63
  3
C8
350
64
  3
C9
350
65
  3
D0
350
66
  3
D1
350
67
  3
D2
350
68
  0
DICTIONARY
  5
391
102
{ACAD_REACTORS
330
C
102
}
330
C
100
AcDbDictionary
281
     1
  0
DICTIONARY
  5
69
102
{ACAD_REACTORS
330
C
102
}
330
C
100
AcDbDictionary
281
     1
  3
Standard
350
6A
  0
DICTIONARY
  5
2A
102
{ACAD_REACTORS
330
C
102
}
330
C
100
AcDbDictionary
281
     1
  3
2dWireframe
350
2F
  3
Basic
350
32
  3
Brighten
350
36
  3
ColorChange
350
3A
  3
Conceptual
350
34
  3
Dim
350
35
  3
EdgeColorOff
350
3D
  3
Facepattern
350
39
  3
Flat
350
2B
  3
FlatWithEdges
350
2C
  3
Gouraud
350
2D
  3
GouraudWithEdges
350
2E
  3
Hidden
350
31
  3
JitterOff
350
3B
  3
Linepattern
350
38
  3
OverhangOff
350
3C
  3
Realistic
350
33
  3
Shaded
350
42
  3
Shaded with edges
350
41
  3
Shades of Gray
350
3E
  3
Sketchy
350
3F
  3
Thicken
350
37
  3
Wireframe
350
30
  3
X-Ray
350
40
  0
DICTIONARY
  5
355
102
{ACAD_REACTORS
330
C
102
}
330
C
100
AcDbDictionary
281
     1
  3
CANNOSCALE
350
356
  3
CMLEADERSTYLE
350
38F
  3
CTABLESTYLE
350
38E
  3
XCLIPFRAME
350
357
  0
XRECORD
  5
38D
102
{ACAD_REACTORS
330
C
102
}
330
C
100
AcDbXrecord
280
     1
 90
        1
330
6A
  0
LAYOUT
  5
1E
102
{ACAD_REACTORS
330
1A
102
}
330
1A
100
AcDbPlotSettings
  1

  2
none_device
  4

  6

 40
0.0
 41
0.0
 42
0.0
 43
0.0
 44
0.0
 45
0.0
 46
0.0
 47
0.0
 48
0.0
 49
0.0
140
0.0
141
0.0
142
1.0
143
1.0
 70
   688
 72
     0
 73
     0
 74
     5
  7

 75
    16
 76
     0
 77
     2
 78
   300
147
1.0
148
0.0
149
0.0
100
AcDbLayout
  1
Layout1
 70
     1
 71
     1
 10
0.0
 20
0.0
 11
12.0
 21
9.0
 12
0.0
 22
0.0
 32
0.0
 14
1.000000000000000E+20
 24
1.000000000000000E+20
 34
1.000000000000000E+20
 15
-1.000000000000000E+20
 25
-1.000000000000000E+20
 35
-1.000000000000000E+20
146
0.0
 13
0.0
 23
0.0
 33
0.0
 16
1.0
 26
0.0
 36
0.0
 17
0.0
 27
1.0
 37
0.0
 76
     0
330
1B
  0
LAYOUT
  5
26
102
{ACAD_REACTORS
330
1A
102
}
330
1A
100
AcDbPlotSettings
  1

  2
none_device
  4

  6

 40
0.0
 41
0.0
 42
0.0
 43
0.0
 44
0.0
 45
0.0
 46
0.0
 47
0.0
 48
0.0
 49
0.0
140
0.0
141
0.0
142
1.0
143
1.0
 70
   688
 72
     0
 73
     0
 74
     5
  7

 75
    16
 76
     0
 77
     2
 78
   300
147
1.0
148
0.0
149
0.0
100
AcDbLayout
  1
Layout2
 70
     1
 71
     2
 10
0.0
 20
0.0
 11
0.0
 21
0.0
 12
0.0
 22
0.0
 32
0.0
 14
0.0
 24
0.0
 34
0.0
 15
0.0
 25
0.0
 35
0.0
146
0.0
 13
0.0
 23
0.0
 33
0.0
 16
1.0
 26
0.0
 36
0.0
 17
0.0
 27
1.0
 37
0.0
 76
     0
330
23
  0
LAYOUT
  5
22
102
{ACAD_REACTORS
330
1A
102
}
330
1A
100
AcDbPlotSettings
  1

  2
none_device
  4
Letter_(8.50_x_11.00_Inches)
  6

 40
6.35
 41
6.35
 42
6.35000508
 43
6.35000508
 44
215.9
 45
279.4
 46
0.0
 47
0.0
 48
0.0
 49
0.0
140
0.0
141
0.0
142
1.0
143
1.0
 70
  1712
 72
     0
 73
     0
 74
     0
  7

 75
     0
 76
     0
 77
     2
 78
   300
147
1.0
148
0.0
149
0.0
100
AcDbLayout
  1
Model
 70
     1
 71
     0
 10
0.0
 20
0.0
 11
12.0
 21
9.0
 12
0.0
 22
0.0
 32
0.0
 14
1.000000000000000E+20
 24
1.000000000000000E+20
 34
1.000000000000000E+20
 15
-1.000000000000000E+20
 25
-1.000000000000000E+20
 35
-1.000000000000000E+20
146
0.0
 13
0.0
 23
0.0
 33
0.0
 16
1.0
 26
0.0
 36
0.0
 17
0.0
 27
1.0
 37
0.0
 76
     0
330
1F
331
29
  0
MATERIAL
  5
45
102
{ACAD_REACTORS
330
43
102
}
330
43
100
AcDbMaterial
  1
ByBlock
 72
     1
 94
      127
  0
MATERIAL
  5
44
102
{ACAD_REACTORS
330
43
102
}
330
43
100
AcDbMaterial
  1
ByLayer
 72
     1
 94
      127
  0
MATERIAL
  5
46
102
{ACAD_REACTORS
330
43
102
}
330
43
100
AcDbMaterial
  1
Global
 72
     1
 94
      127
  0
MLEADERSTYLE
  5
6C
102
{ACAD_REACTORS
330
6B
102
}
102
{ACAD_XDICTIONARY
360
38B
102
}
330
6B
100
AcDbMLeaderStyle
170
     2
171
     1
172
     0
 90
        2
 40
0.0
 41
0.0
173
     1
 91
-1056964608
340
14
 92
       -2
290
     1
 42
0.09
291
     1
 43
0.36
  3
Standard
341
0
 44
0.18
300

342
11
174
     1
178
     6
175
     1
176
     0
 93
-1056964608
 45
0.18
292
     0
297
     0
 46
0.18
343
0
 94
-1056964608
 47
1.0
 49
1.0
140
1.0
293
     1
141
0.0
294
     1
177
     0
142
1.0
295
     0
296
     0
143
0.125
1001
ACAD_MLEADERVER
1070
     2
  0
MLINESTYLE
  5
18
102
{ACAD_REACTORS
330
17
102
}
330
17
100
AcDbMlineStyle
  2
Standard
 70
     0
  3

 62
   256
 51
90.0
 52
90.0
 71
     2
 49
0.5
 62
   256
  6
BYLAYER
 49
-0.5
 62
   256
  6
BYLAYER
  0
ACDBPLACEHOLDER
  5
F
102
{ACAD_REACTORS
330
E
102
}
330
E
  0
SCALE
  5
48
102
{ACAD_REACTORS
330
47
102
}
330
47
100
AcDbScale
 70
     0
300
1:1
140
1.0
141
1.0
290
     1
  0
SCALE
  5
49
102
{ACAD_REACTORS
330
47
102
}
330
47
100
AcDbScale
 70
     0
300
1:2
140
1.0
141
2.0
290
     0
  0
SCALE
  5
4A
102
{ACAD_REACTORS
330
47
102
}
330
47
100
AcDbScale
 70
     0
300
1:4
140
1.0
141
4.0
290
     0
  0
SCALE
  5
4B
102
{ACAD_REACTORS
330
47
102
}
330
47
100
AcDbScale
 70
     0
300
1:5
140
1.0
141
5.0
290
     0
  0
SCALE
  5
4C
102
{ACAD_REACTORS
330
47
102
}
330
47
100
AcDbScale
 70
     0
300
1:8
140
1.0
141
8.0
290
     0
  0
SCALE
  5
4D
102
{ACAD_REACTORS
330
47
102
}
330
47
100
AcDbScale
 70
     0
300
1:10
140
1.0
141
10.0
290
     0
  0
SCALE
  5
4E
102
{ACAD_REACTORS
330
47
102
}
330
47
100
AcDbScale
 70
     0
300
1:16
140
1.0
141
16.0
290
     0
  0
SCALE
  5
4F
102
{ACAD_REACTORS
330
47
102
}
330
47
100
AcDbScale
 70
     0
300
1:20
140
1.0
141
20.0
290
     0
  0
SCALE
  5
50
102
{ACAD_REACTORS
330
47
102
}
330
47
100
AcDbScale
 70
     0
300
1:30
140
1.0
141
30.0
290
     0
  0
SCALE
  5
51
102
{ACAD_REACTORS
330
47
102
}
330
47
100
AcDbScale
 70
     0
300
1:40
140
1.0
141
40.0
290
     0
  0
SCALE
  5
52
102
{ACAD_REACTORS
330
47
102
}
330
47
100
AcDbScale
 70
     0
300
1:50
140
1.0
141
50.0
290
     0
  0
SCALE
  5
53
102
{ACAD_REACTORS
330
47
102
}
330
47
100
AcDbScale
 70
     0
300
1:100
140
1.0
141
100.0
290
     0
  0
SCALE
  5
54
102
{ACAD_REACTORS
330
47
102
}
330
47
100
AcDbScale
 70
     0
300
2:1
140
2.0
141
1.0
290
     0
  0
SCALE
  5
55
102
{ACAD_REACTORS
330
47
102
}
330
47
100
AcDbScale
 70
     0
300
4:1
140
4.0
141
1.0
290
     0
  0
SCALE
  5
56
102
{ACAD_REACTORS
330
47
102
}
330
47
100
AcDbScale
 70
     0
300
8:1
140
8.0
141
1.0
290
     0
  0
SCALE
  5
57
102
{ACAD_REACTORS
330
47
102
}
330
47
100
AcDbScale
 70
     0
300
10:1
140
10.0
141
1.0
290
     0
  0
SCALE
  5
58
102
{ACAD_REACTORS
330
47
102
}
330
47
100
AcDbScale
 70
     0
300
100:1
140
100.0
141
1.0
290
     0
  0
SCALE
  5
59
102
{ACAD_REACTORS
330
47
102
}
330
47
100
AcDbScale
 70
     0
300
1/128" = 1'-0"
140
0.0078125
141
12.0
290
     0
  0
SCALE
  5
5A
102
{ACAD_REACTORS
330
47
102
}
330
47
100
AcDbScale
 70
     0
300
1/64" = 1'-0"
140
0.015625
141
12.0
290
     0
  0
SCALE
  5
5B
102
{ACAD_REACTORS
330
47
102
}
330
47
100
AcDbScale
 70
     0
300
1/32" = 1'-0"
140
0.03125
141
12.0
290
     0
  0
SCALE
  5
5C
102
{ACAD_REACTORS
330
47
102
}
330
47
100
AcDbScale
 70
     0
300
1/16" = 1'-0"
140
0.0625
141
12.0
290
     0
  0
SCALE
  5
5D
102
{ACAD_REACTORS
330
47
102
}
330
47
100
AcDbScale
 70
     0
300
3/32" = 1'-0"
140
0.09375
141
12.0
290
     0
  0
SCALE
  5
5E
102
{ACAD_REACTORS
330
47
102
}
330
47
100
AcDbScale
 70
     0
300
1/8" = 1'-0"
140
0.125
141
12.0
290
     0
  0
SCALE
  5
5F
102
{ACAD_REACTORS
330
47
102
}
330
47
100
AcDbScale
 70
     0
300
3/16" = 1'-0"
140
0.1875
141
12.0
290
     0
  0
SCALE
  5
60
102
{ACAD_REACTORS
330
47
102
}
330
47
100
AcDbScale
 70
     0
300
1/4" = 1'-0"
140
0.25
141
12.0
290
     0
  0
SCALE
  5
61
102
{ACAD_REACTORS
330
47
102
}
330
47
100
AcDbScale
 70
     0
300
3/8" = 1'-0"
140
0.375
141
12.0
290
     0
  0
SCALE
  5
62
102
{ACAD_REACTORS
330
47
102
}
330
47
100
AcDbScale
 70
     0
300
1/2" = 1'-0"
140
0.5
141
12.0
290
     0
  0
SCALE
  5
63
102
{ACAD_REACTORS
330
47
102
}
330
47
100
AcDbScale
 70
     0
300
3/4" = 1'-0"
140
0.75
141
12.0
290
     0
  0
SCALE
  5
64
102
{ACAD_REACTORS
330
47
102
}
330
47
100
AcDbScale
 70
     0
300
1" = 1'-0"
140
1.0
141
12.0
290
     0
  0
SCALE
  5
65
102
{ACAD_REACTORS
330
47
102
}
330
47
100
AcDbScale
 70
     0
300
1-1/2" = 1'-0"
140
1.5
141
12.0
290
     0
  0
SCALE
  5
66
102
{ACAD_REACTORS
330
47
102
}
330
47
100
AcDbScale
 70
     0
300
3" = 1'-0"
140
3.0
141
12.0
290
     0
  0
SCALE
  5
67
102
{ACAD_REACTORS
330
47
102
}
330
47
100
AcDbScale
 70
     0
300
6" = 1'-0"
140
6.0
141
12.0
290
     0
  0
SCALE
  5
68
102
{ACAD_REACTORS
330
47
102
}
330
47
100
AcDbScale
 70
     0
300
1'-0" = 1'-0"
140
12.0
141
12.0
290
     0
  0
TABLESTYLE
  5
6A
102
{ACAD_REACTORS
330
69
102
}
102
{ACAD_XDICTIONARY
360
388
102
}
330
69
100
AcDbTableStyle
  3
Standard
 70
     0
 71
     0
 40
0.06
 41
0.06
280
     0
281
     0
  7
Standard
140
0.18
170
     2
 62
     0
 63
   257
283
     0
 90
        4
 91
        0
  1

274
    -2
284
     1
 64
     0
275
    -2
285
     1
 65
     0
276
    -2
286
     1
 66
     0
277
    -2
287
     1
 67
     0
278
    -2
288
     1
 68
     0
279
    -2
289
     1
 69
     0
  7
Standard
140
0.25
170
     5
 62
     0
 63
   257
283
     0
 90
        4
 91
        0
  1

274
    -2
284
     1
 64
     0
275
    -2
285
     1
 65
     0
276
    -2
286
     1
 66
     0
277
    -2
287
     1
 67
     0
278
    -2
288
     1
 68
     0
279
    -2
289
     1
 69
     0
  7
Standard
140
0.18
170
     5
 62
     0
 63
   257
283
     0
 90
        4
 91
        0
  1

274
    -2
284
     1
 64
     0
275
    -2
285
     1
 65
     0
276
    -2
286
     1
 66
     0
277
    -2
287
     1
 67
     0
278
    -2
288
     1
 68
     0
279
    -2
289
     1
 69
     0
  0
VISUALSTYLE
  5
2F
102
{ACAD_REACTORS
330
2A
102
}
102
{ACAD_XDICTIONARY
360
360
102
}
330
2A
100
AcDbVisualStyle
  2
2dWireframe
 70
     4
 71
     0
 72
     2
 73
     0
 90
        0
 40
0.6
 41
30.0
 62
     5
 63
     7
421
 16777215
 74
     1
 91
        4
 64
     7
 65
   257
 75
     1
175
     1
 42
1.0
 92
        0
 66
   257
 43
1.0
 76
     1
 77
     6
 78
     2
 67
     7
 79
     5
170
     0
171
     0
290
     0
174
     0
 93
        1
 44
0.0
173
     0
291
     0
 45
0.0
  0
VISUALSTYLE
  5
32
102
{ACAD_REACTORS
330
2A
102
}
102
{ACAD_XDICTIONARY
360
366
102
}
330
2A
100
AcDbVisualStyle
  2
Basic
 70
     7
 71
     1
 72
     0
 73
     1
 90
        0
 40
0.6
 41
30.0
 62
     5
 63
     7
421
 16777215
 74
     0
 91
        4
 64
     7
 65
   257
 75
     1
175
     1
 42
1.0
 92
        8
 66
     7
 43
1.0
 76
     1
 77
     6
 78
     2
 67
     7
 79
     5
170
     0
171
     0
290
     0
174
     0
 93
        1
 44
0.0
173
     0
291
     1
 45
0.0
  0
VISUALSTYLE
  5
36
102
{ACAD_REACTORS
330
2A
102
}
102
{ACAD_XDICTIONARY
360
36E
102
}
330
2A
100
AcDbVisualStyle
  2
Brighten
 70
    12
 71
     2
 72
     2
 73
     0
 90
        0
 40
0.6
 41
30.0
 62
     5
 63
     7
421
 16777215
 74
     1
 91
        4
 64
     7
 65
   257
 75
     1
175
     1
 42
1.0
 92
        8
 66
     7
 43
1.0
 76
     1
 77
     6
 78
     2
 67
     7
 79
     5
170
     0
171
     0
290
     0
174
     0
 93
        1
 44
50.0
173
     0
291
     1
 45
0.0
  0
VISUALSTYLE
  5
3A
102
{ACAD_REACTORS
330
2A
102
}
102
{ACAD_XDICTIONARY
360
376
102
}
330
2A
100
AcDbVisualStyle
  2
ColorChange
 70
    16
 71
     2
 72
     2
 73
     3
 90
        0
 40
0.6
 41
30.0
 62
     5
 63
     8
421
  8421504
 74
     1
 91
        4
 64
     7
 65
   257
 75
     1
175
     1
 42
1.0
 92
        8
 66
     8
424
  8421504
 43
1.0
 76
     1
 77
     6
 78
     2
 67
     7
 79
     5
170
     0
171
     0
290
     0
174
     0
 93
        1
 44
0.0
173
     0
291
     1
 45
0.0
  0
VISUALSTYLE
  5
34
102
{ACAD_REACTORS
330
2A
102
}
102
{ACAD_XDICTIONARY
360
36A
102
}
330
2A
100
AcDbVisualStyle
  2
Conceptual
 70
     9
 71
     3
 72
     2
 73
     0
 90
        0
 40
0.6
 41
30.0
 62
     5
 63
     7
421
 16777215
 74
     2
 91
        2
 64
     7
 65
   257
 75
     1
175
     1
 42
179.0
 92
        8
 66
     7
 43
1.0
 76
     1
 77
     6
 78
     2
 67
     7
 79
     3
170
     0
171
     0
290
     0
174
     0
 93
        1
 44
0.0
173
     0
291
     0
 45
0.0
  0
VISUALSTYLE
  5
35
102
{ACAD_REACTORS
330
2A
102
}
102
{ACAD_XDICTIONARY
360
36C
102
}
330
2A
100
AcDbVisualStyle
  2
Dim
 70
    11
 71
     2
 72
     2
 73
     0
 90
        0
 40
0.6
 41
30.0
 62
     5
 63
     7
421
 16777215
 74
     1
 91
        4
 64
     7
 65
   257
 75
     1
175
     1
 42
1.0
 92
        8
 66
     7
 43
1.0
 76
     1
 77
     6
 78
     2
 67
     7
 79
     5
170
     0
171
     0
290
     0
174
     0
 93
        1
 44
-50.0
173
     0
291
     1
 45
0.0
  0
VISUALSTYLE
  5
3D
102
{ACAD_REACTORS
330
2A
102
}
102
{ACAD_XDICTIONARY
360
37C
102
}
330
2A
100
AcDbVisualStyle
  2
EdgeColorOff
 70
    22
 71
     2
 72
     2
 73
     0
 90
        0
 40
0.6
 41
30.0
 62
     5
 63
     7
421
 16777215
 74
     1
 91
        4
 64
     7
 65
   257
 75
     1
175
     1
 42
1.0
 92
        8
 66
     7
 43
1.0
 76
     1
 77
     6
 78
     2
 67
     7
 79
     5
170
     0
171
     0
290
     0
174
     0
 93
        1
 44
0.0
173
     0
291
     1
 45
0.0
  0
VISUALSTYLE
  5
39
102
{ACAD_REACTORS
330
2A
102
}
102
{ACAD_XDICTIONARY
360
374
102
}
330
2A
100
AcDbVisualStyle
  2
Facepattern
 70
    15
 71
     2
 72
     2
 73
     0
 90
        0
 40
0.6
 41
30.0
 62
     5
 63
     7
421
 16777215
 74
     1
 91
        4
 64
     7
 65
   257
 75
     1
175
     1
 42
1.0
 92
        8
 66
     7
 43
1.0
 76
     1
 77
     6
 78
     2
 67
     7
 79
     5
170
     0
171
     0
290
     0
174
     0
 93
        1
 44
0.0
173
     0
291
     1
 45
0.0
  0
VISUALSTYLE
  5
2B
102
{ACAD_REACTORS
330
2A
102
}
102
{ACAD_XDICTIONARY
360
358
102
}
330
2A
100
AcDbVisualStyle
  2
Flat
 70
     0
 71
     2
 72
     1
 73
     1
 90
        2
 40
0.6
 41
30.0
 62
     5
 63
     7
421
 16777215
 74
     0
 91
        0
 64
     7
 65
   257
 75
     1
175
     1
 42
1.0
 92
        8
 66
     7
 43
1.0
 76
     1
 77
     6
 78
     2
 67
     7
 79
     5
170
     0
171
     0
290
     0
174
     0
 93
       13
 44
0.0
173
     0
291
     1
 45
0.0
  0
VISUALSTYLE
  5
2C
102
{ACAD_REACTORS
330
2A
102
}
102
{ACAD_XDICTIONARY
360
35A
102
}
330
2A
100
AcDbVisualStyle
  2
FlatWithEdges
 70
     1
 71
     2
 72
     1
 73
     1
 90
        2
 40
0.6
 41
30.0
 62
     5
 63
     7
421
 16777215
 74
     1
 91
        0
 64
     7
 65
   257
 75
     1
175
     1
 42
1.0
 92
        0
 66
   257
 43
1.0
 76
     1
 77
     6
 78
     2
 67
     7
 79
     5
170
     0
171
     0
290
     0
174
     0
 93
       13
 44
0.0
173
     0
291
     1
 45
0.0
  0
VISUALSTYLE
  5
2D
102
{ACAD_REACTORS
330
2A
102
}
102
{ACAD_XDICTIONARY
360
35C
102
}
330
2A
100
AcDbVisualStyle
  2
Gouraud
 70
     2
 71
     2
 72
     2
 73
     1
 90
        2
 40
0.6
 41
30.0
 62
     5
 63
     7
421
 16777215
 74
     0
 91
        0
 64
     7
 65
   257
 75
     1
175
     1
 42
1.0
 92
        0
 66
     7
 43
1.0
 76
     1
 77
     6
 78
     2
 67
     7
 79
     5
170
     0
171
     0
290
     0
174
     0
 93
       13
 44
0.0
173
     0
291
     1
 45
0.0
  0
VISUALSTYLE
  5
2E
102
{ACAD_REACTORS
330
2A
102
}
102
{ACAD_XDICTIONARY
360
35E
102
}
330
2A
100
AcDbVisualStyle
  2
GouraudWithEdges
 70
     3
 71
     2
 72
     2
 73
     1
 90
        2
 40
0.6
 41
30.0
 62
     5
 63
     7
421
 16777215
 74
     1
 91
        0
 64
     7
 65
   257
 75
     1
175
     1
 42
1.0
 92
        0
 66
   257
 43
1.0
 76
     1
 77
     6
 78
     2
 67
     7
 79
     5
170
     0
171
     0
290
     0
174
     0
 93
       13
 44
0.0
173
     0
291
     1
 45
0.0
  0
VISUALSTYLE
  5
31
102
{ACAD_REACTORS
330
2A
102
}
102
{ACAD_XDICTIONARY
360
364
102
}
330
2A
100
AcDbVisualStyle
  2
Hidden
 70
     6
 71
     1
 72
     2
 73
     2
 90
        0
 40
0.6
 41
30.0
 62
     5
 63
     7
421
 16777215
 74
     2
 91
        2
 64
     7
 65
   257
 75
     2
175
     1
 42
40.0
 92
        0
 66
   257
 43
1.0
 76
     1
 77
     6
 78
     2
 67
     7
 79
     3
170
     0
171
     0
290
     0
174
     0
 93
        1
 44
0.0
173
     0
291
     0
 45
0.0
  0
VISUALSTYLE
  5
3B
102
{ACAD_REACTORS
330
2A
102
}
102
{ACAD_XDICTIONARY
360
378
102
}
330
2A
100
AcDbVisualStyle
  2
JitterOff
 70
    20
 71
     2
 72
     2
 73
     0
 90
        0
 40
0.6
 41
30.0
 62
     5
 63
     7
421
 16777215
 74
     1
 91
        4
 64
     7
 65
   257
 75
     1
175
     1
 42
1.0
 92
       10
 66
     7
 43
1.0
 76
     1
 77
     6
 78
     2
 67
     7
 79
     5
170
     0
171
     0
290
     0
174
     0
 93
        1
 44
0.0
173
     0
291
     1
 45
0.0
  0
VISUALSTYLE
  5
38
102
{ACAD_REACTORS
330
2A
102
}
102
{ACAD_XDICTIONARY
360
372
102
}
330
2A
100
AcDbVisualStyle
  2
Linepattern
 70
    14
 71
     2
 72
     2
 73
     0
 90
        0
 40
0.6
 41
30.0
 62
     5
 63
     7
421
 16777215
 74
     1
 91
        4
 64
     7
 65
   257
 75
     7
175
     7
 42
1.0
 92
        8
 66
     7
 43
1.0
 76
     1
 77
     6
 78
     2
 67
     7
 79
     5
170
     0
171
     0
290
     0
174
     0
 93
        1
 44
0.0
173
     0
291
     1
 45
0.0
  0
VISUALSTYLE
  5
3C
102
{ACAD_REACTORS
330
2A
102
}
102
{ACAD_XDICTIONARY
360
37A
102
}
330
2A
100
AcDbVisualStyle
  2
OverhangOff
 70
    21
 71
     2
 72
     2
 73
     0
 90
        0
 40
0.6
 41
30.0
 62
     5
 63
     7
421
 16777215
 74
     1
 91
        4
 64
     7
 65
   257
 75
     1
175
     1
 42
1.0
 92
        9
 66
     7
 43
1.0
 76
     1
 77
     6
 78
     2
 67
     7
 79
     5
170
     0
171
     0
290
     0
174
     0
 93
        1
 44
0.0
173
     0
291
     1
 45
0.0
  0
VISUALSTYLE
  5
33
102
{ACAD_REACTORS
330
2A
102
}
102
{ACAD_XDICTIONARY
360
368
102
}
330
2A
100
AcDbVisualStyle
  2
Realistic
 70
     8
 71
     2
 72
     3
 73
     0
 90
        2
 40
0.6
 41
30.0
 62
     5
 63
     7
421
 16777215
 74
     0
 91
        0
 64
     7
 65
   257
 75
     1
175
     1
 42
1.0
 92
        8
 66
   257
 43
1.0
 76
     1
 77
     6
 78
     2
 67
     7
 79
     3
170
     0
171
     0
290
     0
174
     0
 93
       13
 44
0.0
173
     0
291
     0
 45
0.0
  0
VISUALSTYLE
  5
42
102
{ACAD_REACTORS
330
2A
102
}
102
{ACAD_XDICTIONARY
360
386
102
}
330
2A
100
AcDbVisualStyle
  2
Shaded
 70
    27
 71
     2
 72
     2
 73
     1
 90
        2
 40
0.6
 41
30.0
 62
     5
 63
     7
421
 16777215
 74
     0
 91
        4
 64
     7
 65
   257
 75
     1
175
     1
 42
1.0
 92
        8
 66
   257
 43
1.0
 76
     1
 77
     6
 78
     2
 67
     8
425
  7895160
 79
     3
170
     0
171
     0
290
     0
174
     0
 93
        5
 44
0.0
173
     0
291
     0
 45
0.0
  0
VISUALSTYLE
  5
41
102
{ACAD_REACTORS
330
2A
102
}
102
{ACAD_XDICTIONARY
360
384
102
}
330
2A
100
AcDbVisualStyle
  2
Shaded with edges
 70
    26
 71
     2
 72
     2
 73
     1
 90
        2
 40
0.6
 41
30.0
 62
     5
 63
     7
421
 16777215
 74
     1
 91
       10
 64
     7
 65
   257
 75
     2
175
     1
 42
1.0
 92
        8
 66
   257
 43
1.0
 76
     1
 77
     6
 78
     2
 67
     7
 79
     3
170
     0
171
     0
290
     0
174
     0
 93
        5
 44
0.0
173
     0
291
     0
 45
0.0
  0
VISUALSTYLE
  5
3E
102
{ACAD_REACTORS
330
2A
102
}
102
{ACAD_XDICTIONARY
360
37E
102
}
330
2A
100
AcDbVisualStyle
  2
Shades of Gray
 70
    23
 71
     2
 72
     2
 73
     3
 90
        0
 40
0.6
 41
30.0
 62
     5
 63
     7
421
 16777215
 74
     2
 91
        2
 64
     7
 65
     7
 75
     1
175
     1
 42
40.0
 92
        8
 66
     7
 43
1.0
 76
     1
 77
     6
 78
     2
 67
     7
 79
     3
170
     0
171
     0
290
     0
174
     0
 93
        1
 44
0.0
173
     0
291
     0
 45
0.0
  0
VISUALSTYLE
  5
3F
102
{ACAD_REACTORS
330
2A
102
}
102
{ACAD_XDICTIONARY
360
380
102
}
330
2A
100
AcDbVisualStyle
  2
Sketchy
 70
    24
 71
     1
 72
     2
 73
     2
 90
        0
 40
0.6
 41
30.0
 62
     5
 63
     7
421
 16777215
 74
     2
 91
        2
 64
     7
 65
     7
 75
     1
175
     1
 42
40.0
 92
       11
 66
     7
 43
1.0
 76
     1
 77
     6
 78
     2
 67
     7
 79
     6
170
     0
171
     0
290
     0
174
     0
 93
        1
 44
0.0
173
     0
291
     0
 45
0.0
  0
VISUALSTYLE
  5
37
102
{ACAD_REACTORS
330
2A
102
}
102
{ACAD_XDICTIONARY
360
370
102
}
330
2A
100
AcDbVisualStyle
  2
Thicken
 70
    13
 71
     2
 72
     2
 73
     0
 90
        0
 40
0.6
 41
30.0
 62
     5
 63
     7
421
 16777215
 74
     1
 91
        4
 64
     7
 65
   257
 75
     1
175
     1
 42
1.0
 92
       12
 66
     7
 43
1.0
 76
     1
 77
     6
 78
     2
 67
     7
 79
     5
170
     0
171
     0
290
     0
174
     0
 93
        1
 44
0.0
173
     0
291
     1
 45
0.0
  0
VISUALSTYLE
  5
30
102
{ACAD_REACTORS
330
2A
102
}
102
{ACAD_XDICTIONARY
360
362
102
}
330
2A
100
AcDbVisualStyle
  2
Wireframe
 70
     5
 71
     0
 72
     2
 73
     0
 90
        0
 40
0.6
 41
30.0
 62
     5
 63
     7
421
 16777215
 74
     1
 91
        4
 64
     7
 65
   257
 75
     1
175
     1
 42
1.0
 92
        0
 66
   257
 43
1.0
 76
     1
 77
     6
 78
     2
 67
     7
 79
     3
170
     0
171
     0
290
     0
174
     0
 93
        1
 44
0.0
173
     0
291
     0
 45
0.0
  0
VISUALSTYLE
  5
40
102
{ACAD_REACTORS
330
2A
102
}
102
{ACAD_XDICTIONARY
360
382
102
}
330
2A
100
AcDbVisualStyle
  2
X-Ray
 70
    25
 71
     2
 72
     2
 73
     1
 90
        1
 40
0.5
 41
30.0
 62
     5
 63
     7
421
 16777215
 74
     1
 91
        0
 64
     7
 65
   257
 75
     1
175
     1
 42
1.0
 92
        8
 66
     7
 43
1.0
 76
     1
 77
     6
 78
     2
 67
     7
 79
     3
170
     0
171
     0
290
     0
174
     0
 93
       13
 44
0.0
173
     0
291
     0
 45
0.0
  0
DICTIONARYVAR
  5
356
102
{ACAD_REACTORS
330
355
102
}
330
355
100
DictionaryVariables
280
     0
  1
1:1
  0
DICTIONARYVAR
  5
38F
102
{ACAD_REACTORS
330
355
102
}
330
355
100
DictionaryVariables
280
     0
  1
Standard
  0
DICTIONARYVAR
  5
38E
102
{ACAD_REACTORS
330
355
102
}
330
355
100
DictionaryVariables
280
     0
  1
Standard
  0
DICTIONARYVAR
  5
357
102
{ACAD_REACTORS
330
355
102
}
330
355
100
DictionaryVariables
280
     0
  1
2
  0
DICTIONARY
  5
38B
330
6C
100
AcDbDictionary
280
     1
281
     1
  3
ACAD_XREC_ROUNDTRIP
360
38C
  0
DICTIONARY
  5
388
330
6A
100
AcDbDictionary
280
     1
281
     1
  3
ACAD_ROUNDTRIP_2008_TABLESTYLE_CELLSTYLEMAP
360
389
  0
DICTIONARY
  5
360
330
2F
100
AcDbDictionary
280
     1
281
     1
  3
ACAD_XREC_ROUNDTRIP
360
361
  0
DICTIONARY
  5
366
330
32
100
AcDbDictionary
280
     1
281
     1
  3
ACAD_XREC_ROUNDTRIP
360
367
  0
DICTIONARY
  5
36E
330
36
100
AcDbDictionary
280
     1
281
     1
  3
ACAD_XREC_ROUNDTRIP
360
36F
  0
DICTIONARY
  5
376
330
3A
100
AcDbDictionary
280
     1
281
     1
  3
ACAD_XREC_ROUNDTRIP
360
377
  0
DICTIONARY
  5
36A
330
34
100
AcDbDictionary
280
     1
281
     1
  3
ACAD_XREC_ROUNDTRIP
360
36B
  0
DICTIONARY
  5
36C
330
35
100
AcDbDictionary
280
     1
281
     1
  3
ACAD_XREC_ROUNDTRIP
360
36D
  0
DICTIONARY
  5
37C
330
3D
100
AcDbDictionary
280
     1
281
     1
  3
ACAD_XREC_ROUNDTRIP
360
37D
  0
DICTIONARY
  5
374
330
39
100
AcDbDictionary
280
     1
281
     1
  3
ACAD_XREC_ROUNDTRIP
360
375
  0
DICTIONARY
  5
358
330
2B
100
AcDbDictionary
280
     1
281
     1
  3
ACAD_XREC_ROUNDTRIP
360
359
  0
DICTIONARY
  5
35A
330
2C
100
AcDbDictionary
280
     1
281
     1
  3
ACAD_XREC_ROUNDTRIP
360
35B
  0
DICTIONARY
  5
35C
330
2D
100
AcDbDictionary
280
     1
281
     1
  3
ACAD_XREC_ROUNDTRIP
360
35D
  0
DICTIONARY
  5
35E
330
2E
100
AcDbDictionary
280
     1
281
     1
  3
ACAD_XREC_ROUNDTRIP
360
35F
  0
DICTIONARY
  5
364
330
31
100
AcDbDictionary
280
     1
281
     1
  3
ACAD_XREC_ROUNDTRIP
360
365
  0
DICTIONARY
  5
378
330
3B
100
AcDbDictionary
280
     1
281
     1
  3
ACAD_XREC_ROUNDTRIP
360
379
  0
DICTIONARY
  5
372
330
38
100
AcDbDictionary
280
     1
281
     1
  3
ACAD_XREC_ROUNDTRIP
360
373
  0
DICTIONARY
  5
37A
330
3C
100
AcDbDictionary
280
     1
281
     1
  3
ACAD_XREC_ROUNDTRIP
360
37B
  0
DICTIONARY
  5
368
330
33
100
AcDbDictionary
280
     1
281
     1
  3
ACAD_XREC_ROUNDTRIP
360
369
  0
DICTIONARY
  5
386
330
42
100
AcDbDictionary
280
     1
281
     1
  3
ACAD_XREC_ROUNDTRIP
360
387
  0
DICTIONARY
  5
384
330
41
100
AcDbDictionary
280
     1
281
     1
  3
ACAD_XREC_ROUNDTRIP
360
385
  0
DICTIONARY
  5
37E
330
3E
100
AcDbDictionary
280
     1
281
     1
  3
ACAD_XREC_ROUNDTRIP
360
37F
  0
DICTIONARY
  5
380
330
3F
100
AcDbDictionary
280
     1
281
     1
  3
ACAD_XREC_ROUNDTRIP
360
381
  0
DICTIONARY
  5
370
330
37
100
AcDbDictionary
280
     1
281
     1
  3
ACAD_XREC_ROUNDTRIP
360
371
  0
DICTIONARY
  5
362
330
30
100
AcDbDictionary
280
     1
281
     1
  3
ACAD_XREC_ROUNDTRIP
360
363
  0
DICTIONARY
  5
382
330
40
100
AcDbDictionary
280
     1
281
     1
  3
ACAD_XREC_ROUNDTRIP
360
383
  0
XRECORD
  5
38C
102
{ACAD_REACTORS
330
38B
102
}
330
38B
100
AcDbXrecord
280
     1
102
ACAD_ROUNDTRIP_2010_MLEADER_STYLE
  0
CELLSTYLEMAP
  5
389
102
{ACAD_REACTORS
330
388
102
}
330
388
100
AcDbCellStyleMap
 90
        3
300
CELLSTYLE
  1
TABLEFORMAT_BEGIN
 90
        5
170
     1
 91
        0
 92
    32768
 62
   257
 93
        1
300
CONTENTFORMAT
  1
CONTENTFORMAT_BEGIN
 90
        0
 91
        0
 92
        4
 93
        0
300

 40
0.0
140
1.0
 94
        5
 62
     0
340
11
144
0.25
309
CONTENTFORMAT_END
171
     1
301
MARGIN
  1
CELLMARGIN_BEGIN
 40
0.06
 40
0.06
 40
0.06
 40
0.06
 40
0.06
 40
0.06
309
CELLMARGIN_END
 94
        6
 95
        1
302
GRIDFORMAT
  1
GRIDFORMAT_BEGIN
 90
        0
 91
        1
 62
     0
 92
       -2
340
14
 93
        0
 40
0.045
309
GRIDFORMAT_END
 95
        2
302
GRIDFORMAT
  1
GRIDFORMAT_BEGIN
 90
        0
 91
        1
 62
     0
 92
       -2
340
14
 93
        0
 40
0.045
309
GRIDFORMAT_END
 95
        4
302
GRIDFORMAT
  1
GRIDFORMAT_BEGIN
 90
        0
 91
        1
 62
     0
 92
       -2
340
14
 93
        0
 40
0.045
309
GRIDFORMAT_END
 95
        8
302
GRIDFORMAT
  1
GRIDFORMAT_BEGIN
 90
        0
 91
        1
 62
     0
 92
       -2
340
14
 93
        0
 40
0.045
309
GRIDFORMAT_END
 95
       16
302
GRIDFORMAT
  1
GRIDFORMAT_BEGIN
 90
        0
 91
        1
 62
     0
 92
       -2
340
14
 93
        0
 40
0.045
309
GRIDFORMAT_END
 95
       32
302
GRIDFORMAT
  1
GRIDFORMAT_BEGIN
 90
        0
 91
        1
 62
     0
 92
       -2
340
14
 93
        0
 40
0.045
309
GRIDFORMAT_END
309
TABLEFORMAT_END
  1
CELLSTYLE_BEGIN
 90
        1
 91
        1
300
_TITLE
309
CELLSTYLE_END
300
CELLSTYLE
  1
TABLEFORMAT_BEGIN
 90
        5
170
     1
 91
        0
 92
        0
 62
   257
 93
        1
300
CONTENTFORMAT
  1
CONTENTFORMAT_BEGIN
 90
        0
 91
        0
 92
        4
 93
        0
300

 40
0.0
140
1.0
 94
        5
 62
     0
340
11
144
0.18
309
CONTENTFORMAT_END
171
     1
301
MARGIN
  1
CELLMARGIN_BEGIN
 40
0.06
 40
0.06
 40
0.06
 40
0.06
 40
0.06
 40
0.06
309
CELLMARGIN_END
 94
        6
 95
        1
302
GRIDFORMAT
  1
GRIDFORMAT_BEGIN
 90
        0
 91
        1
 62
     0
 92
       -2
340
14
 93
        0
 40
0.045
309
GRIDFORMAT_END
 95
        2
302
GRIDFORMAT
  1
GRIDFORMAT_BEGIN
 90
        0
 91
        1
 62
     0
 92
       -2
340
14
 93
        0
 40
0.045
309
GRIDFORMAT_END
 95
        4
302
GRIDFORMAT
  1
GRIDFORMAT_BEGIN
 90
        0
 91
        1
 62
     0
 92
       -2
340
14
 93
        0
 40
0.045
309
GRIDFORMAT_END
 95
        8
302
GRIDFORMAT
  1
GRIDFORMAT_BEGIN
 90
        0
 91
        1
 62
     0
 92
       -2
340
14
 93
        0
 40
0.045
309
GRIDFORMAT_END
 95
       16
302
GRIDFORMAT
  1
GRIDFORMAT_BEGIN
 90
        0
 91
        1
 62
     0
 92
       -2
340
14
 93
        0
 40
0.045
309
GRIDFORMAT_END
 95
       32
302
GRIDFORMAT
  1
GRIDFORMAT_BEGIN
 90
        0
 91
        1
 62
     0
 92
       -2
340
14
 93
        0
 40
0.045
309
GRIDFORMAT_END
309
TABLEFORMAT_END
  1
CELLSTYLE_BEGIN
 90
        2
 91
        1
300
_HEADER
309
CELLSTYLE_END
300
CELLSTYLE
  1
TABLEFORMAT_BEGIN
 90
        5
170
     1
 91
        0
 92
        0
 62
   257
 93
        1
300
CONTENTFORMAT
  1
CONTENTFORMAT_BEGIN
 90
        0
 91
        0
 92
        4
 93
        0
300

 40
0.0
140
1.0
 94
        2
 62
     0
340
11
144
0.18
309
CONTENTFORMAT_END
171
     1
301
MARGIN
  1
CELLMARGIN_BEGIN
 40
0.06
 40
0.06
 40
0.06
 40
0.06
 40
0.06
 40
0.06
309
CELLMARGIN_END
 94
        6
 95
        1
302
GRIDFORMAT
  1
GRIDFORMAT_BEGIN
 90
        0
 91
        1
 62
     0
 92
       -2
340
14
 93
        0
 40
0.045
309
GRIDFORMAT_END
 95
        2
302
GRIDFORMAT
  1
GRIDFORMAT_BEGIN
 90
        0
 91
        1
 62
     0
 92
       -2
340
14
 93
        0
 40
0.045
309
GRIDFORMAT_END
 95
        4
302
GRIDFORMAT
  1
GRIDFORMAT_BEGIN
 90
        0
 91
        1
 62
     0
 92
       -2
340
14
 93
        0
 40
0.045
309
GRIDFORMAT_END
 95
        8
302
GRIDFORMAT
  1
GRIDFORMAT_BEGIN
 90
        0
 91
        1
 62
     0
 92
       -2
340
14
 93
        0
 40
0.045
309
GRIDFORMAT_END
 95
       16
302
GRIDFORMAT
  1
GRIDFORMAT_BEGIN
 90
        0
 91
        1
 62
     0
 92
       -2
340
14
 93
        0
 40
0.045
309
GRIDFORMAT_END
 95
       32
302
GRIDFORMAT
  1
GRIDFORMAT_BEGIN
 90
        0
 91
        1
 62
     0
 92
       -2
340
14
 93
        0
 40
0.045
309
GRIDFORMAT_END
309
TABLEFORMAT_END
  1
CELLSTYLE_BEGIN
 90
        3
 91
        2
300
_DATA
309
CELLSTYLE_END
  0
XRECORD
  5
361
102
{ACAD_REACTORS
330
360
102
}
330
360
100
AcDbXrecord
280
     1
102
RTVSPropertyOp0
 70
     1
102
RTVSPropertyOp1
 70
     1
102
RTVSPropertyOp2
 70
     1
102
RTVSPropertyOp3
 70
     1
102
RTVSPropertyOp4
 70
     1
102
RTVSPropertyOp5
 70
     1
102
RTVSPropertyOp6
 70
     1
102
RTVSPropertyOp7
 70
     1
102
RTVSPropertyOp8
 70
     1
102
RTVSPropertyOp9
 70
     1
102
RTVSPropertyOp10
 70
     1
102
RTVSPropertyOp11
 70
     1
102
RTVSPropertyOp12
 70
     1
102
RTVSPropertyOp13
 70
     1
102
RTVSPropertyOp14
 70
     1
102
RTVSPropertyOp15
 70
     1
102
RTVSPropertyOp16
 70
     1
102
RTVSPropertyOp17
 70
     1
102
RTVSPropertyOp18
 70
     1
102
RTVSPropertyOp19
 70
     1
102
RTVSPropertyOp20
 70
     1
102
RTVSPropertyOp21
 70
     1
102
RTVSPropertyOp22
 70
     1
102
RTVSPropertyOp23
 70
     1
102
RTVSPropertyOp24
 70
     1
102
RTVSPropertyOp25
 70
     1
102
RTVSPropertyOp26
 70
     1
102
RTVSPropertyOp27
 70
     1
102
RTVSPropertyOp28
 70
     1
102
RTVSPropertyOp29
 70
     1
102
RTVSPropertyOp30
 70
     1
102
RTVSPropertyOp31
 70
     1
102
RTVSPropertyOp32
 70
     1
102
RTVSPropertyOp33
 70
     1
102
RTVSPropertyOp34
 70
     1
102
RTVSPropertyOp35
 70
     1
102
RTVSPropertyOp36
 70
     1
102
RTVSPropertyOp37
 70
     1
102
RTVSPropertyOp38
 70
     1
102
RTVSPropertyOp39
 70
     1
102
RTVSPropertyOp40
 70
     1
102
RTVSPropertyOp41
 70
     1
102
RTVSPropertyOp42
 70
     1
102
RTVSPropertyOp43
 70
     1
102
RTVSPropertyOp44
 70
     1
102
RTVSPropertyOp45
 70
     1
102
RTVSPropertyOp46
 70
     1
102
RTVSPropertyOp47
 70
     1
102
RTVSPropertyOp48
 70
     1
102
RTVSPropertyOp49
 70
     1
102
RTVSPropertyOp50
 70
     1
102
RTVSPropertyOp51
 70
     0
102
RTVSPropertyOp52
 70
     0
102
RTVSPropertyOp53
 70
     1
102
RTVSPropertyOp54
 70
     1
102
RTVSPropertyOp55
 70
     1
102
RTVSPropertyOp56
 70
     1
102
RTVSPropertyOp57
 70
     1
102
RTVSPost2010Prop28
280
     1
102
RTVSPost2010PropOp28
 70
     1
102
RTVSPost2010Prop29
280
     1
102
RTVSPost2010PropOp29
 70
     1
102
RTVSPost2010Prop30
280
     0
102
RTVSPost2010PropOp30
 70
     1
102
RTVSPost2010Prop31
280
     0
102
RTVSPost2010PropOp31
 70
     1
102
RTVSPost2010Prop32
280
     0
102
RTVSPost2010PropOp32
 70
     1
102
RTVSPost2010Prop33
280
     0
102
RTVSPost2010PropOp33
 70
     1
102
RTVSPost2010Prop34
280
     0
102
RTVSPost2010PropOp34
 70
     1
102
RTVSPost2010Prop35
280
     0
102
RTVSPost2010PropOp35
 70
     1
102
RTVSPost2010Prop36
280
     0
102
RTVSPost2010PropOp36
 70
     1
102
RTVSPost2010Prop37
 90
       50
102
RTVSPost2010PropOp37
 70
     1
102
RTVSPost2010Prop38
140
0.0
102
RTVSPost2010PropOp38
 70
     1
102
RTVSPost2010Prop39
140
1.0
102
RTVSPost2010PropOp39
 70
     1
102
RTVSPost2010Prop40
 90
        0
102
RTVSPost2010PropOp40
 70
     1
102
RTVSPost2010Prop41ColorIndex
 90
      178
102
RTVSPost2010Prop41ColorRGB
 90
        0
102
RTVSPost2010PropOp41
 70
     1
102
RTVSPost2010Prop42
 90
       50
102
RTVSPost2010PropOp42
 70
     1
102
RTVSPost2010Prop43
 90
        3
102
RTVSPost2010PropOp43
 70
     1
102
RTVSPost2010Prop44ColorIndex
 90
        5
102
RTVSPost2010Prop44ColorRGB
 90
      255
102
RTVSPost2010PropOp44
 70
     1
102
RTVSPost2010Prop45
280
     0
102
RTVSPost2010PropOp45
 70
     1
102
RTVSPost2010Prop46
 90
       50
102
RTVSPost2010PropOp46
 70
     1
102
RTVSPost2010Prop47
 90
       50
102
RTVSPost2010PropOp47
 70
     1
102
RTVSPost2010Prop48
 90
       50
102
RTVSPost2010PropOp48
 70
     1
102
RTVSPost2010Prop49
280
     0
102
RTVSPost2010PropOp49
 70
     1
102
RTVSPost2010Prop50
 90
       50
102
RTVSPost2010PropOp50
 70
     1
102
RTVSPost2010Prop51ColorIndex
 90
      256
102
RTVSPost2010Prop51ColorRGB
 90
-16777216
102
RTVSPost2010PropOp51
 70
     0
102
RTVSPost2010Prop52
140
1.0
102
RTVSPost2010PropOp52
 70
     0
102
RTVSPost2010Prop53
 90
        2
102
RTVSPost2010PropOp53
 70
     1
102
RTVSPost2010Prop54
  1
strokes_ogs.tif
102
RTVSPost2010PropOp54
 70
     1
102
RTVSPost2010Prop55
280
     0
102
RTVSPost2010PropOp55
 70
     1
102
RTVSPost2010Prop56
140
1.0
102
RTVSPost2010PropOp56
 70
     1
102
RTVSPost2010Prop57
140
1.0
102
RTVSPost2010PropOp57
 70
     1
  0
XRECORD
  5
367
102
{ACAD_REACTORS
330
366
102
}
330
366
100
AcDbXrecord
280
     1
102
RTVSPropertyOp0
 70
     1
102
RTVSPropertyOp1
 70
     1
102
RTVSPropertyOp2
 70
     1
102
RTVSPropertyOp3
 70
     1
102
RTVSPropertyOp4
 70
     1
102
RTVSPropertyOp5
 70
     1
102
RTVSPropertyOp6
 70
     1
102
RTVSPropertyOp7
 70
     1
102
RTVSPropertyOp8
 70
     1
102
RTVSPropertyOp9
 70
     1
102
RTVSPropertyOp10
 70
     1
102
RTVSPropertyOp11
 70
     1
102
RTVSPropertyOp12
 70
     1
102
RTVSPropertyOp13
 70
     1
102
RTVSPropertyOp14
 70
     1
102
RTVSPropertyOp15
 70
     1
102
RTVSPropertyOp16
 70
     1
102
RTVSPropertyOp17
 70
     1
102
RTVSPropertyOp18
 70
     1
102
RTVSPropertyOp19
 70
     1
102
RTVSPropertyOp20
 70
     1
102
RTVSPropertyOp21
 70
     1
102
RTVSPropertyOp22
 70
     1
102
RTVSPropertyOp23
 70
     1
102
RTVSPropertyOp24
 70
     1
102
RTVSPropertyOp25
 70
     1
102
RTVSPropertyOp26
 70
     1
102
RTVSPropertyOp27
 70
     1
102
RTVSPropertyOp28
 70
     1
102
RTVSPropertyOp29
 70
     1
102
RTVSPropertyOp30
 70
     1
102
RTVSPropertyOp31
 70
     1
102
RTVSPropertyOp32
 70
     1
102
RTVSPropertyOp33
 70
     1
102
RTVSPropertyOp34
 70
     1
102
RTVSPropertyOp35
 70
     1
102
RTVSPropertyOp36
 70
     1
102
RTVSPropertyOp37
 70
     1
102
RTVSPropertyOp38
 70
     1
102
RTVSPropertyOp39
 70
     1
102
RTVSPropertyOp40
 70
     1
102
RTVSPropertyOp41
 70
     1
102
RTVSPropertyOp42
 70
     1
102
RTVSPropertyOp43
 70
     1
102
RTVSPropertyOp44
 70
     1
102
RTVSPropertyOp45
 70
     1
102
RTVSPropertyOp46
 70
     1
102
RTVSPropertyOp47
 70
     1
102
RTVSPropertyOp48
 70
     1
102
RTVSPropertyOp49
 70
     1
102
RTVSPropertyOp50
 70
     1
102
RTVSPropertyOp51
 70
     0
102
RTVSPropertyOp52
 70
     0
102
RTVSPropertyOp53
 70
     1
102
RTVSPropertyOp54
 70
     1
102
RTVSPropertyOp55
 70
     1
102
RTVSPropertyOp56
 70
     1
102
RTVSPropertyOp57
 70
     1
102
RTVSPost2010Prop28
280
     0
102
RTVSPost2010PropOp28
 70
     1
102
RTVSPost2010Prop29
280
     1
102
RTVSPost2010PropOp29
 70
     1
102
RTVSPost2010Prop30
280
     1
102
RTVSPost2010PropOp30
 70
     1
102
RTVSPost2010Prop31
280
     0
102
RTVSPost2010PropOp31
 70
     1
102
RTVSPost2010Prop32
280
     0
102
RTVSPost2010PropOp32
 70
     1
102
RTVSPost2010Prop33
280
     0
102
RTVSPost2010PropOp33
 70
     1
102
RTVSPost2010Prop34
280
     0
102
RTVSPost2010PropOp34
 70
     1
102
RTVSPost2010Prop35
280
     0
102
RTVSPost2010PropOp35
 70
     1
102
RTVSPost2010Prop36
280
     0
102
RTVSPost2010PropOp36
 70
     1
102
RTVSPost2010Prop37
 90
       50
102
RTVSPost2010PropOp37
 70
     1
102
RTVSPost2010Prop38
140
0.0
102
RTVSPost2010PropOp38
 70
     1
102
RTVSPost2010Prop39
140
1.0
102
RTVSPost2010PropOp39
 70
     1
102
RTVSPost2010Prop40
 90
        0
102
RTVSPost2010PropOp40
 70
     1
102
RTVSPost2010Prop41ColorIndex
 90
      178
102
RTVSPost2010Prop41ColorRGB
 90
        0
102
RTVSPost2010PropOp41
 70
     1
102
RTVSPost2010Prop42
 90
       50
102
RTVSPost2010PropOp42
 70
     1
102
RTVSPost2010Prop43
 90
        3
102
RTVSPost2010PropOp43
 70
     1
102
RTVSPost2010Prop44ColorIndex
 90
        5
102
RTVSPost2010Prop44ColorRGB
 90
      255
102
RTVSPost2010PropOp44
 70
     1
102
RTVSPost2010Prop45
280
     0
102
RTVSPost2010PropOp45
 70
     1
102
RTVSPost2010Prop46
 90
       50
102
RTVSPost2010PropOp46
 70
     1
102
RTVSPost2010Prop47
 90
       50
102
RTVSPost2010PropOp47
 70
     1
102
RTVSPost2010Prop48
 90
       50
102
RTVSPost2010PropOp48
 70
     1
102
RTVSPost2010Prop49
280
     0
102
RTVSPost2010PropOp49
 70
     1
102
RTVSPost2010Prop50
 90
       50
102
RTVSPost2010PropOp50
 70
     1
102
RTVSPost2010Prop51ColorIndex
 90
      256
102
RTVSPost2010Prop51ColorRGB
 90
-16777216
102
RTVSPost2010PropOp51
 70
     0
102
RTVSPost2010Prop52
140
1.0
102
RTVSPost2010PropOp52
 70
     0
102
RTVSPost2010Prop53
 90
        2
102
RTVSPost2010PropOp53
 70
     1
102
RTVSPost2010Prop54
  1
strokes_ogs.tif
102
RTVSPost2010PropOp54
 70
     1
102
RTVSPost2010Prop55
280
     0
102
RTVSPost2010PropOp55
 70
     1
102
RTVSPost2010Prop56
140
1.0
102
RTVSPost2010PropOp56
 70
     1
102
RTVSPost2010Prop57
140
1.0
102
RTVSPost2010PropOp57
 70
     1
  0
XRECORD
  5
36F
102
{ACAD_REACTORS
330
36E
102
}
330
36E
100
AcDbXrecord
280
     1
102
RTVSPropertyOp0
 70
     1
102
RTVSPropertyOp1
 70
     1
102
RTVSPropertyOp2
 70
     1
102
RTVSPropertyOp3
 70
     1
102
RTVSPropertyOp4
 70
     1
102
RTVSPropertyOp5
 70
     1
102
RTVSPropertyOp6
 70
     1
102
RTVSPropertyOp7
 70
     1
102
RTVSPropertyOp8
 70
     1
102
RTVSPropertyOp9
 70
     1
102
RTVSPropertyOp10
 70
     1
102
RTVSPropertyOp11
 70
     1
102
RTVSPropertyOp12
 70
     1
102
RTVSPropertyOp13
 70
     1
102
RTVSPropertyOp14
 70
     1
102
RTVSPropertyOp15
 70
     1
102
RTVSPropertyOp16
 70
     1
102
RTVSPropertyOp17
 70
     1
102
RTVSPropertyOp18
 70
     1
102
RTVSPropertyOp19
 70
     1
102
RTVSPropertyOp20
 70
     1
102
RTVSPropertyOp21
 70
     1
102
RTVSPropertyOp22
 70
     1
102
RTVSPropertyOp23
 70
     1
102
RTVSPropertyOp24
 70
     1
102
RTVSPropertyOp25
 70
     1
102
RTVSPropertyOp26
 70
     1
102
RTVSPropertyOp27
 70
     1
102
RTVSPropertyOp28
 70
     1
102
RTVSPropertyOp29
 70
     1
102
RTVSPropertyOp30
 70
     1
102
RTVSPropertyOp31
 70
     1
102
RTVSPropertyOp32
 70
     1
102
RTVSPropertyOp33
 70
     1
102
RTVSPropertyOp34
 70
     1
102
RTVSPropertyOp35
 70
     1
102
RTVSPropertyOp36
 70
     1
102
RTVSPropertyOp37
 70
     1
102
RTVSPropertyOp38
 70
     1
102
RTVSPropertyOp39
 70
     1
102
RTVSPropertyOp40
 70
     1
102
RTVSPropertyOp41
 70
     1
102
RTVSPropertyOp42
 70
     1
102
RTVSPropertyOp43
 70
     1
102
RTVSPropertyOp44
 70
     1
102
RTVSPropertyOp45
 70
     1
102
RTVSPropertyOp46
 70
     1
102
RTVSPropertyOp47
 70
     1
102
RTVSPropertyOp48
 70
     1
102
RTVSPropertyOp49
 70
     1
102
RTVSPropertyOp50
 70
     1
102
RTVSPropertyOp51
 70
     0
102
RTVSPropertyOp52
 70
     0
102
RTVSPropertyOp53
 70
     1
102
RTVSPropertyOp54
 70
     1
102
RTVSPropertyOp55
 70
     1
102
RTVSPropertyOp56
 70
     1
102
RTVSPropertyOp57
 70
     1
102
RTVSPost2010Prop28
280
     0
102
RTVSPost2010PropOp28
 70
     1
102
RTVSPost2010Prop29
280
     1
102
RTVSPost2010PropOp29
 70
     1
102
RTVSPost2010Prop30
280
     1
102
RTVSPost2010PropOp30
 70
     1
102
RTVSPost2010Prop31
280
     0
102
RTVSPost2010PropOp31
 70
     1
102
RTVSPost2010Prop32
280
     0
102
RTVSPost2010PropOp32
 70
     1
102
RTVSPost2010Prop33
280
     0
102
RTVSPost2010PropOp33
 70
     1
102
RTVSPost2010Prop34
280
     0
102
RTVSPost2010PropOp34
 70
     1
102
RTVSPost2010Prop35
280
     0
102
RTVSPost2010PropOp35
 70
     1
102
RTVSPost2010Prop36
280
     0
102
RTVSPost2010PropOp36
 70
     1
102
RTVSPost2010Prop37
 90
       50
102
RTVSPost2010PropOp37
 70
     1
102
RTVSPost2010Prop38
140
0.0
102
RTVSPost2010PropOp38
 70
     1
102
RTVSPost2010Prop39
140
1.0
102
RTVSPost2010PropOp39
 70
     1
102
RTVSPost2010Prop40
 90
        0
102
RTVSPost2010PropOp40
 70
     1
102
RTVSPost2010Prop41ColorIndex
 90
      178
102
RTVSPost2010Prop41ColorRGB
 90
        0
102
RTVSPost2010PropOp41
 70
     1
102
RTVSPost2010Prop42
 90
       50
102
RTVSPost2010PropOp42
 70
     1
102
RTVSPost2010Prop43
 90
        3
102
RTVSPost2010PropOp43
 70
     1
102
RTVSPost2010Prop44ColorIndex
 90
        5
102
RTVSPost2010Prop44ColorRGB
 90
      255
102
RTVSPost2010PropOp44
 70
     1
102
RTVSPost2010Prop45
280
     0
102
RTVSPost2010PropOp45
 70
     1
102
RTVSPost2010Prop46
 90
       50
102
RTVSPost2010PropOp46
 70
     1
102
RTVSPost2010Prop47
 90
       50
102
RTVSPost2010PropOp47
 70
     1
102
RTVSPost2010Prop48
 90
       50
102
RTVSPost2010PropOp48
 70
     1
102
RTVSPost2010Prop49
280
     0
102
RTVSPost2010PropOp49
 70
     1
102
RTVSPost2010Prop50
 90
       50
102
RTVSPost2010PropOp50
 70
     1
102
RTVSPost2010Prop51ColorIndex
 90
      256
102
RTVSPost2010Prop51ColorRGB
 90
-16777216
102
RTVSPost2010PropOp51
 70
     0
102
RTVSPost2010Prop52
140
1.0
102
RTVSPost2010PropOp52
 70
     0
102
RTVSPost2010Prop53
 90
        2
102
RTVSPost2010PropOp53
 70
     1
102
RTVSPost2010Prop54
  1
strokes_ogs.tif
102
RTVSPost2010PropOp54
 70
     1
102
RTVSPost2010Prop55
280
     0
102
RTVSPost2010PropOp55
 70
     1
102
RTVSPost2010Prop56
140
1.0
102
RTVSPost2010PropOp56
 70
     1
102
RTVSPost2010Prop57
140
1.0
102
RTVSPost2010PropOp57
 70
     1
  0
XRECORD
  5
377
102
{ACAD_REACTORS
330
376
102
}
330
376
100
AcDbXrecord
280
     1
102
RTVSPropertyOp0
 70
     1
102
RTVSPropertyOp1
 70
     1
102
RTVSPropertyOp2
 70
     1
102
RTVSPropertyOp3
 70
     1
102
RTVSPropertyOp4
 70
     1
102
RTVSPropertyOp5
 70
     1
102
RTVSPropertyOp6
 70
     1
102
RTVSPropertyOp7
 70
     1
102
RTVSPropertyOp8
 70
     1
102
RTVSPropertyOp9
 70
     1
102
RTVSPropertyOp10
 70
     1
102
RTVSPropertyOp11
 70
     1
102
RTVSPropertyOp12
 70
     1
102
RTVSPropertyOp13
 70
     1
102
RTVSPropertyOp14
 70
     1
102
RTVSPropertyOp15
 70
     1
102
RTVSPropertyOp16
 70
     1
102
RTVSPropertyOp17
 70
     1
102
RTVSPropertyOp18
 70
     1
102
RTVSPropertyOp19
 70
     1
102
RTVSPropertyOp20
 70
     1
102
RTVSPropertyOp21
 70
     1
102
RTVSPropertyOp22
 70
     1
102
RTVSPropertyOp23
 70
     1
102
RTVSPropertyOp24
 70
     1
102
RTVSPropertyOp25
 70
     1
102
RTVSPropertyOp26
 70
     1
102
RTVSPropertyOp27
 70
     1
102
RTVSPropertyOp28
 70
     1
102
RTVSPropertyOp29
 70
     1
102
RTVSPropertyOp30
 70
     1
102
RTVSPropertyOp31
 70
     1
102
RTVSPropertyOp32
 70
     1
102
RTVSPropertyOp33
 70
     1
102
RTVSPropertyOp34
 70
     1
102
RTVSPropertyOp35
 70
     1
102
RTVSPropertyOp36
 70
     1
102
RTVSPropertyOp37
 70
     1
102
RTVSPropertyOp38
 70
     1
102
RTVSPropertyOp39
 70
     1
102
RTVSPropertyOp40
 70
     1
102
RTVSPropertyOp41
 70
     1
102
RTVSPropertyOp42
 70
     1
102
RTVSPropertyOp43
 70
     1
102
RTVSPropertyOp44
 70
     1
102
RTVSPropertyOp45
 70
     1
102
RTVSPropertyOp46
 70
     1
102
RTVSPropertyOp47
 70
     1
102
RTVSPropertyOp48
 70
     1
102
RTVSPropertyOp49
 70
     1
102
RTVSPropertyOp50
 70
     1
102
RTVSPropertyOp51
 70
     0
102
RTVSPropertyOp52
 70
     0
102
RTVSPropertyOp53
 70
     1
102
RTVSPropertyOp54
 70
     1
102
RTVSPropertyOp55
 70
     1
102
RTVSPropertyOp56
 70
     1
102
RTVSPropertyOp57
 70
     1
102
RTVSPost2010Prop28
280
     0
102
RTVSPost2010PropOp28
 70
     1
102
RTVSPost2010Prop29
280
     1
102
RTVSPost2010PropOp29
 70
     1
102
RTVSPost2010Prop30
280
     1
102
RTVSPost2010PropOp30
 70
     1
102
RTVSPost2010Prop31
280
     0
102
RTVSPost2010PropOp31
 70
     1
102
RTVSPost2010Prop32
280
     0
102
RTVSPost2010PropOp32
 70
     1
102
RTVSPost2010Prop33
280
     0
102
RTVSPost2010PropOp33
 70
     1
102
RTVSPost2010Prop34
280
     0
102
RTVSPost2010PropOp34
 70
     1
102
RTVSPost2010Prop35
280
     0
102
RTVSPost2010PropOp35
 70
     1
102
RTVSPost2010Prop36
280
     0
102
RTVSPost2010PropOp36
 70
     1
102
RTVSPost2010Prop37
 90
       50
102
RTVSPost2010PropOp37
 70
     1
102
RTVSPost2010Prop38
140
0.0
102
RTVSPost2010PropOp38
 70
     1
102
RTVSPost2010Prop39
140
1.0
102
RTVSPost2010PropOp39
 70
     1
102
RTVSPost2010Prop40
 90
        0
102
RTVSPost2010PropOp40
 70
     1
102
RTVSPost2010Prop41ColorIndex
 90
      178
102
RTVSPost2010Prop41ColorRGB
 90
        0
102
RTVSPost2010PropOp41
 70
     1
102
RTVSPost2010Prop42
 90
       50
102
RTVSPost2010PropOp42
 70
     1
102
RTVSPost2010Prop43
 90
        3
102
RTVSPost2010PropOp43
 70
     1
102
RTVSPost2010Prop44ColorIndex
 90
        5
102
RTVSPost2010Prop44ColorRGB
 90
      255
102
RTVSPost2010PropOp44
 70
     1
102
RTVSPost2010Prop45
280
     0
102
RTVSPost2010PropOp45
 70
     1
102
RTVSPost2010Prop46
 90
       50
102
RTVSPost2010PropOp46
 70
     1
102
RTVSPost2010Prop47
 90
       50
102
RTVSPost2010PropOp47
 70
     1
102
RTVSPost2010Prop48
 90
       50
102
RTVSPost2010PropOp48
 70
     1
102
RTVSPost2010Prop49
280
     0
102
RTVSPost2010PropOp49
 70
     1
102
RTVSPost2010Prop50
 90
       50
102
RTVSPost2010PropOp50
 70
     1
102
RTVSPost2010Prop51ColorIndex
 90
      256
102
RTVSPost2010Prop51ColorRGB
 90
-16777216
102
RTVSPost2010PropOp51
 70
     0
102
RTVSPost2010Prop52
140
1.0
102
RTVSPost2010PropOp52
 70
     0
102
RTVSPost2010Prop53
 90
        2
102
RTVSPost2010PropOp53
 70
     1
102
RTVSPost2010Prop54
  1
strokes_ogs.tif
102
RTVSPost2010PropOp54
 70
     1
102
RTVSPost2010Prop55
280
     0
102
RTVSPost2010PropOp55
 70
     1
102
RTVSPost2010Prop56
140
1.0
102
RTVSPost2010PropOp56
 70
     1
102
RTVSPost2010Prop57
140
1.0
102
RTVSPost2010PropOp57
 70
     1
  0
XRECORD
  5
36B
102
{ACAD_REACTORS
330
36A
102
}
330
36A
100
AcDbXrecord
280
     1
102
RTVSPropertyOp0
 70
     1
102
RTVSPropertyOp1
 70
     1
102
RTVSPropertyOp2
 70
     1
102
RTVSPropertyOp3
 70
     1
102
RTVSPropertyOp4
 70
     1
102
RTVSPropertyOp5
 70
     1
102
RTVSPropertyOp6
 70
     1
102
RTVSPropertyOp7
 70
     1
102
RTVSPropertyOp8
 70
     1
102
RTVSPropertyOp9
 70
     1
102
RTVSPropertyOp10
 70
     1
102
RTVSPropertyOp11
 70
     1
102
RTVSPropertyOp12
 70
     1
102
RTVSPropertyOp13
 70
     1
102
RTVSPropertyOp14
 70
     1
102
RTVSPropertyOp15
 70
     1
102
RTVSPropertyOp16
 70
     1
102
RTVSPropertyOp17
 70
     1
102
RTVSPropertyOp18
 70
     1
102
RTVSPropertyOp19
 70
     1
102
RTVSPropertyOp20
 70
     1
102
RTVSPropertyOp21
 70
     1
102
RTVSPropertyOp22
 70
     1
102
RTVSPropertyOp23
 70
     1
102
RTVSPropertyOp24
 70
     1
102
RTVSPropertyOp25
 70
     1
102
RTVSPropertyOp26
 70
     1
102
RTVSPropertyOp27
 70
     1
102
RTVSPropertyOp28
 70
     1
102
RTVSPropertyOp29
 70
     1
102
RTVSPropertyOp30
 70
     1
102
RTVSPropertyOp31
 70
     1
102
RTVSPropertyOp32
 70
     1
102
RTVSPropertyOp33
 70
     1
102
RTVSPropertyOp34
 70
     1
102
RTVSPropertyOp35
 70
     1
102
RTVSPropertyOp36
 70
     1
102
RTVSPropertyOp37
 70
     1
102
RTVSPropertyOp38
 70
     1
102
RTVSPropertyOp39
 70
     1
102
RTVSPropertyOp40
 70
     1
102
RTVSPropertyOp41
 70
     1
102
RTVSPropertyOp42
 70
     1
102
RTVSPropertyOp43
 70
     1
102
RTVSPropertyOp44
 70
     1
102
RTVSPropertyOp45
 70
     1
102
RTVSPropertyOp46
 70
     1
102
RTVSPropertyOp47
 70
     1
102
RTVSPropertyOp48
 70
     1
102
RTVSPropertyOp49
 70
     1
102
RTVSPropertyOp50
 70
     1
102
RTVSPropertyOp51
 70
     0
102
RTVSPropertyOp52
 70
     0
102
RTVSPropertyOp53
 70
     1
102
RTVSPropertyOp54
 70
     1
102
RTVSPropertyOp55
 70
     1
102
RTVSPropertyOp56
 70
     1
102
RTVSPropertyOp57
 70
     1
102
RTVSPost2010Prop28
280
     0
102
RTVSPost2010PropOp28
 70
     1
102
RTVSPost2010Prop29
280
     1
102
RTVSPost2010PropOp29
 70
     1
102
RTVSPost2010Prop30
280
     1
102
RTVSPost2010PropOp30
 70
     1
102
RTVSPost2010Prop31
280
     0
102
RTVSPost2010PropOp31
 70
     1
102
RTVSPost2010Prop32
280
     0
102
RTVSPost2010PropOp32
 70
     1
102
RTVSPost2010Prop33
280
     0
102
RTVSPost2010PropOp33
 70
     1
102
RTVSPost2010Prop34
280
     0
102
RTVSPost2010PropOp34
 70
     1
102
RTVSPost2010Prop35
280
     0
102
RTVSPost2010PropOp35
 70
     1
102
RTVSPost2010Prop36
280
     0
102
RTVSPost2010PropOp36
 70
     1
102
RTVSPost2010Prop37
 90
       50
102
RTVSPost2010PropOp37
 70
     1
102
RTVSPost2010Prop38
140
0.0
102
RTVSPost2010PropOp38
 70
     1
102
RTVSPost2010Prop39
140
1.0
102
RTVSPost2010PropOp39
 70
     1
102
RTVSPost2010Prop40
 90
        0
102
RTVSPost2010PropOp40
 70
     1
102
RTVSPost2010Prop41ColorIndex
 90
      178
102
RTVSPost2010Prop41ColorRGB
 90
        0
102
RTVSPost2010PropOp41
 70
     1
102
RTVSPost2010Prop42
 90
       50
102
RTVSPost2010PropOp42
 70
     1
102
RTVSPost2010Prop43
 90
        3
102
RTVSPost2010PropOp43
 70
     1
102
RTVSPost2010Prop44ColorIndex
 90
        5
102
RTVSPost2010Prop44ColorRGB
 90
      255
102
RTVSPost2010PropOp44
 70
     1
102
RTVSPost2010Prop45
280
     0
102
RTVSPost2010PropOp45
 70
     1
102
RTVSPost2010Prop46
 90
       50
102
RTVSPost2010PropOp46
 70
     1
102
RTVSPost2010Prop47
 90
       50
102
RTVSPost2010PropOp47
 70
     1
102
RTVSPost2010Prop48
 90
       50
102
RTVSPost2010PropOp48
 70
     1
102
RTVSPost2010Prop49
280
     0
102
RTVSPost2010PropOp49
 70
     1
102
RTVSPost2010Prop50
 90
       50
102
RTVSPost2010PropOp50
 70
     1
102
RTVSPost2010Prop51ColorIndex
 90
      256
102
RTVSPost2010Prop51ColorRGB
 90
-16777216
102
RTVSPost2010PropOp51
 70
     0
102
RTVSPost2010Prop52
140
1.0
102
RTVSPost2010PropOp52
 70
     0
102
RTVSPost2010Prop53
 90
        2
102
RTVSPost2010PropOp53
 70
     1
102
RTVSPost2010Prop54
  1
strokes_ogs.tif
102
RTVSPost2010PropOp54
 70
     1
102
RTVSPost2010Prop55
280
     0
102
RTVSPost2010PropOp55
 70
     1
102
RTVSPost2010Prop56
140
1.0
102
RTVSPost2010PropOp56
 70
     1
102
RTVSPost2010Prop57
140
1.0
102
RTVSPost2010PropOp57
 70
     1
  0
XRECORD
  5
36D
102
{ACAD_REACTORS
330
36C
102
}
330
36C
100
AcDbXrecord
280
     1
102
RTVSPropertyOp0
 70
     1
102
RTVSPropertyOp1
 70
     1
102
RTVSPropertyOp2
 70
     1
102
RTVSPropertyOp3
 70
     1
102
RTVSPropertyOp4
 70
     1
102
RTVSPropertyOp5
 70
     1
102
RTVSPropertyOp6
 70
     1
102
RTVSPropertyOp7
 70
     1
102
RTVSPropertyOp8
 70
     1
102
RTVSPropertyOp9
 70
     1
102
RTVSPropertyOp10
 70
     1
102
RTVSPropertyOp11
 70
     1
102
RTVSPropertyOp12
 70
     1
102
RTVSPropertyOp13
 70
     1
102
RTVSPropertyOp14
 70
     1
102
RTVSPropertyOp15
 70
     1
102
RTVSPropertyOp16
 70
     1
102
RTVSPropertyOp17
 70
     1
102
RTVSPropertyOp18
 70
     1
102
RTVSPropertyOp19
 70
     1
102
RTVSPropertyOp20
 70
     1
102
RTVSPropertyOp21
 70
     1
102
RTVSPropertyOp22
 70
     1
102
RTVSPropertyOp23
 70
     1
102
RTVSPropertyOp24
 70
     1
102
RTVSPropertyOp25
 70
     1
102
RTVSPropertyOp26
 70
     1
102
RTVSPropertyOp27
 70
     1
102
RTVSPropertyOp28
 70
     1
102
RTVSPropertyOp29
 70
     1
102
RTVSPropertyOp30
 70
     1
102
RTVSPropertyOp31
 70
     1
102
RTVSPropertyOp32
 70
     1
102
RTVSPropertyOp33
 70
     1
102
RTVSPropertyOp34
 70
     1
102
RTVSPropertyOp35
 70
     1
102
RTVSPropertyOp36
 70
     1
102
RTVSPropertyOp37
 70
     1
102
RTVSPropertyOp38
 70
     1
102
RTVSPropertyOp39
 70
     1
102
RTVSPropertyOp40
 70
     1
102
RTVSPropertyOp41
 70
     1
102
RTVSPropertyOp42
 70
     1
102
RTVSPropertyOp43
 70
     1
102
RTVSPropertyOp44
 70
     1
102
RTVSPropertyOp45
 70
     1
102
RTVSPropertyOp46
 70
     1
102
RTVSPropertyOp47
 70
     1
102
RTVSPropertyOp48
 70
     1
102
RTVSPropertyOp49
 70
     1
102
RTVSPropertyOp50
 70
     1
102
RTVSPropertyOp51
 70
     0
102
RTVSPropertyOp52
 70
     0
102
RTVSPropertyOp53
 70
     1
102
RTVSPropertyOp54
 70
     1
102
RTVSPropertyOp55
 70
     1
102
RTVSPropertyOp56
 70
     1
102
RTVSPropertyOp57
 70
     1
102
RTVSPost2010Prop28
280
     0
102
RTVSPost2010PropOp28
 70
     1
102
RTVSPost2010Prop29
280
     1
102
RTVSPost2010PropOp29
 70
     1
102
RTVSPost2010Prop30
280
     1
102
RTVSPost2010PropOp30
 70
     1
102
RTVSPost2010Prop31
280
     0
102
RTVSPost2010PropOp31
 70
     1
102
RTVSPost2010Prop32
280
     0
102
RTVSPost2010PropOp32
 70
     1
102
RTVSPost2010Prop33
280
     0
102
RTVSPost2010PropOp33
 70
     1
102
RTVSPost2010Prop34
280
     0
102
RTVSPost2010PropOp34
 70
     1
102
RTVSPost2010Prop35
280
     0
102
RTVSPost2010PropOp35
 70
     1
102
RTVSPost2010Prop36
280
     0
102
RTVSPost2010PropOp36
 70
     1
102
RTVSPost2010Prop37
 90
       50
102
RTVSPost2010PropOp37
 70
     1
102
RTVSPost2010Prop38
140
0.0
102
RTVSPost2010PropOp38
 70
     1
102
RTVSPost2010Prop39
140
1.0
102
RTVSPost2010PropOp39
 70
     1
102
RTVSPost2010Prop40
 90
        0
102
RTVSPost2010PropOp40
 70
     1
102
RTVSPost2010Prop41ColorIndex
 90
      178
102
RTVSPost2010Prop41ColorRGB
 90
        0
102
RTVSPost2010PropOp41
 70
     1
102
RTVSPost2010Prop42
 90
       50
102
RTVSPost2010PropOp42
 70
     1
102
RTVSPost2010Prop43
 90
        3
102
RTVSPost2010PropOp43
 70
     1
102
RTVSPost2010Prop44ColorIndex
 90
        5
102
RTVSPost2010Prop44ColorRGB
 90
      255
102
RTVSPost2010PropOp44
 70
     1
102
RTVSPost2010Prop45
280
     0
102
RTVSPost2010PropOp45
 70
     1
102
RTVSPost2010Prop46
 90
       50
102
RTVSPost2010PropOp46
 70
     1
102
RTVSPost2010Prop47
 90
       50
102
RTVSPost2010PropOp47
 70
     1
102
RTVSPost2010Prop48
 90
       50
102
RTVSPost2010PropOp48
 70
     1
102
RTVSPost2010Prop49
280
     0
102
RTVSPost2010PropOp49
 70
     1
102
RTVSPost2010Prop50
 90
       50
102
RTVSPost2010PropOp50
 70
     1
102
RTVSPost2010Prop51ColorIndex
 90
      256
102
RTVSPost2010Prop51ColorRGB
 90
-16777216
102
RTVSPost2010PropOp51
 70
     0
102
RTVSPost2010Prop52
140
1.0
102
RTVSPost2010PropOp52
 70
     0
102
RTVSPost2010Prop53
 90
        2
102
RTVSPost2010PropOp53
 70
     1
102
RTVSPost2010Prop54
  1
strokes_ogs.tif
102
RTVSPost2010PropOp54
 70
     1
102
RTVSPost2010Prop55
280
     0
102
RTVSPost2010PropOp55
 70
     1
102
RTVSPost2010Prop56
140
1.0
102
RTVSPost2010PropOp56
 70
     1
102
RTVSPost2010Prop57
140
1.0
102
RTVSPost2010PropOp57
 70
     1
  0
XRECORD
  5
37D
102
{ACAD_REACTORS
330
37C
102
}
330
37C
100
AcDbXrecord
280
     1
102
RTVSPropertyOp0
 70
     0
102
RTVSPropertyOp1
 70
     0
102
RTVSPropertyOp2
 70
     0
102
RTVSPropertyOp3
 70
     0
102
RTVSPropertyOp4
 70
     0
102
RTVSPropertyOp5
 70
     0
102
RTVSPropertyOp6
 70
     0
102
RTVSPropertyOp7
 70
     0
102
RTVSPropertyOp8
 70
     0
102
RTVSPropertyOp9
 70
     0
102
RTVSPropertyOp10
 70
     0
102
RTVSPropertyOp11
 70
     0
102
RTVSPropertyOp12
 70
     0
102
RTVSPropertyOp13
 70
     0
102
RTVSPropertyOp14
 70
     2
102
RTVSPropertyOp15
 70
     0
102
RTVSPropertyOp16
 70
     0
102
RTVSPropertyOp17
 70
     0
102
RTVSPropertyOp18
 70
     0
102
RTVSPropertyOp19
 70
     0
102
RTVSPropertyOp20
 70
     0
102
RTVSPropertyOp21
 70
     0
102
RTVSPropertyOp22
 70
     0
102
RTVSPropertyOp23
 70
     0
102
RTVSPropertyOp24
 70
     0
102
RTVSPropertyOp25
 70
     0
102
RTVSPropertyOp26
 70
     0
102
RTVSPropertyOp27
 70
     0
102
RTVSPropertyOp28
 70
     0
102
RTVSPropertyOp29
 70
     0
102
RTVSPropertyOp30
 70
     0
102
RTVSPropertyOp31
 70
     0
102
RTVSPropertyOp32
 70
     0
102
RTVSPropertyOp33
 70
     0
102
RTVSPropertyOp34
 70
     0
102
RTVSPropertyOp35
 70
     0
102
RTVSPropertyOp36
 70
     0
102
RTVSPropertyOp37
 70
     0
102
RTVSPropertyOp38
 70
     0
102
RTVSPropertyOp39
 70
     0
102
RTVSPropertyOp40
 70
     0
102
RTVSPropertyOp41
 70
     0
102
RTVSPropertyOp42
 70
     0
102
RTVSPropertyOp43
 70
     0
102
RTVSPropertyOp44
 70
     0
102
RTVSPropertyOp45
 70
     0
102
RTVSPropertyOp46
 70
     0
102
RTVSPropertyOp47
 70
     0
102
RTVSPropertyOp48
 70
     0
102
RTVSPropertyOp49
 70
     0
102
RTVSPropertyOp50
 70
     0
102
RTVSPropertyOp51
 70
     0
102
RTVSPropertyOp52
 70
     0
102
RTVSPropertyOp53
 70
     0
102
RTVSPropertyOp54
 70
     0
102
RTVSPropertyOp55
 70
     0
102
RTVSPropertyOp56
 70
     0
102
RTVSPropertyOp57
 70
     0
102
RTVSPost2010Prop28
280
     0
102
RTVSPost2010PropOp28
 70
     0
102
RTVSPost2010Prop29
280
     1
102
RTVSPost2010PropOp29
 70
     0
102
RTVSPost2010Prop30
280
     1
102
RTVSPost2010PropOp30
 70
     0
102
RTVSPost2010Prop31
280
     0
102
RTVSPost2010PropOp31
 70
     0
102
RTVSPost2010Prop32
280
     0
102
RTVSPost2010PropOp32
 70
     0
102
RTVSPost2010Prop33
280
     0
102
RTVSPost2010PropOp33
 70
     0
102
RTVSPost2010Prop34
280
     0
102
RTVSPost2010PropOp34
 70
     0
102
RTVSPost2010Prop35
280
     0
102
RTVSPost2010PropOp35
 70
     0
102
RTVSPost2010Prop36
280
     0
102
RTVSPost2010PropOp36
 70
     0
102
RTVSPost2010Prop37
 90
       50
102
RTVSPost2010PropOp37
 70
     0
102
RTVSPost2010Prop38
140
0.0
102
RTVSPost2010PropOp38
 70
     0
102
RTVSPost2010Prop39
140
1.0
102
RTVSPost2010PropOp39
 70
     0
102
RTVSPost2010Prop40
 90
        0
102
RTVSPost2010PropOp40
 70
     0
102
RTVSPost2010Prop41ColorIndex
 90
      178
102
RTVSPost2010Prop41ColorRGB
 90
        0
102
RTVSPost2010PropOp41
 70
     0
102
RTVSPost2010Prop42
 90
       50
102
RTVSPost2010PropOp42
 70
     0
102
RTVSPost2010Prop43
 90
        3
102
RTVSPost2010PropOp43
 70
     0
102
RTVSPost2010Prop44ColorIndex
 90
        5
102
RTVSPost2010Prop44ColorRGB
 90
      255
102
RTVSPost2010PropOp44
 70
     0
102
RTVSPost2010Prop45
280
     0
102
RTVSPost2010PropOp45
 70
     0
102
RTVSPost2010Prop46
 90
       50
102
RTVSPost2010PropOp46
 70
     0
102
RTVSPost2010Prop47
 90
       50
102
RTVSPost2010PropOp47
 70
     0
102
RTVSPost2010Prop48
 90
       50
102
RTVSPost2010PropOp48
 70
     0
102
RTVSPost2010Prop49
280
     0
102
RTVSPost2010PropOp49
 70
     0
102
RTVSPost2010Prop50
 90
       50
102
RTVSPost2010PropOp50
 70
     0
102
RTVSPost2010Prop51ColorIndex
 90
      256
102
RTVSPost2010Prop51ColorRGB
 90
-16777216
102
RTVSPost2010PropOp51
 70
     0
102
RTVSPost2010Prop52
140
1.0
102
RTVSPost2010PropOp52
 70
     0
102
RTVSPost2010Prop53
 90
        2
102
RTVSPost2010PropOp53
 70
     0
102
RTVSPost2010Prop54
  1
strokes_ogs.tif
102
RTVSPost2010PropOp54
 70
     0
102
RTVSPost2010Prop55
280
     0
102
RTVSPost2010PropOp55
 70
     0
102
RTVSPost2010Prop56
140
1.0
102
RTVSPost2010PropOp56
 70
     0
102
RTVSPost2010Prop57
140
1.0
102
RTVSPost2010PropOp57
 70
     0
  0
XRECORD
  5
375
102
{ACAD_REACTORS
330
374
102
}
330
374
100
AcDbXrecord
280
     1
102
RTVSPropertyOp0
 70
     1
102
RTVSPropertyOp1
 70
     1
102
RTVSPropertyOp2
 70
     1
102
RTVSPropertyOp3
 70
     1
102
RTVSPropertyOp4
 70
     1
102
RTVSPropertyOp5
 70
     1
102
RTVSPropertyOp6
 70
     1
102
RTVSPropertyOp7
 70
     1
102
RTVSPropertyOp8
 70
     1
102
RTVSPropertyOp9
 70
     1
102
RTVSPropertyOp10
 70
     1
102
RTVSPropertyOp11
 70
     1
102
RTVSPropertyOp12
 70
     1
102
RTVSPropertyOp13
 70
     1
102
RTVSPropertyOp14
 70
     1
102
RTVSPropertyOp15
 70
     1
102
RTVSPropertyOp16
 70
     1
102
RTVSPropertyOp17
 70
     1
102
RTVSPropertyOp18
 70
     1
102
RTVSPropertyOp19
 70
     1
102
RTVSPropertyOp20
 70
     1
102
RTVSPropertyOp21
 70
     1
102
RTVSPropertyOp22
 70
     1
102
RTVSPropertyOp23
 70
     1
102
RTVSPropertyOp24
 70
     1
102
RTVSPropertyOp25
 70
     1
102
RTVSPropertyOp26
 70
     1
102
RTVSPropertyOp27
 70
     1
102
RTVSPropertyOp28
 70
     1
102
RTVSPropertyOp29
 70
     1
102
RTVSPropertyOp30
 70
     1
102
RTVSPropertyOp31
 70
     1
102
RTVSPropertyOp32
 70
     1
102
RTVSPropertyOp33
 70
     1
102
RTVSPropertyOp34
 70
     1
102
RTVSPropertyOp35
 70
     1
102
RTVSPropertyOp36
 70
     1
102
RTVSPropertyOp37
 70
     1
102
RTVSPropertyOp38
 70
     1
102
RTVSPropertyOp39
 70
     1
102
RTVSPropertyOp40
 70
     1
102
RTVSPropertyOp41
 70
     1
102
RTVSPropertyOp42
 70
     1
102
RTVSPropertyOp43
 70
     1
102
RTVSPropertyOp44
 70
     1
102
RTVSPropertyOp45
 70
     1
102
RTVSPropertyOp46
 70
     1
102
RTVSPropertyOp47
 70
     1
102
RTVSPropertyOp48
 70
     1
102
RTVSPropertyOp49
 70
     1
102
RTVSPropertyOp50
 70
     1
102
RTVSPropertyOp51
 70
     0
102
RTVSPropertyOp52
 70
     0
102
RTVSPropertyOp53
 70
     1
102
RTVSPropertyOp54
 70
     1
102
RTVSPropertyOp55
 70
     1
102
RTVSPropertyOp56
 70
     1
102
RTVSPropertyOp57
 70
     1
102
RTVSPost2010Prop28
280
     0
102
RTVSPost2010PropOp28
 70
     1
102
RTVSPost2010Prop29
280
     1
102
RTVSPost2010PropOp29
 70
     1
102
RTVSPost2010Prop30
280
     1
102
RTVSPost2010PropOp30
 70
     1
102
RTVSPost2010Prop31
280
     0
102
RTVSPost2010PropOp31
 70
     1
102
RTVSPost2010Prop32
280
     0
102
RTVSPost2010PropOp32
 70
     1
102
RTVSPost2010Prop33
280
     0
102
RTVSPost2010PropOp33
 70
     1
102
RTVSPost2010Prop34
280
     0
102
RTVSPost2010PropOp34
 70
     1
102
RTVSPost2010Prop35
280
     0
102
RTVSPost2010PropOp35
 70
     1
102
RTVSPost2010Prop36
280
     0
102
RTVSPost2010PropOp36
 70
     1
102
RTVSPost2010Prop37
 90
       50
102
RTVSPost2010PropOp37
 70
     1
102
RTVSPost2010Prop38
140
0.0
102
RTVSPost2010PropOp38
 70
     1
102
RTVSPost2010Prop39
140
1.0
102
RTVSPost2010PropOp39
 70
     1
102
RTVSPost2010Prop40
 90
        0
102
RTVSPost2010PropOp40
 70
     1
102
RTVSPost2010Prop41ColorIndex
 90
      178
102
RTVSPost2010Prop41ColorRGB
 90
        0
102
RTVSPost2010PropOp41
 70
     1
102
RTVSPost2010Prop42
 90
       50
102
RTVSPost2010PropOp42
 70
     1
102
RTVSPost2010Prop43
 90
        3
102
RTVSPost2010PropOp43
 70
     1
102
RTVSPost2010Prop44ColorIndex
 90
        5
102
RTVSPost2010Prop44ColorRGB
 90
      255
102
RTVSPost2010PropOp44
 70
     1
102
RTVSPost2010Prop45
280
     0
102
RTVSPost2010PropOp45
 70
     1
102
RTVSPost2010Prop46
 90
       50
102
RTVSPost2010PropOp46
 70
     1
102
RTVSPost2010Prop47
 90
       50
102
RTVSPost2010PropOp47
 70
     1
102
RTVSPost2010Prop48
 90
       50
102
RTVSPost2010PropOp48
 70
     1
102
RTVSPost2010Prop49
280
     0
102
RTVSPost2010PropOp49
 70
     1
102
RTVSPost2010Prop50
 90
       50
102
RTVSPost2010PropOp50
 70
     1
102
RTVSPost2010Prop51ColorIndex
 90
      256
102
RTVSPost2010Prop51ColorRGB
 90
-16777216
102
RTVSPost2010PropOp51
 70
     0
102
RTVSPost2010Prop52
140
1.0
102
RTVSPost2010PropOp52
 70
     0
102
RTVSPost2010Prop53
 90
        2
102
RTVSPost2010PropOp53
 70
     1
102
RTVSPost2010Prop54
  1
strokes_ogs.tif
102
RTVSPost2010PropOp54
 70
     1
102
RTVSPost2010Prop55
280
     0
102
RTVSPost2010PropOp55
 70
     1
102
RTVSPost2010Prop56
140
1.0
102
RTVSPost2010PropOp56
 70
     1
102
RTVSPost2010Prop57
140
1.0
102
RTVSPost2010PropOp57
 70
     1
  0
XRECORD
  5
359
102
{ACAD_REACTORS
330
358
102
}
330
358
100
AcDbXrecord
280
     1
102
RTVSPropertyOp0
 70
     1
102
RTVSPropertyOp1
 70
     1
102
RTVSPropertyOp2
 70
     1
102
RTVSPropertyOp3
 70
     1
102
RTVSPropertyOp4
 70
     1
102
RTVSPropertyOp5
 70
     1
102
RTVSPropertyOp6
 70
     1
102
RTVSPropertyOp7
 70
     1
102
RTVSPropertyOp8
 70
     1
102
RTVSPropertyOp9
 70
     1
102
RTVSPropertyOp10
 70
     1
102
RTVSPropertyOp11
 70
     1
102
RTVSPropertyOp12
 70
     1
102
RTVSPropertyOp13
 70
     1
102
RTVSPropertyOp14
 70
     1
102
RTVSPropertyOp15
 70
     1
102
RTVSPropertyOp16
 70
     1
102
RTVSPropertyOp17
 70
     1
102
RTVSPropertyOp18
 70
     1
102
RTVSPropertyOp19
 70
     1
102
RTVSPropertyOp20
 70
     1
102
RTVSPropertyOp21
 70
     1
102
RTVSPropertyOp22
 70
     1
102
RTVSPropertyOp23
 70
     1
102
RTVSPropertyOp24
 70
     1
102
RTVSPropertyOp25
 70
     1
102
RTVSPropertyOp26
 70
     1
102
RTVSPropertyOp27
 70
     1
102
RTVSPropertyOp28
 70
     1
102
RTVSPropertyOp29
 70
     1
102
RTVSPropertyOp30
 70
     1
102
RTVSPropertyOp31
 70
     1
102
RTVSPropertyOp32
 70
     1
102
RTVSPropertyOp33
 70
     1
102
RTVSPropertyOp34
 70
     1
102
RTVSPropertyOp35
 70
     1
102
RTVSPropertyOp36
 70
     1
102
RTVSPropertyOp37
 70
     1
102
RTVSPropertyOp38
 70
     1
102
RTVSPropertyOp39
 70
     1
102
RTVSPropertyOp40
 70
     1
102
RTVSPropertyOp41
 70
     1
102
RTVSPropertyOp42
 70
     1
102
RTVSPropertyOp43
 70
     1
102
RTVSPropertyOp44
 70
     1
102
RTVSPropertyOp45
 70
     1
102
RTVSPropertyOp46
 70
     1
102
RTVSPropertyOp47
 70
     1
102
RTVSPropertyOp48
 70
     1
102
RTVSPropertyOp49
 70
     1
102
RTVSPropertyOp50
 70
     1
102
RTVSPropertyOp51
 70
     0
102
RTVSPropertyOp52
 70
     0
102
RTVSPropertyOp53
 70
     1
102
RTVSPropertyOp54
 70
     1
102
RTVSPropertyOp55
 70
     1
102
RTVSPropertyOp56
 70
     1
102
RTVSPropertyOp57
 70
     1
102
RTVSPost2010Prop28
280
     0
102
RTVSPost2010PropOp28
 70
     1
102
RTVSPost2010Prop29
280
     1
102
RTVSPost2010PropOp29
 70
     1
102
RTVSPost2010Prop30
280
     1
102
RTVSPost2010PropOp30
 70
     1
102
RTVSPost2010Prop31
280
     0
102
RTVSPost2010PropOp31
 70
     1
102
RTVSPost2010Prop32
280
     0
102
RTVSPost2010PropOp32
 70
     1
102
RTVSPost2010Prop33
280
     0
102
RTVSPost2010PropOp33
 70
     1
102
RTVSPost2010Prop34
280
     0
102
RTVSPost2010PropOp34
 70
     1
102
RTVSPost2010Prop35
280
     0
102
RTVSPost2010PropOp35
 70
     1
102
RTVSPost2010Prop36
280
     0
102
RTVSPost2010PropOp36
 70
     1
102
RTVSPost2010Prop37
 90
       50
102
RTVSPost2010PropOp37
 70
     1
102
RTVSPost2010Prop38
140
0.0
102
RTVSPost2010PropOp38
 70
     1
102
RTVSPost2010Prop39
140
1.0
102
RTVSPost2010PropOp39
 70
     1
102
RTVSPost2010Prop40
 90
        0
102
RTVSPost2010PropOp40
 70
     1
102
RTVSPost2010Prop41ColorIndex
 90
      178
102
RTVSPost2010Prop41ColorRGB
 90
        0
102
RTVSPost2010PropOp41
 70
     1
102
RTVSPost2010Prop42
 90
       50
102
RTVSPost2010PropOp42
 70
     1
102
RTVSPost2010Prop43
 90
        3
102
RTVSPost2010PropOp43
 70
     1
102
RTVSPost2010Prop44ColorIndex
 90
        5
102
RTVSPost2010Prop44ColorRGB
 90
      255
102
RTVSPost2010PropOp44
 70
     1
102
RTVSPost2010Prop45
280
     0
102
RTVSPost2010PropOp45
 70
     1
102
RTVSPost2010Prop46
 90
       50
102
RTVSPost2010PropOp46
 70
     1
102
RTVSPost2010Prop47
 90
       50
102
RTVSPost2010PropOp47
 70
     1
102
RTVSPost2010Prop48
 90
       50
102
RTVSPost2010PropOp48
 70
     1
102
RTVSPost2010Prop49
280
     0
102
RTVSPost2010PropOp49
 70
     1
102
RTVSPost2010Prop50
 90
       50
102
RTVSPost2010PropOp50
 70
     1
102
RTVSPost2010Prop51ColorIndex
 90
      256
102
RTVSPost2010Prop51ColorRGB
 90
-16777216
102
RTVSPost2010PropOp51
 70
     0
102
RTVSPost2010Prop52
140
1.0
102
RTVSPost2010PropOp52
 70
     0
102
RTVSPost2010Prop53
 90
        2
102
RTVSPost2010PropOp53
 70
     1
102
RTVSPost2010Prop54
  1
strokes_ogs.tif
102
RTVSPost2010PropOp54
 70
     1
102
RTVSPost2010Prop55
280
     0
102
RTVSPost2010PropOp55
 70
     1
102
RTVSPost2010Prop56
140
1.0
102
RTVSPost2010PropOp56
 70
     1
102
RTVSPost2010Prop57
140
1.0
102
RTVSPost2010PropOp57
 70
     1
  0
XRECORD
  5
35B
102
{ACAD_REACTORS
330
35A
102
}
330
35A
100
AcDbXrecord
280
     1
102
RTVSPropertyOp0
 70
     1
102
RTVSPropertyOp1
 70
     1
102
RTVSPropertyOp2
 70
     1
102
RTVSPropertyOp3
 70
     1
102
RTVSPropertyOp4
 70
     1
102
RTVSPropertyOp5
 70
     1
102
RTVSPropertyOp6
 70
     1
102
RTVSPropertyOp7
 70
     1
102
RTVSPropertyOp8
 70
     1
102
RTVSPropertyOp9
 70
     1
102
RTVSPropertyOp10
 70
     1
102
RTVSPropertyOp11
 70
     1
102
RTVSPropertyOp12
 70
     1
102
RTVSPropertyOp13
 70
     1
102
RTVSPropertyOp14
 70
     1
102
RTVSPropertyOp15
 70
     1
102
RTVSPropertyOp16
 70
     1
102
RTVSPropertyOp17
 70
     1
102
RTVSPropertyOp18
 70
     1
102
RTVSPropertyOp19
 70
     1
102
RTVSPropertyOp20
 70
     1
102
RTVSPropertyOp21
 70
     1
102
RTVSPropertyOp22
 70
     1
102
RTVSPropertyOp23
 70
     1
102
RTVSPropertyOp24
 70
     1
102
RTVSPropertyOp25
 70
     1
102
RTVSPropertyOp26
 70
     1
102
RTVSPropertyOp27
 70
     1
102
RTVSPropertyOp28
 70
     1
102
RTVSPropertyOp29
 70
     1
102
RTVSPropertyOp30
 70
     1
102
RTVSPropertyOp31
 70
     1
102
RTVSPropertyOp32
 70
     1
102
RTVSPropertyOp33
 70
     1
102
RTVSPropertyOp34
 70
     1
102
RTVSPropertyOp35
 70
     1
102
RTVSPropertyOp36
 70
     1
102
RTVSPropertyOp37
 70
     1
102
RTVSPropertyOp38
 70
     1
102
RTVSPropertyOp39
 70
     1
102
RTVSPropertyOp40
 70
     1
102
RTVSPropertyOp41
 70
     1
102
RTVSPropertyOp42
 70
     1
102
RTVSPropertyOp43
 70
     1
102
RTVSPropertyOp44
 70
     1
102
RTVSPropertyOp45
 70
     1
102
RTVSPropertyOp46
 70
     1
102
RTVSPropertyOp47
 70
     1
102
RTVSPropertyOp48
 70
     1
102
RTVSPropertyOp49
 70
     1
102
RTVSPropertyOp50
 70
     1
102
RTVSPropertyOp51
 70
     0
102
RTVSPropertyOp52
 70
     0
102
RTVSPropertyOp53
 70
     1
102
RTVSPropertyOp54
 70
     1
102
RTVSPropertyOp55
 70
     1
102
RTVSPropertyOp56
 70
     1
102
RTVSPropertyOp57
 70
     1
102
RTVSPost2010Prop28
280
     0
102
RTVSPost2010PropOp28
 70
     1
102
RTVSPost2010Prop29
280
     1
102
RTVSPost2010PropOp29
 70
     1
102
RTVSPost2010Prop30
280
     1
102
RTVSPost2010PropOp30
 70
     1
102
RTVSPost2010Prop31
280
     0
102
RTVSPost2010PropOp31
 70
     1
102
RTVSPost2010Prop32
280
     0
102
RTVSPost2010PropOp32
 70
     1
102
RTVSPost2010Prop33
280
     0
102
RTVSPost2010PropOp33
 70
     1
102
RTVSPost2010Prop34
280
     0
102
RTVSPost2010PropOp34
 70
     1
102
RTVSPost2010Prop35
280
     0
102
RTVSPost2010PropOp35
 70
     1
102
RTVSPost2010Prop36
280
     0
102
RTVSPost2010PropOp36
 70
     1
102
RTVSPost2010Prop37
 90
       50
102
RTVSPost2010PropOp37
 70
     1
102
RTVSPost2010Prop38
140
0.0
102
RTVSPost2010PropOp38
 70
     1
102
RTVSPost2010Prop39
140
1.0
102
RTVSPost2010PropOp39
 70
     1
102
RTVSPost2010Prop40
 90
        0
102
RTVSPost2010PropOp40
 70
     1
102
RTVSPost2010Prop41ColorIndex
 90
      178
102
RTVSPost2010Prop41ColorRGB
 90
        0
102
RTVSPost2010PropOp41
 70
     1
102
RTVSPost2010Prop42
 90
       50
102
RTVSPost2010PropOp42
 70
     1
102
RTVSPost2010Prop43
 90
        3
102
RTVSPost2010PropOp43
 70
     1
102
RTVSPost2010Prop44ColorIndex
 90
        5
102
RTVSPost2010Prop44ColorRGB
 90
      255
102
RTVSPost2010PropOp44
 70
     1
102
RTVSPost2010Prop45
280
     0
102
RTVSPost2010PropOp45
 70
     1
102
RTVSPost2010Prop46
 90
       50
102
RTVSPost2010PropOp46
 70
     1
102
RTVSPost2010Prop47
 90
       50
102
RTVSPost2010PropOp47
 70
     1
102
RTVSPost2010Prop48
 90
       50
102
RTVSPost2010PropOp48
 70
     1
102
RTVSPost2010Prop49
280
     0
102
RTVSPost2010PropOp49
 70
     1
102
RTVSPost2010Prop50
 90
       50
102
RTVSPost2010PropOp50
 70
     1
102
RTVSPost2010Prop51ColorIndex
 90
      256
102
RTVSPost2010Prop51ColorRGB
 90
-16777216
102
RTVSPost2010PropOp51
 70
     0
102
RTVSPost2010Prop52
140
1.0
102
RTVSPost2010PropOp52
 70
     0
102
RTVSPost2010Prop53
 90
        2
102
RTVSPost2010PropOp53
 70
     1
102
RTVSPost2010Prop54
  1
strokes_ogs.tif
102
RTVSPost2010PropOp54
 70
     1
102
RTVSPost2010Prop55
280
     0
102
RTVSPost2010PropOp55
 70
     1
102
RTVSPost2010Prop56
140
1.0
102
RTVSPost2010PropOp56
 70
     1
102
RTVSPost2010Prop57
140
1.0
102
RTVSPost2010PropOp57
 70
     1
  0
XRECORD
  5
35D
102
{ACAD_REACTORS
330
35C
102
}
330
35C
100
AcDbXrecord
280
     1
102
RTVSPropertyOp0
 70
     1
102
RTVSPropertyOp1
 70
     1
102
RTVSPropertyOp2
 70
     1
102
RTVSPropertyOp3
 70
     1
102
RTVSPropertyOp4
 70
     1
102
RTVSPropertyOp5
 70
     1
102
RTVSPropertyOp6
 70
     1
102
RTVSPropertyOp7
 70
     1
102
RTVSPropertyOp8
 70
     1
102
RTVSPropertyOp9
 70
     1
102
RTVSPropertyOp10
 70
     1
102
RTVSPropertyOp11
 70
     1
102
RTVSPropertyOp12
 70
     1
102
RTVSPropertyOp13
 70
     1
102
RTVSPropertyOp14
 70
     1
102
RTVSPropertyOp15
 70
     1
102
RTVSPropertyOp16
 70
     1
102
RTVSPropertyOp17
 70
     1
102
RTVSPropertyOp18
 70
     1
102
RTVSPropertyOp19
 70
     1
102
RTVSPropertyOp20
 70
     1
102
RTVSPropertyOp21
 70
     1
102
RTVSPropertyOp22
 70
     1
102
RTVSPropertyOp23
 70
     1
102
RTVSPropertyOp24
 70
     1
102
RTVSPropertyOp25
 70
     1
102
RTVSPropertyOp26
 70
     1
102
RTVSPropertyOp27
 70
     1
102
RTVSPropertyOp28
 70
     1
102
RTVSPropertyOp29
 70
     1
102
RTVSPropertyOp30
 70
     1
102
RTVSPropertyOp31
 70
     1
102
RTVSPropertyOp32
 70
     1
102
RTVSPropertyOp33
 70
     1
102
RTVSPropertyOp34
 70
     1
102
RTVSPropertyOp35
 70
     1
102
RTVSPropertyOp36
 70
     1
102
RTVSPropertyOp37
 70
     1
102
RTVSPropertyOp38
 70
     1
102
RTVSPropertyOp39
 70
     1
102
RTVSPropertyOp40
 70
     1
102
RTVSPropertyOp41
 70
     1
102
RTVSPropertyOp42
 70
     1
102
RTVSPropertyOp43
 70
     1
102
RTVSPropertyOp44
 70
     1
102
RTVSPropertyOp45
 70
     1
102
RTVSPropertyOp46
 70
     1
102
RTVSPropertyOp47
 70
     1
102
RTVSPropertyOp48
 70
     1
102
RTVSPropertyOp49
 70
     1
102
RTVSPropertyOp50
 70
     1
102
RTVSPropertyOp51
 70
     0
102
RTVSPropertyOp52
 70
     0
102
RTVSPropertyOp53
 70
     1
102
RTVSPropertyOp54
 70
     1
102
RTVSPropertyOp55
 70
     1
102
RTVSPropertyOp56
 70
     1
102
RTVSPropertyOp57
 70
     1
102
RTVSPost2010Prop28
280
     0
102
RTVSPost2010PropOp28
 70
     1
102
RTVSPost2010Prop29
280
     1
102
RTVSPost2010PropOp29
 70
     1
102
RTVSPost2010Prop30
280
     1
102
RTVSPost2010PropOp30
 70
     1
102
RTVSPost2010Prop31
280
     0
102
RTVSPost2010PropOp31
 70
     1
102
RTVSPost2010Prop32
280
     0
102
RTVSPost2010PropOp32
 70
     1
102
RTVSPost2010Prop33
280
     0
102
RTVSPost2010PropOp33
 70
     1
102
RTVSPost2010Prop34
280
     0
102
RTVSPost2010PropOp34
 70
     1
102
RTVSPost2010Prop35
280
     0
102
RTVSPost2010PropOp35
 70
     1
102
RTVSPost2010Prop36
280
     0
102
RTVSPost2010PropOp36
 70
     1
102
RTVSPost2010Prop37
 90
       50
102
RTVSPost2010PropOp37
 70
     1
102
RTVSPost2010Prop38
140
0.0
102
RTVSPost2010PropOp38
 70
     1
102
RTVSPost2010Prop39
140
1.0
102
RTVSPost2010PropOp39
 70
     1
102
RTVSPost2010Prop40
 90
        0
102
RTVSPost2010PropOp40
 70
     1
102
RTVSPost2010Prop41ColorIndex
 90
      178
102
RTVSPost2010Prop41ColorRGB
 90
        0
102
RTVSPost2010PropOp41
 70
     1
102
RTVSPost2010Prop42
 90
       50
102
RTVSPost2010PropOp42
 70
     1
102
RTVSPost2010Prop43
 90
        3
102
RTVSPost2010PropOp43
 70
     1
102
RTVSPost2010Prop44ColorIndex
 90
        5
102
RTVSPost2010Prop44ColorRGB
 90
      255
102
RTVSPost2010PropOp44
 70
     1
102
RTVSPost2010Prop45
280
     0
102
RTVSPost2010PropOp45
 70
     1
102
RTVSPost2010Prop46
 90
       50
102
RTVSPost2010PropOp46
 70
     1
102
RTVSPost2010Prop47
 90
       50
102
RTVSPost2010PropOp47
 70
     1
102
RTVSPost2010Prop48
 90
       50
102
RTVSPost2010PropOp48
 70
     1
102
RTVSPost2010Prop49
280
     0
102
RTVSPost2010PropOp49
 70
     1
102
RTVSPost2010Prop50
 90
       50
102
RTVSPost2010PropOp50
 70
     1
102
RTVSPost2010Prop51ColorIndex
 90
      256
102
RTVSPost2010Prop51ColorRGB
 90
-16777216
102
RTVSPost2010PropOp51
 70
     0
102
RTVSPost2010Prop52
140
1.0
102
RTVSPost2010PropOp52
 70
     0
102
RTVSPost2010Prop53
 90
        2
102
RTVSPost2010PropOp53
 70
     1
102
RTVSPost2010Prop54
  1
strokes_ogs.tif
102
RTVSPost2010PropOp54
 70
     1
102
RTVSPost2010Prop55
280
     0
102
RTVSPost2010PropOp55
 70
     1
102
RTVSPost2010Prop56
140
1.0
102
RTVSPost2010PropOp56
 70
     1
102
RTVSPost2010Prop57
140
1.0
102
RTVSPost2010PropOp57
 70
     1
  0
XRECORD
  5
35F
102
{ACAD_REACTORS
330
35E
102
}
330
35E
100
AcDbXrecord
280
     1
102
RTVSPropertyOp0
 70
     1
102
RTVSPropertyOp1
 70
     1
102
RTVSPropertyOp2
 70
     1
102
RTVSPropertyOp3
 70
     1
102
RTVSPropertyOp4
 70
     1
102
RTVSPropertyOp5
 70
     1
102
RTVSPropertyOp6
 70
     1
102
RTVSPropertyOp7
 70
     1
102
RTVSPropertyOp8
 70
     1
102
RTVSPropertyOp9
 70
     1
102
RTVSPropertyOp10
 70
     1
102
RTVSPropertyOp11
 70
     1
102
RTVSPropertyOp12
 70
     1
102
RTVSPropertyOp13
 70
     1
102
RTVSPropertyOp14
 70
     1
102
RTVSPropertyOp15
 70
     1
102
RTVSPropertyOp16
 70
     1
102
RTVSPropertyOp17
 70
     1
102
RTVSPropertyOp18
 70
     1
102
RTVSPropertyOp19
 70
     1
102
RTVSPropertyOp20
 70
     1
102
RTVSPropertyOp21
 70
     1
102
RTVSPropertyOp22
 70
     1
102
RTVSPropertyOp23
 70
     1
102
RTVSPropertyOp24
 70
     1
102
RTVSPropertyOp25
 70
     1
102
RTVSPropertyOp26
 70
     1
102
RTVSPropertyOp27
 70
     1
102
RTVSPropertyOp28
 70
     1
102
RTVSPropertyOp29
 70
     1
102
RTVSPropertyOp30
 70
     1
102
RTVSPropertyOp31
 70
     1
102
RTVSPropertyOp32
 70
     1
102
RTVSPropertyOp33
 70
     1
102
RTVSPropertyOp34
 70
     1
102
RTVSPropertyOp35
 70
     1
102
RTVSPropertyOp36
 70
     1
102
RTVSPropertyOp37
 70
     1
102
RTVSPropertyOp38
 70
     1
102
RTVSPropertyOp39
 70
     1
102
RTVSPropertyOp40
 70
     1
102
RTVSPropertyOp41
 70
     1
102
RTVSPropertyOp42
 70
     1
102
RTVSPropertyOp43
 70
     1
102
RTVSPropertyOp44
 70
     1
102
RTVSPropertyOp45
 70
     1
102
RTVSPropertyOp46
 70
     1
102
RTVSPropertyOp47
 70
     1
102
RTVSPropertyOp48
 70
     1
102
RTVSPropertyOp49
 70
     1
102
RTVSPropertyOp50
 70
     1
102
RTVSPropertyOp51
 70
     0
102
RTVSPropertyOp52
 70
     0
102
RTVSPropertyOp53
 70
     1
102
RTVSPropertyOp54
 70
     1
102
RTVSPropertyOp55
 70
     1
102
RTVSPropertyOp56
 70
     1
102
RTVSPropertyOp57
 70
     1
102
RTVSPost2010Prop28
280
     0
102
RTVSPost2010PropOp28
 70
     1
102
RTVSPost2010Prop29
280
     1
102
RTVSPost2010PropOp29
 70
     1
102
RTVSPost2010Prop30
280
     1
102
RTVSPost2010PropOp30
 70
     1
102
RTVSPost2010Prop31
280
     0
102
RTVSPost2010PropOp31
 70
     1
102
RTVSPost2010Prop32
280
     0
102
RTVSPost2010PropOp32
 70
     1
102
RTVSPost2010Prop33
280
     0
102
RTVSPost2010PropOp33
 70
     1
102
RTVSPost2010Prop34
280
     0
102
RTVSPost2010PropOp34
 70
     1
102
RTVSPost2010Prop35
280
     0
102
RTVSPost2010PropOp35
 70
     1
102
RTVSPost2010Prop36
280
     0
102
RTVSPost2010PropOp36
 70
     1
102
RTVSPost2010Prop37
 90
       50
102
RTVSPost2010PropOp37
 70
     1
102
RTVSPost2010Prop38
140
0.0
102
RTVSPost2010PropOp38
 70
     1
102
RTVSPost2010Prop39
140
1.0
102
RTVSPost2010PropOp39
 70
     1
102
RTVSPost2010Prop40
 90
        0
102
RTVSPost2010PropOp40
 70
     1
102
RTVSPost2010Prop41ColorIndex
 90
      178
102
RTVSPost2010Prop41ColorRGB
 90
        0
102
RTVSPost2010PropOp41
 70
     1
102
RTVSPost2010Prop42
 90
       50
102
RTVSPost2010PropOp42
 70
     1
102
RTVSPost2010Prop43
 90
        3
102
RTVSPost2010PropOp43
 70
     1
102
RTVSPost2010Prop44ColorIndex
 90
        5
102
RTVSPost2010Prop44ColorRGB
 90
      255
102
RTVSPost2010PropOp44
 70
     1
102
RTVSPost2010Prop45
280
     0
102
RTVSPost2010PropOp45
 70
     1
102
RTVSPost2010Prop46
 90
       50
102
RTVSPost2010PropOp46
 70
     1
102
RTVSPost2010Prop47
 90
       50
102
RTVSPost2010PropOp47
 70
     1
102
RTVSPost2010Prop48
 90
       50
102
RTVSPost2010PropOp48
 70
     1
102
RTVSPost2010Prop49
280
     0
102
RTVSPost2010PropOp49
 70
     1
102
RTVSPost2010Prop50
 90
       50
102
RTVSPost2010PropOp50
 70
     1
102
RTVSPost2010Prop51ColorIndex
 90
      256
102
RTVSPost2010Prop51ColorRGB
 90
-16777216
102
RTVSPost2010PropOp51
 70
     0
102
RTVSPost2010Prop52
140
1.0
102
RTVSPost2010PropOp52
 70
     0
102
RTVSPost2010Prop53
 90
        2
102
RTVSPost2010PropOp53
 70
     1
102
RTVSPost2010Prop54
  1
strokes_ogs.tif
102
RTVSPost2010PropOp54
 70
     1
102
RTVSPost2010Prop55
280
     0
102
RTVSPost2010PropOp55
 70
     1
102
RTVSPost2010Prop56
140
1.0
102
RTVSPost2010PropOp56
 70
     1
102
RTVSPost2010Prop57
140
1.0
102
RTVSPost2010PropOp57
 70
     1
  0
XRECORD
  5
365
102
{ACAD_REACTORS
330
364
102
}
330
364
100
AcDbXrecord
280
     1
102
RTVSPropertyOp0
 70
     1
102
RTVSPropertyOp1
 70
     1
102
RTVSPropertyOp2
 70
     1
102
RTVSPropertyOp3
 70
     1
102
RTVSPropertyOp4
 70
     1
102
RTVSPropertyOp5
 70
     1
102
RTVSPropertyOp6
 70
     1
102
RTVSPropertyOp7
 70
     1
102
RTVSPropertyOp8
 70
     1
102
RTVSPropertyOp9
 70
     1
102
RTVSPropertyOp10
 70
     1
102
RTVSPropertyOp11
 70
     1
102
RTVSPropertyOp12
 70
     1
102
RTVSPropertyOp13
 70
     1
102
RTVSPropertyOp14
 70
     1
102
RTVSPropertyOp15
 70
     1
102
RTVSPropertyOp16
 70
     1
102
RTVSPropertyOp17
 70
     1
102
RTVSPropertyOp18
 70
     1
102
RTVSPropertyOp19
 70
     1
102
RTVSPropertyOp20
 70
     1
102
RTVSPropertyOp21
 70
     1
102
RTVSPropertyOp22
 70
     1
102
RTVSPropertyOp23
 70
     1
102
RTVSPropertyOp24
 70
     1
102
RTVSPropertyOp25
 70
     1
102
RTVSPropertyOp26
 70
     1
102
RTVSPropertyOp27
 70
     1
102
RTVSPropertyOp28
 70
     1
102
RTVSPropertyOp29
 70
     1
102
RTVSPropertyOp30
 70
     1
102
RTVSPropertyOp31
 70
     1
102
RTVSPropertyOp32
 70
     1
102
RTVSPropertyOp33
 70
     1
102
RTVSPropertyOp34
 70
     1
102
RTVSPropertyOp35
 70
     1
102
RTVSPropertyOp36
 70
     1
102
RTVSPropertyOp37
 70
     1
102
RTVSPropertyOp38
 70
     1
102
RTVSPropertyOp39
 70
     1
102
RTVSPropertyOp40
 70
     1
102
RTVSPropertyOp41
 70
     1
102
RTVSPropertyOp42
 70
     1
102
RTVSPropertyOp43
 70
     1
102
RTVSPropertyOp44
 70
     1
102
RTVSPropertyOp45
 70
     1
102
RTVSPropertyOp46
 70
     1
102
RTVSPropertyOp47
 70
     1
102
RTVSPropertyOp48
 70
     1
102
RTVSPropertyOp49
 70
     1
102
RTVSPropertyOp50
 70
     1
102
RTVSPropertyOp51
 70
     0
102
RTVSPropertyOp52
 70
     0
102
RTVSPropertyOp53
 70
     1
102
RTVSPropertyOp54
 70
     1
102
RTVSPropertyOp55
 70
     1
102
RTVSPropertyOp56
 70
     1
102
RTVSPropertyOp57
 70
     1
102
RTVSPost2010Prop28
280
     0
102
RTVSPost2010PropOp28
 70
     1
102
RTVSPost2010Prop29
280
     1
102
RTVSPost2010PropOp29
 70
     1
102
RTVSPost2010Prop30
280
     1
102
RTVSPost2010PropOp30
 70
     1
102
RTVSPost2010Prop31
280
     0
102
RTVSPost2010PropOp31
 70
     1
102
RTVSPost2010Prop32
280
     0
102
RTVSPost2010PropOp32
 70
     1
102
RTVSPost2010Prop33
280
     0
102
RTVSPost2010PropOp33
 70
     1
102
RTVSPost2010Prop34
280
     0
102
RTVSPost2010PropOp34
 70
     1
102
RTVSPost2010Prop35
280
     0
102
RTVSPost2010PropOp35
 70
     1
102
RTVSPost2010Prop36
280
     0
102
RTVSPost2010PropOp36
 70
     1
102
RTVSPost2010Prop37
 90
       50
102
RTVSPost2010PropOp37
 70
     1
102
RTVSPost2010Prop38
140
0.0
102
RTVSPost2010PropOp38
 70
     1
102
RTVSPost2010Prop39
140
1.0
102
RTVSPost2010PropOp39
 70
     1
102
RTVSPost2010Prop40
 90
        0
102
RTVSPost2010PropOp40
 70
     1
102
RTVSPost2010Prop41ColorIndex
 90
      178
102
RTVSPost2010Prop41ColorRGB
 90
        0
102
RTVSPost2010PropOp41
 70
     1
102
RTVSPost2010Prop42
 90
       50
102
RTVSPost2010PropOp42
 70
     1
102
RTVSPost2010Prop43
 90
        3
102
RTVSPost2010PropOp43
 70
     1
102
RTVSPost2010Prop44ColorIndex
 90
        5
102
RTVSPost2010Prop44ColorRGB
 90
      255
102
RTVSPost2010PropOp44
 70
     1
102
RTVSPost2010Prop45
280
     0
102
RTVSPost2010PropOp45
 70
     1
102
RTVSPost2010Prop46
 90
       50
102
RTVSPost2010PropOp46
 70
     1
102
RTVSPost2010Prop47
 90
       50
102
RTVSPost2010PropOp47
 70
     1
102
RTVSPost2010Prop48
 90
       50
102
RTVSPost2010PropOp48
 70
     1
102
RTVSPost2010Prop49
280
     0
102
RTVSPost2010PropOp49
 70
     1
102
RTVSPost2010Prop50
 90
       50
102
RTVSPost2010PropOp50
 70
     1
102
RTVSPost2010Prop51ColorIndex
 90
      256
102
RTVSPost2010Prop51ColorRGB
 90
-16777216
102
RTVSPost2010PropOp51
 70
     0
102
RTVSPost2010Prop52
140
1.0
102
RTVSPost2010PropOp52
 70
     0
102
RTVSPost2010Prop53
 90
        2
102
RTVSPost2010PropOp53
 70
     1
102
RTVSPost2010Prop54
  1
strokes_ogs.tif
102
RTVSPost2010PropOp54
 70
     1
102
RTVSPost2010Prop55
280
     0
102
RTVSPost2010PropOp55
 70
     1
102
RTVSPost2010Prop56
140
1.0
102
RTVSPost2010PropOp56
 70
     1
102
RTVSPost2010Prop57
140
1.0
102
RTVSPost2010PropOp57
 70
     1
  0
XRECORD
  5
379
102
{ACAD_REACTORS
330
378
102
}
330
378
100
AcDbXrecord
280
     1
102
RTVSPropertyOp0
 70
     0
102
RTVSPropertyOp1
 70
     0
102
RTVSPropertyOp2
 70
     0
102
RTVSPropertyOp3
 70
     0
102
RTVSPropertyOp4
 70
     0
102
RTVSPropertyOp5
 70
     0
102
RTVSPropertyOp6
 70
     0
102
RTVSPropertyOp7
 70
     0
102
RTVSPropertyOp8
 70
     0
102
RTVSPropertyOp9
 70
     0
102
RTVSPropertyOp10
 70
     0
102
RTVSPropertyOp11
 70
     0
102
RTVSPropertyOp12
 70
     0
102
RTVSPropertyOp13
 70
     0
102
RTVSPropertyOp14
 70
     2
102
RTVSPropertyOp15
 70
     0
102
RTVSPropertyOp16
 70
     0
102
RTVSPropertyOp17
 70
     0
102
RTVSPropertyOp18
 70
     0
102
RTVSPropertyOp19
 70
     0
102
RTVSPropertyOp20
 70
     0
102
RTVSPropertyOp21
 70
     0
102
RTVSPropertyOp22
 70
     0
102
RTVSPropertyOp23
 70
     0
102
RTVSPropertyOp24
 70
     0
102
RTVSPropertyOp25
 70
     0
102
RTVSPropertyOp26
 70
     0
102
RTVSPropertyOp27
 70
     0
102
RTVSPropertyOp28
 70
     0
102
RTVSPropertyOp29
 70
     0
102
RTVSPropertyOp30
 70
     0
102
RTVSPropertyOp31
 70
     0
102
RTVSPropertyOp32
 70
     0
102
RTVSPropertyOp33
 70
     0
102
RTVSPropertyOp34
 70
     0
102
RTVSPropertyOp35
 70
     0
102
RTVSPropertyOp36
 70
     0
102
RTVSPropertyOp37
 70
     0
102
RTVSPropertyOp38
 70
     0
102
RTVSPropertyOp39
 70
     0
102
RTVSPropertyOp40
 70
     0
102
RTVSPropertyOp41
 70
     0
102
RTVSPropertyOp42
 70
     0
102
RTVSPropertyOp43
 70
     0
102
RTVSPropertyOp44
 70
     0
102
RTVSPropertyOp45
 70
     0
102
RTVSPropertyOp46
 70
     0
102
RTVSPropertyOp47
 70
     0
102
RTVSPropertyOp48
 70
     0
102
RTVSPropertyOp49
 70
     0
102
RTVSPropertyOp50
 70
     0
102
RTVSPropertyOp51
 70
     0
102
RTVSPropertyOp52
 70
     0
102
RTVSPropertyOp53
 70
     0
102
RTVSPropertyOp54
 70
     0
102
RTVSPropertyOp55
 70
     0
102
RTVSPropertyOp56
 70
     0
102
RTVSPropertyOp57
 70
     0
102
RTVSPost2010Prop28
280
     0
102
RTVSPost2010PropOp28
 70
     0
102
RTVSPost2010Prop29
280
     1
102
RTVSPost2010PropOp29
 70
     0
102
RTVSPost2010Prop30
280
     1
102
RTVSPost2010PropOp30
 70
     0
102
RTVSPost2010Prop31
280
     0
102
RTVSPost2010PropOp31
 70
     0
102
RTVSPost2010Prop32
280
     0
102
RTVSPost2010PropOp32
 70
     0
102
RTVSPost2010Prop33
280
     0
102
RTVSPost2010PropOp33
 70
     0
102
RTVSPost2010Prop34
280
     0
102
RTVSPost2010PropOp34
 70
     0
102
RTVSPost2010Prop35
280
     0
102
RTVSPost2010PropOp35
 70
     0
102
RTVSPost2010Prop36
280
     0
102
RTVSPost2010PropOp36
 70
     0
102
RTVSPost2010Prop37
 90
       50
102
RTVSPost2010PropOp37
 70
     0
102
RTVSPost2010Prop38
140
0.0
102
RTVSPost2010PropOp38
 70
     0
102
RTVSPost2010Prop39
140
1.0
102
RTVSPost2010PropOp39
 70
     0
102
RTVSPost2010Prop40
 90
        0
102
RTVSPost2010PropOp40
 70
     0
102
RTVSPost2010Prop41ColorIndex
 90
      178
102
RTVSPost2010Prop41ColorRGB
 90
        0
102
RTVSPost2010PropOp41
 70
     0
102
RTVSPost2010Prop42
 90
       50
102
RTVSPost2010PropOp42
 70
     0
102
RTVSPost2010Prop43
 90
        3
102
RTVSPost2010PropOp43
 70
     0
102
RTVSPost2010Prop44ColorIndex
 90
        5
102
RTVSPost2010Prop44ColorRGB
 90
      255
102
RTVSPost2010PropOp44
 70
     0
102
RTVSPost2010Prop45
280
     0
102
RTVSPost2010PropOp45
 70
     0
102
RTVSPost2010Prop46
 90
       50
102
RTVSPost2010PropOp46
 70
     0
102
RTVSPost2010Prop47
 90
       50
102
RTVSPost2010PropOp47
 70
     0
102
RTVSPost2010Prop48
 90
       50
102
RTVSPost2010PropOp48
 70
     0
102
RTVSPost2010Prop49
280
     0
102
RTVSPost2010PropOp49
 70
     0
102
RTVSPost2010Prop50
 90
       50
102
RTVSPost2010PropOp50
 70
     0
102
RTVSPost2010Prop51ColorIndex
 90
      256
102
RTVSPost2010Prop51ColorRGB
 90
-16777216
102
RTVSPost2010PropOp51
 70
     0
102
RTVSPost2010Prop52
140
1.0
102
RTVSPost2010PropOp52
 70
     0
102
RTVSPost2010Prop53
 90
        2
102
RTVSPost2010PropOp53
 70
     0
102
RTVSPost2010Prop54
  1
strokes_ogs.tif
102
RTVSPost2010PropOp54
 70
     0
102
RTVSPost2010Prop55
280
     0
102
RTVSPost2010PropOp55
 70
     0
102
RTVSPost2010Prop56
140
1.0
102
RTVSPost2010PropOp56
 70
     0
102
RTVSPost2010Prop57
140
1.0
102
RTVSPost2010PropOp57
 70
     0
  0
XRECORD
  5
373
102
{ACAD_REACTORS
330
372
102
}
330
372
100
AcDbXrecord
280
     1
102
RTVSPropertyOp0
 70
     1
102
RTVSPropertyOp1
 70
     1
102
RTVSPropertyOp2
 70
     1
102
RTVSPropertyOp3
 70
     1
102
RTVSPropertyOp4
 70
     1
102
RTVSPropertyOp5
 70
     1
102
RTVSPropertyOp6
 70
     1
102
RTVSPropertyOp7
 70
     1
102
RTVSPropertyOp8
 70
     1
102
RTVSPropertyOp9
 70
     1
102
RTVSPropertyOp10
 70
     1
102
RTVSPropertyOp11
 70
     1
102
RTVSPropertyOp12
 70
     1
102
RTVSPropertyOp13
 70
     1
102
RTVSPropertyOp14
 70
     1
102
RTVSPropertyOp15
 70
     1
102
RTVSPropertyOp16
 70
     1
102
RTVSPropertyOp17
 70
     1
102
RTVSPropertyOp18
 70
     1
102
RTVSPropertyOp19
 70
     1
102
RTVSPropertyOp20
 70
     1
102
RTVSPropertyOp21
 70
     1
102
RTVSPropertyOp22
 70
     1
102
RTVSPropertyOp23
 70
     1
102
RTVSPropertyOp24
 70
     1
102
RTVSPropertyOp25
 70
     1
102
RTVSPropertyOp26
 70
     1
102
RTVSPropertyOp27
 70
     1
102
RTVSPropertyOp28
 70
     1
102
RTVSPropertyOp29
 70
     1
102
RTVSPropertyOp30
 70
     1
102
RTVSPropertyOp31
 70
     1
102
RTVSPropertyOp32
 70
     1
102
RTVSPropertyOp33
 70
     1
102
RTVSPropertyOp34
 70
     1
102
RTVSPropertyOp35
 70
     1
102
RTVSPropertyOp36
 70
     1
102
RTVSPropertyOp37
 70
     1
102
RTVSPropertyOp38
 70
     1
102
RTVSPropertyOp39
 70
     1
102
RTVSPropertyOp40
 70
     1
102
RTVSPropertyOp41
 70
     1
102
RTVSPropertyOp42
 70
     1
102
RTVSPropertyOp43
 70
     1
102
RTVSPropertyOp44
 70
     1
102
RTVSPropertyOp45
 70
     1
102
RTVSPropertyOp46
 70
     1
102
RTVSPropertyOp47
 70
     1
102
RTVSPropertyOp48
 70
     1
102
RTVSPropertyOp49
 70
     1
102
RTVSPropertyOp50
 70
     1
102
RTVSPropertyOp51
 70
     0
102
RTVSPropertyOp52
 70
     0
102
RTVSPropertyOp53
 70
     1
102
RTVSPropertyOp54
 70
     1
102
RTVSPropertyOp55
 70
     1
102
RTVSPropertyOp56
 70
     1
102
RTVSPropertyOp57
 70
     1
102
RTVSPost2010Prop28
280
     0
102
RTVSPost2010PropOp28
 70
     1
102
RTVSPost2010Prop29
280
     1
102
RTVSPost2010PropOp29
 70
     1
102
RTVSPost2010Prop30
280
     1
102
RTVSPost2010PropOp30
 70
     1
102
RTVSPost2010Prop31
280
     0
102
RTVSPost2010PropOp31
 70
     1
102
RTVSPost2010Prop32
280
     0
102
RTVSPost2010PropOp32
 70
     1
102
RTVSPost2010Prop33
280
     0
102
RTVSPost2010PropOp33
 70
     1
102
RTVSPost2010Prop34
280
     0
102
RTVSPost2010PropOp34
 70
     1
102
RTVSPost2010Prop35
280
     0
102
RTVSPost2010PropOp35
 70
     1
102
RTVSPost2010Prop36
280
     0
102
RTVSPost2010PropOp36
 70
     1
102
RTVSPost2010Prop37
 90
       50
102
RTVSPost2010PropOp37
 70
     1
102
RTVSPost2010Prop38
140
0.0
102
RTVSPost2010PropOp38
 70
     1
102
RTVSPost2010Prop39
140
1.0
102
RTVSPost2010PropOp39
 70
     1
102
RTVSPost2010Prop40
 90
        0
102
RTVSPost2010PropOp40
 70
     1
102
RTVSPost2010Prop41ColorIndex
 90
      178
102
RTVSPost2010Prop41ColorRGB
 90
        0
102
RTVSPost2010PropOp41
 70
     1
102
RTVSPost2010Prop42
 90
       50
102
RTVSPost2010PropOp42
 70
     1
102
RTVSPost2010Prop43
 90
        3
102
RTVSPost2010PropOp43
 70
     1
102
RTVSPost2010Prop44ColorIndex
 90
        5
102
RTVSPost2010Prop44ColorRGB
 90
      255
102
RTVSPost2010PropOp44
 70
     1
102
RTVSPost2010Prop45
280
     0
102
RTVSPost2010PropOp45
 70
     1
102
RTVSPost2010Prop46
 90
       50
102
RTVSPost2010PropOp46
 70
     1
102
RTVSPost2010Prop47
 90
       50
102
RTVSPost2010PropOp47
 70
     1
102
RTVSPost2010Prop48
 90
       50
102
RTVSPost2010PropOp48
 70
     1
102
RTVSPost2010Prop49
280
     0
102
RTVSPost2010PropOp49
 70
     1
102
RTVSPost2010Prop50
 90
       50
102
RTVSPost2010PropOp50
 70
     1
102
RTVSPost2010Prop51ColorIndex
 90
      256
102
RTVSPost2010Prop51ColorRGB
 90
-16777216
102
RTVSPost2010PropOp51
 70
     0
102
RTVSPost2010Prop52
140
1.0
102
RTVSPost2010PropOp52
 70
     0
102
RTVSPost2010Prop53
 90
        2
102
RTVSPost2010PropOp53
 70
     1
102
RTVSPost2010Prop54
  1
strokes_ogs.tif
102
RTVSPost2010PropOp54
 70
     1
102
RTVSPost2010Prop55
280
     0
102
RTVSPost2010PropOp55
 70
     1
102
RTVSPost2010Prop56
140
1.0
102
RTVSPost2010PropOp56
 70
     1
102
RTVSPost2010Prop57
140
1.0
102
RTVSPost2010PropOp57
 70
     1
  0
XRECORD
  5
37B
102
{ACAD_REACTORS
330
37A
102
}
330
37A
100
AcDbXrecord
280
     1
102
RTVSPropertyOp0
 70
     0
102
RTVSPropertyOp1
 70
     0
102
RTVSPropertyOp2
 70
     0
102
RTVSPropertyOp3
 70
     0
102
RTVSPropertyOp4
 70
     0
102
RTVSPropertyOp5
 70
     0
102
RTVSPropertyOp6
 70
     0
102
RTVSPropertyOp7
 70
     0
102
RTVSPropertyOp8
 70
     0
102
RTVSPropertyOp9
 70
     0
102
RTVSPropertyOp10
 70
     0
102
RTVSPropertyOp11
 70
     0
102
RTVSPropertyOp12
 70
     0
102
RTVSPropertyOp13
 70
     0
102
RTVSPropertyOp14
 70
     2
102
RTVSPropertyOp15
 70
     0
102
RTVSPropertyOp16
 70
     0
102
RTVSPropertyOp17
 70
     0
102
RTVSPropertyOp18
 70
     0
102
RTVSPropertyOp19
 70
     0
102
RTVSPropertyOp20
 70
     0
102
RTVSPropertyOp21
 70
     0
102
RTVSPropertyOp22
 70
     0
102
RTVSPropertyOp23
 70
     0
102
RTVSPropertyOp24
 70
     0
102
RTVSPropertyOp25
 70
     0
102
RTVSPropertyOp26
 70
     0
102
RTVSPropertyOp27
 70
     0
102
RTVSPropertyOp28
 70
     0
102
RTVSPropertyOp29
 70
     0
102
RTVSPropertyOp30
 70
     0
102
RTVSPropertyOp31
 70
     0
102
RTVSPropertyOp32
 70
     0
102
RTVSPropertyOp33
 70
     0
102
RTVSPropertyOp34
 70
     0
102
RTVSPropertyOp35
 70
     0
102
RTVSPropertyOp36
 70
     0
102
RTVSPropertyOp37
 70
     0
102
RTVSPropertyOp38
 70
     0
102
RTVSPropertyOp39
 70
     0
102
RTVSPropertyOp40
 70
     0
102
RTVSPropertyOp41
 70
     0
102
RTVSPropertyOp42
 70
     0
102
RTVSPropertyOp43
 70
     0
102
RTVSPropertyOp44
 70
     0
102
RTVSPropertyOp45
 70
     0
102
RTVSPropertyOp46
 70
     0
102
RTVSPropertyOp47
 70
     0
102
RTVSPropertyOp48
 70
     0
102
RTVSPropertyOp49
 70
     0
102
RTVSPropertyOp50
 70
     0
102
RTVSPropertyOp51
 70
     0
102
RTVSPropertyOp52
 70
     0
102
RTVSPropertyOp53
 70
     0
102
RTVSPropertyOp54
 70
     0
102
RTVSPropertyOp55
 70
     0
102
RTVSPropertyOp56
 70
     0
102
RTVSPropertyOp57
 70
     0
102
RTVSPost2010Prop28
280
     0
102
RTVSPost2010PropOp28
 70
     0
102
RTVSPost2010Prop29
280
     1
102
RTVSPost2010PropOp29
 70
     0
102
RTVSPost2010Prop30
280
     1
102
RTVSPost2010PropOp30
 70
     0
102
RTVSPost2010Prop31
280
     0
102
RTVSPost2010PropOp31
 70
     0
102
RTVSPost2010Prop32
280
     0
102
RTVSPost2010PropOp32
 70
     0
102
RTVSPost2010Prop33
280
     0
102
RTVSPost2010PropOp33
 70
     0
102
RTVSPost2010Prop34
280
     0
102
RTVSPost2010PropOp34
 70
     0
102
RTVSPost2010Prop35
280
     0
102
RTVSPost2010PropOp35
 70
     0
102
RTVSPost2010Prop36
280
     0
102
RTVSPost2010PropOp36
 70
     0
102
RTVSPost2010Prop37
 90
       50
102
RTVSPost2010PropOp37
 70
     0
102
RTVSPost2010Prop38
140
0.0
102
RTVSPost2010PropOp38
 70
     0
102
RTVSPost2010Prop39
140
1.0
102
RTVSPost2010PropOp39
 70
     0
102
RTVSPost2010Prop40
 90
        0
102
RTVSPost2010PropOp40
 70
     0
102
RTVSPost2010Prop41ColorIndex
 90
      178
102
RTVSPost2010Prop41ColorRGB
 90
        0
102
RTVSPost2010PropOp41
 70
     0
102
RTVSPost2010Prop42
 90
       50
102
RTVSPost2010PropOp42
 70
     0
102
RTVSPost2010Prop43
 90
        3
102
RTVSPost2010PropOp43
 70
     0
102
RTVSPost2010Prop44ColorIndex
 90
        5
102
RTVSPost2010Prop44ColorRGB
 90
      255
102
RTVSPost2010PropOp44
 70
     0
102
RTVSPost2010Prop45
280
     0
102
RTVSPost2010PropOp45
 70
     0
102
RTVSPost2010Prop46
 90
       50
102
RTVSPost2010PropOp46
 70
     0
102
RTVSPost2010Prop47
 90
       50
102
RTVSPost2010PropOp47
 70
     0
102
RTVSPost2010Prop48
 90
       50
102
RTVSPost2010PropOp48
 70
     0
102
RTVSPost2010Prop49
280
     0
102
RTVSPost2010PropOp49
 70
     0
102
RTVSPost2010Prop50
 90
       50
102
RTVSPost2010PropOp50
 70
     0
102
RTVSPost2010Prop51ColorIndex
 90
      256
102
RTVSPost2010Prop51ColorRGB
 90
-16777216
102
RTVSPost2010PropOp51
 70
     0
102
RTVSPost2010Prop52
140
1.0
102
RTVSPost2010PropOp52
 70
     0
102
RTVSPost2010Prop53
 90
        2
102
RTVSPost2010PropOp53
 70
     0
102
RTVSPost2010Prop54
  1
strokes_ogs.tif
102
RTVSPost2010PropOp54
 70
     0
102
RTVSPost2010Prop55
280
     0
102
RTVSPost2010PropOp55
 70
     0
102
RTVSPost2010Prop56
140
1.0
102
RTVSPost2010PropOp56
 70
     0
102
RTVSPost2010Prop57
140
1.0
102
RTVSPost2010PropOp57
 70
     0
  0
XRECORD
  5
369
102
{ACAD_REACTORS
330
368
102
}
330
368
100
AcDbXrecord
280
     1
102
RTVSPropertyOp0
 70
     1
102
RTVSPropertyOp1
 70
     1
102
RTVSPropertyOp2
 70
     1
102
RTVSPropertyOp3
 70
     1
102
RTVSPropertyOp4
 70
     1
102
RTVSPropertyOp5
 70
     1
102
RTVSPropertyOp6
 70
     1
102
RTVSPropertyOp7
 70
     1
102
RTVSPropertyOp8
 70
     1
102
RTVSPropertyOp9
 70
     1
102
RTVSPropertyOp10
 70
     1
102
RTVSPropertyOp11
 70
     1
102
RTVSPropertyOp12
 70
     1
102
RTVSPropertyOp13
 70
     1
102
RTVSPropertyOp14
 70
     1
102
RTVSPropertyOp15
 70
     1
102
RTVSPropertyOp16
 70
     1
102
RTVSPropertyOp17
 70
     1
102
RTVSPropertyOp18
 70
     1
102
RTVSPropertyOp19
 70
     1
102
RTVSPropertyOp20
 70
     1
102
RTVSPropertyOp21
 70
     1
102
RTVSPropertyOp22
 70
     1
102
RTVSPropertyOp23
 70
     1
102
RTVSPropertyOp24
 70
     1
102
RTVSPropertyOp25
 70
     1
102
RTVSPropertyOp26
 70
     1
102
RTVSPropertyOp27
 70
     1
102
RTVSPropertyOp28
 70
     1
102
RTVSPropertyOp29
 70
     1
102
RTVSPropertyOp30
 70
     1
102
RTVSPropertyOp31
 70
     1
102
RTVSPropertyOp32
 70
     1
102
RTVSPropertyOp33
 70
     1
102
RTVSPropertyOp34
 70
     1
102
RTVSPropertyOp35
 70
     1
102
RTVSPropertyOp36
 70
     1
102
RTVSPropertyOp37
 70
     1
102
RTVSPropertyOp38
 70
     1
102
RTVSPropertyOp39
 70
     1
102
RTVSPropertyOp40
 70
     1
102
RTVSPropertyOp41
 70
     1
102
RTVSPropertyOp42
 70
     1
102
RTVSPropertyOp43
 70
     1
102
RTVSPropertyOp44
 70
     1
102
RTVSPropertyOp45
 70
     1
102
RTVSPropertyOp46
 70
     1
102
RTVSPropertyOp47
 70
     1
102
RTVSPropertyOp48
 70
     1
102
RTVSPropertyOp49
 70
     1
102
RTVSPropertyOp50
 70
     1
102
RTVSPropertyOp51
 70
     0
102
RTVSPropertyOp52
 70
     0
102
RTVSPropertyOp53
 70
     1
102
RTVSPropertyOp54
 70
     1
102
RTVSPropertyOp55
 70
     1
102
RTVSPropertyOp56
 70
     1
102
RTVSPropertyOp57
 70
     1
102
RTVSPost2010Prop28
280
     0
102
RTVSPost2010PropOp28
 70
     1
102
RTVSPost2010Prop29
280
     1
102
RTVSPost2010PropOp29
 70
     1
102
RTVSPost2010Prop30
280
     1
102
RTVSPost2010PropOp30
 70
     1
102
RTVSPost2010Prop31
280
     0
102
RTVSPost2010PropOp31
 70
     1
102
RTVSPost2010Prop32
280
     0
102
RTVSPost2010PropOp32
 70
     1
102
RTVSPost2010Prop33
280
     0
102
RTVSPost2010PropOp33
 70
     1
102
RTVSPost2010Prop34
280
     0
102
RTVSPost2010PropOp34
 70
     1
102
RTVSPost2010Prop35
280
     0
102
RTVSPost2010PropOp35
 70
     1
102
RTVSPost2010Prop36
280
     0
102
RTVSPost2010PropOp36
 70
     1
102
RTVSPost2010Prop37
 90
       50
102
RTVSPost2010PropOp37
 70
     1
102
RTVSPost2010Prop38
140
0.0
102
RTVSPost2010PropOp38
 70
     1
102
RTVSPost2010Prop39
140
1.0
102
RTVSPost2010PropOp39
 70
     1
102
RTVSPost2010Prop40
 90
        0
102
RTVSPost2010PropOp40
 70
     1
102
RTVSPost2010Prop41ColorIndex
 90
      178
102
RTVSPost2010Prop41ColorRGB
 90
        0
102
RTVSPost2010PropOp41
 70
     1
102
RTVSPost2010Prop42
 90
       50
102
RTVSPost2010PropOp42
 70
     1
102
RTVSPost2010Prop43
 90
        3
102
RTVSPost2010PropOp43
 70
     1
102
RTVSPost2010Prop44ColorIndex
 90
        5
102
RTVSPost2010Prop44ColorRGB
 90
      255
102
RTVSPost2010PropOp44
 70
     1
102
RTVSPost2010Prop45
280
     0
102
RTVSPost2010PropOp45
 70
     1
102
RTVSPost2010Prop46
 90
       50
102
RTVSPost2010PropOp46
 70
     1
102
RTVSPost2010Prop47
 90
       50
102
RTVSPost2010PropOp47
 70
     1
102
RTVSPost2010Prop48
 90
       50
102
RTVSPost2010PropOp48
 70
     1
102
RTVSPost2010Prop49
280
     0
102
RTVSPost2010PropOp49
 70
     1
102
RTVSPost2010Prop50
 90
       50
102
RTVSPost2010PropOp50
 70
     1
102
RTVSPost2010Prop51ColorIndex
 90
      256
102
RTVSPost2010Prop51ColorRGB
 90
-16777216
102
RTVSPost2010PropOp51
 70
     0
102
RTVSPost2010Prop52
140
1.0
102
RTVSPost2010PropOp52
 70
     0
102
RTVSPost2010Prop53
 90
        2
102
RTVSPost2010PropOp53
 70
     1
102
RTVSPost2010Prop54
  1
strokes_ogs.tif
102
RTVSPost2010PropOp54
 70
     1
102
RTVSPost2010Prop55
280
     0
102
RTVSPost2010PropOp55
 70
     1
102
RTVSPost2010Prop56
140
1.0
102
RTVSPost2010PropOp56
 70
     1
102
RTVSPost2010Prop57
140
1.0
102
RTVSPost2010PropOp57
 70
     1
  0
XRECORD
  5
387
102
{ACAD_REACTORS
330
386
102
}
330
386
100
AcDbXrecord
280
     1
102
RTVSPropertyOp0
 70
     1
102
RTVSPropertyOp1
 70
     1
102
RTVSPropertyOp2
 70
     1
102
RTVSPropertyOp3
 70
     1
102
RTVSPropertyOp4
 70
     1
102
RTVSPropertyOp5
 70
     1
102
RTVSPropertyOp6
 70
     1
102
RTVSPropertyOp7
 70
     1
102
RTVSPropertyOp8
 70
     1
102
RTVSPropertyOp9
 70
     1
102
RTVSPropertyOp10
 70
     1
102
RTVSPropertyOp11
 70
     1
102
RTVSPropertyOp12
 70
     1
102
RTVSPropertyOp13
 70
     1
102
RTVSPropertyOp14
 70
     1
102
RTVSPropertyOp15
 70
     1
102
RTVSPropertyOp16
 70
     1
102
RTVSPropertyOp17
 70
     1
102
RTVSPropertyOp18
 70
     1
102
RTVSPropertyOp19
 70
     1
102
RTVSPropertyOp20
 70
     1
102
RTVSPropertyOp21
 70
     1
102
RTVSPropertyOp22
 70
     1
102
RTVSPropertyOp23
 70
     1
102
RTVSPropertyOp24
 70
     1
102
RTVSPropertyOp25
 70
     1
102
RTVSPropertyOp26
 70
     1
102
RTVSPropertyOp27
 70
     1
102
RTVSPropertyOp28
 70
     1
102
RTVSPropertyOp29
 70
     1
102
RTVSPropertyOp30
 70
     1
102
RTVSPropertyOp31
 70
     1
102
RTVSPropertyOp32
 70
     1
102
RTVSPropertyOp33
 70
     1
102
RTVSPropertyOp34
 70
     1
102
RTVSPropertyOp35
 70
     1
102
RTVSPropertyOp36
 70
     1
102
RTVSPropertyOp37
 70
     1
102
RTVSPropertyOp38
 70
     1
102
RTVSPropertyOp39
 70
     1
102
RTVSPropertyOp40
 70
     1
102
RTVSPropertyOp41
 70
     1
102
RTVSPropertyOp42
 70
     1
102
RTVSPropertyOp43
 70
     1
102
RTVSPropertyOp44
 70
     1
102
RTVSPropertyOp45
 70
     1
102
RTVSPropertyOp46
 70
     1
102
RTVSPropertyOp47
 70
     1
102
RTVSPropertyOp48
 70
     1
102
RTVSPropertyOp49
 70
     1
102
RTVSPropertyOp50
 70
     1
102
RTVSPropertyOp51
 70
     0
102
RTVSPropertyOp52
 70
     0
102
RTVSPropertyOp53
 70
     1
102
RTVSPropertyOp54
 70
     1
102
RTVSPropertyOp55
 70
     1
102
RTVSPropertyOp56
 70
     1
102
RTVSPropertyOp57
 70
     1
102
RTVSPost2010Prop28
280
     0
102
RTVSPost2010PropOp28
 70
     1
102
RTVSPost2010Prop29
280
     1
102
RTVSPost2010PropOp29
 70
     1
102
RTVSPost2010Prop30
280
     1
102
RTVSPost2010PropOp30
 70
     1
102
RTVSPost2010Prop31
280
     0
102
RTVSPost2010PropOp31
 70
     1
102
RTVSPost2010Prop32
280
     0
102
RTVSPost2010PropOp32
 70
     1
102
RTVSPost2010Prop33
280
     0
102
RTVSPost2010PropOp33
 70
     1
102
RTVSPost2010Prop34
280
     0
102
RTVSPost2010PropOp34
 70
     1
102
RTVSPost2010Prop35
280
     0
102
RTVSPost2010PropOp35
 70
     1
102
RTVSPost2010Prop36
280
     0
102
RTVSPost2010PropOp36
 70
     1
102
RTVSPost2010Prop37
 90
       50
102
RTVSPost2010PropOp37
 70
     1
102
RTVSPost2010Prop38
140
0.0
102
RTVSPost2010PropOp38
 70
     1
102
RTVSPost2010Prop39
140
1.0
102
RTVSPost2010PropOp39
 70
     1
102
RTVSPost2010Prop40
 90
        0
102
RTVSPost2010PropOp40
 70
     1
102
RTVSPost2010Prop41ColorIndex
 90
      178
102
RTVSPost2010Prop41ColorRGB
 90
        0
102
RTVSPost2010PropOp41
 70
     1
102
RTVSPost2010Prop42
 90
       50
102
RTVSPost2010PropOp42
 70
     1
102
RTVSPost2010Prop43
 90
        3
102
RTVSPost2010PropOp43
 70
     1
102
RTVSPost2010Prop44ColorIndex
 90
        5
102
RTVSPost2010Prop44ColorRGB
 90
      255
102
RTVSPost2010PropOp44
 70
     1
102
RTVSPost2010Prop45
280
     0
102
RTVSPost2010PropOp45
 70
     1
102
RTVSPost2010Prop46
 90
       50
102
RTVSPost2010PropOp46
 70
     1
102
RTVSPost2010Prop47
 90
       50
102
RTVSPost2010PropOp47
 70
     1
102
RTVSPost2010Prop48
 90
       50
102
RTVSPost2010PropOp48
 70
     1
102
RTVSPost2010Prop49
280
     0
102
RTVSPost2010PropOp49
 70
     1
102
RTVSPost2010Prop50
 90
       50
102
RTVSPost2010PropOp50
 70
     1
102
RTVSPost2010Prop51ColorIndex
 90
      256
102
RTVSPost2010Prop51ColorRGB
 90
-16777216
102
RTVSPost2010PropOp51
 70
     0
102
RTVSPost2010Prop52
140
1.0
102
RTVSPost2010PropOp52
 70
     0
102
RTVSPost2010Prop53
 90
        2
102
RTVSPost2010PropOp53
 70
     1
102
RTVSPost2010Prop54
  1
strokes_ogs.tif
102
RTVSPost2010PropOp54
 70
     1
102
RTVSPost2010Prop55
280
     0
102
RTVSPost2010PropOp55
 70
     1
102
RTVSPost2010Prop56
140
1.0
102
RTVSPost2010PropOp56
 70
     1
102
RTVSPost2010Prop57
140
1.0
102
RTVSPost2010PropOp57
 70
     1
  0
XRECORD
  5
385
102
{ACAD_REACTORS
330
384
102
}
330
384
100
AcDbXrecord
280
     1
102
RTVSPropertyOp0
 70
     1
102
RTVSPropertyOp1
 70
     1
102
RTVSPropertyOp2
 70
     1
102
RTVSPropertyOp3
 70
     1
102
RTVSPropertyOp4
 70
     1
102
RTVSPropertyOp5
 70
     1
102
RTVSPropertyOp6
 70
     1
102
RTVSPropertyOp7
 70
     1
102
RTVSPropertyOp8
 70
     1
102
RTVSPropertyOp9
 70
     1
102
RTVSPropertyOp10
 70
     1
102
RTVSPropertyOp11
 70
     1
102
RTVSPropertyOp12
 70
     1
102
RTVSPropertyOp13
 70
     1
102
RTVSPropertyOp14
 70
     1
102
RTVSPropertyOp15
 70
     1
102
RTVSPropertyOp16
 70
     1
102
RTVSPropertyOp17
 70
     1
102
RTVSPropertyOp18
 70
     1
102
RTVSPropertyOp19
 70
     1
102
RTVSPropertyOp20
 70
     1
102
RTVSPropertyOp21
 70
     1
102
RTVSPropertyOp22
 70
     1
102
RTVSPropertyOp23
 70
     1
102
RTVSPropertyOp24
 70
     1
102
RTVSPropertyOp25
 70
     1
102
RTVSPropertyOp26
 70
     1
102
RTVSPropertyOp27
 70
     1
102
RTVSPropertyOp28
 70
     1
102
RTVSPropertyOp29
 70
     1
102
RTVSPropertyOp30
 70
     1
102
RTVSPropertyOp31
 70
     1
102
RTVSPropertyOp32
 70
     1
102
RTVSPropertyOp33
 70
     1
102
RTVSPropertyOp34
 70
     1
102
RTVSPropertyOp35
 70
     1
102
RTVSPropertyOp36
 70
     1
102
RTVSPropertyOp37
 70
     1
102
RTVSPropertyOp38
 70
     1
102
RTVSPropertyOp39
 70
     1
102
RTVSPropertyOp40
 70
     1
102
RTVSPropertyOp41
 70
     1
102
RTVSPropertyOp42
 70
     1
102
RTVSPropertyOp43
 70
     1
102
RTVSPropertyOp44
 70
     1
102
RTVSPropertyOp45
 70
     1
102
RTVSPropertyOp46
 70
     1
102
RTVSPropertyOp47
 70
     1
102
RTVSPropertyOp48
 70
     1
102
RTVSPropertyOp49
 70
     1
102
RTVSPropertyOp50
 70
     1
102
RTVSPropertyOp51
 70
     0
102
RTVSPropertyOp52
 70
     0
102
RTVSPropertyOp53
 70
     1
102
RTVSPropertyOp54
 70
     1
102
RTVSPropertyOp55
 70
     1
102
RTVSPropertyOp56
 70
     1
102
RTVSPropertyOp57
 70
     1
102
RTVSPost2010Prop28
280
     0
102
RTVSPost2010PropOp28
 70
     1
102
RTVSPost2010Prop29
280
     1
102
RTVSPost2010PropOp29
 70
     1
102
RTVSPost2010Prop30
280
     1
102
RTVSPost2010PropOp30
 70
     1
102
RTVSPost2010Prop31
280
     0
102
RTVSPost2010PropOp31
 70
     1
102
RTVSPost2010Prop32
280
     0
102
RTVSPost2010PropOp32
 70
     1
102
RTVSPost2010Prop33
280
     0
102
RTVSPost2010PropOp33
 70
     1
102
RTVSPost2010Prop34
280
     0
102
RTVSPost2010PropOp34
 70
     1
102
RTVSPost2010Prop35
280
     0
102
RTVSPost2010PropOp35
 70
     1
102
RTVSPost2010Prop36
280
     0
102
RTVSPost2010PropOp36
 70
     1
102
RTVSPost2010Prop37
 90
       50
102
RTVSPost2010PropOp37
 70
     1
102
RTVSPost2010Prop38
140
0.0
102
RTVSPost2010PropOp38
 70
     1
102
RTVSPost2010Prop39
140
1.0
102
RTVSPost2010PropOp39
 70
     1
102
RTVSPost2010Prop40
 90
        0
102
RTVSPost2010PropOp40
 70
     1
102
RTVSPost2010Prop41ColorIndex
 90
      178
102
RTVSPost2010Prop41ColorRGB
 90
        0
102
RTVSPost2010PropOp41
 70
     1
102
RTVSPost2010Prop42
 90
       50
102
RTVSPost2010PropOp42
 70
     1
102
RTVSPost2010Prop43
 90
        3
102
RTVSPost2010PropOp43
 70
     1
102
RTVSPost2010Prop44ColorIndex
 90
        5
102
RTVSPost2010Prop44ColorRGB
 90
      255
102
RTVSPost2010PropOp44
 70
     1
102
RTVSPost2010Prop45
280
     0
102
RTVSPost2010PropOp45
 70
     1
102
RTVSPost2010Prop46
 90
       50
102
RTVSPost2010PropOp46
 70
     1
102
RTVSPost2010Prop47
 90
       50
102
RTVSPost2010PropOp47
 70
     1
102
RTVSPost2010Prop48
 90
       50
102
RTVSPost2010PropOp48
 70
     1
102
RTVSPost2010Prop49
280
     0
102
RTVSPost2010PropOp49
 70
     1
102
RTVSPost2010Prop50
 90
       50
102
RTVSPost2010PropOp50
 70
     1
102
RTVSPost2010Prop51ColorIndex
 90
      256
102
RTVSPost2010Prop51ColorRGB
 90
-16777216
102
RTVSPost2010PropOp51
 70
     0
102
RTVSPost2010Prop52
140
1.0
102
RTVSPost2010PropOp52
 70
     0
102
RTVSPost2010Prop53
 90
        2
102
RTVSPost2010PropOp53
 70
     1
102
RTVSPost2010Prop54
  1
strokes_ogs.tif
102
RTVSPost2010PropOp54
 70
     1
102
RTVSPost2010Prop55
280
     0
102
RTVSPost2010PropOp55
 70
     1
102
RTVSPost2010Prop56
140
1.0
102
RTVSPost2010PropOp56
 70
     1
102
RTVSPost2010Prop57
140
1.0
102
RTVSPost2010PropOp57
 70
     1
  0
XRECORD
  5
37F
102
{ACAD_REACTORS
330
37E
102
}
330
37E
100
AcDbXrecord
280
     1
102
RTVSPropertyOp0
 70
     1
102
RTVSPropertyOp1
 70
     1
102
RTVSPropertyOp2
 70
     1
102
RTVSPropertyOp3
 70
     1
102
RTVSPropertyOp4
 70
     1
102
RTVSPropertyOp5
 70
     1
102
RTVSPropertyOp6
 70
     1
102
RTVSPropertyOp7
 70
     1
102
RTVSPropertyOp8
 70
     1
102
RTVSPropertyOp9
 70
     1
102
RTVSPropertyOp10
 70
     1
102
RTVSPropertyOp11
 70
     1
102
RTVSPropertyOp12
 70
     1
102
RTVSPropertyOp13
 70
     1
102
RTVSPropertyOp14
 70
     1
102
RTVSPropertyOp15
 70
     1
102
RTVSPropertyOp16
 70
     1
102
RTVSPropertyOp17
 70
     1
102
RTVSPropertyOp18
 70
     1
102
RTVSPropertyOp19
 70
     1
102
RTVSPropertyOp20
 70
     1
102
RTVSPropertyOp21
 70
     1
102
RTVSPropertyOp22
 70
     1
102
RTVSPropertyOp23
 70
     1
102
RTVSPropertyOp24
 70
     1
102
RTVSPropertyOp25
 70
     1
102
RTVSPropertyOp26
 70
     1
102
RTVSPropertyOp27
 70
     1
102
RTVSPropertyOp28
 70
     1
102
RTVSPropertyOp29
 70
     1
102
RTVSPropertyOp30
 70
     1
102
RTVSPropertyOp31
 70
     1
102
RTVSPropertyOp32
 70
     1
102
RTVSPropertyOp33
 70
     1
102
RTVSPropertyOp34
 70
     1
102
RTVSPropertyOp35
 70
     1
102
RTVSPropertyOp36
 70
     1
102
RTVSPropertyOp37
 70
     1
102
RTVSPropertyOp38
 70
     1
102
RTVSPropertyOp39
 70
     1
102
RTVSPropertyOp40
 70
     1
102
RTVSPropertyOp41
 70
     1
102
RTVSPropertyOp42
 70
     1
102
RTVSPropertyOp43
 70
     1
102
RTVSPropertyOp44
 70
     1
102
RTVSPropertyOp45
 70
     1
102
RTVSPropertyOp46
 70
     1
102
RTVSPropertyOp47
 70
     1
102
RTVSPropertyOp48
 70
     1
102
RTVSPropertyOp49
 70
     1
102
RTVSPropertyOp50
 70
     1
102
RTVSPropertyOp51
 70
     0
102
RTVSPropertyOp52
 70
     0
102
RTVSPropertyOp53
 70
     1
102
RTVSPropertyOp54
 70
     1
102
RTVSPropertyOp55
 70
     1
102
RTVSPropertyOp56
 70
     1
102
RTVSPropertyOp57
 70
     1
102
RTVSPost2010Prop28
280
     0
102
RTVSPost2010PropOp28
 70
     1
102
RTVSPost2010Prop29
280
     1
102
RTVSPost2010PropOp29
 70
     1
102
RTVSPost2010Prop30
280
     1
102
RTVSPost2010PropOp30
 70
     1
102
RTVSPost2010Prop31
280
     0
102
RTVSPost2010PropOp31
 70
     1
102
RTVSPost2010Prop32
280
     0
102
RTVSPost2010PropOp32
 70
     1
102
RTVSPost2010Prop33
280
     0
102
RTVSPost2010PropOp33
 70
     1
102
RTVSPost2010Prop34
280
     0
102
RTVSPost2010PropOp34
 70
     1
102
RTVSPost2010Prop35
280
     0
102
RTVSPost2010PropOp35
 70
     1
102
RTVSPost2010Prop36
280
     0
102
RTVSPost2010PropOp36
 70
     1
102
RTVSPost2010Prop37
 90
       50
102
RTVSPost2010PropOp37
 70
     1
102
RTVSPost2010Prop38
140
0.0
102
RTVSPost2010PropOp38
 70
     1
102
RTVSPost2010Prop39
140
1.0
102
RTVSPost2010PropOp39
 70
     1
102
RTVSPost2010Prop40
 90
        0
102
RTVSPost2010PropOp40
 70
     1
102
RTVSPost2010Prop41ColorIndex
 90
      178
102
RTVSPost2010Prop41ColorRGB
 90
        0
102
RTVSPost2010PropOp41
 70
     1
102
RTVSPost2010Prop42
 90
       50
102
RTVSPost2010PropOp42
 70
     1
102
RTVSPost2010Prop43
 90
        3
102
RTVSPost2010PropOp43
 70
     1
102
RTVSPost2010Prop44ColorIndex
 90
        5
102
RTVSPost2010Prop44ColorRGB
 90
      255
102
RTVSPost2010PropOp44
 70
     1
102
RTVSPost2010Prop45
280
     0
102
RTVSPost2010PropOp45
 70
     1
102
RTVSPost2010Prop46
 90
       50
102
RTVSPost2010PropOp46
 70
     1
102
RTVSPost2010Prop47
 90
       50
102
RTVSPost2010PropOp47
 70
     1
102
RTVSPost2010Prop48
 90
       50
102
RTVSPost2010PropOp48
 70
     1
102
RTVSPost2010Prop49
280
     0
102
RTVSPost2010PropOp49
 70
     1
102
RTVSPost2010Prop50
 90
       50
102
RTVSPost2010PropOp50
 70
     1
102
RTVSPost2010Prop51ColorIndex
 90
      256
102
RTVSPost2010Prop51ColorRGB
 90
-16777216
102
RTVSPost2010PropOp51
 70
     0
102
RTVSPost2010Prop52
140
1.0
102
RTVSPost2010PropOp52
 70
     0
102
RTVSPost2010Prop53
 90
        2
102
RTVSPost2010PropOp53
 70
     1
102
RTVSPost2010Prop54
  1
strokes_ogs.tif
102
RTVSPost2010PropOp54
 70
     1
102
RTVSPost2010Prop55
280
     0
102
RTVSPost2010PropOp55
 70
     1
102
RTVSPost2010Prop56
140
1.0
102
RTVSPost2010PropOp56
 70
     1
102
RTVSPost2010Prop57
140
1.0
102
RTVSPost2010PropOp57
 70
     1
  0
XRECORD
  5
381
102
{ACAD_REACTORS
330
380
102
}
330
380
100
AcDbXrecord
280
     1
102
RTVSPropertyOp0
 70
     1
102
RTVSPropertyOp1
 70
     1
102
RTVSPropertyOp2
 70
     1
102
RTVSPropertyOp3
 70
     1
102
RTVSPropertyOp4
 70
     1
102
RTVSPropertyOp5
 70
     1
102
RTVSPropertyOp6
 70
     1
102
RTVSPropertyOp7
 70
     1
102
RTVSPropertyOp8
 70
     1
102
RTVSPropertyOp9
 70
     1
102
RTVSPropertyOp10
 70
     1
102
RTVSPropertyOp11
 70
     1
102
RTVSPropertyOp12
 70
     1
102
RTVSPropertyOp13
 70
     1
102
RTVSPropertyOp14
 70
     1
102
RTVSPropertyOp15
 70
     1
102
RTVSPropertyOp16
 70
     1
102
RTVSPropertyOp17
 70
     1
102
RTVSPropertyOp18
 70
     1
102
RTVSPropertyOp19
 70
     1
102
RTVSPropertyOp20
 70
     1
102
RTVSPropertyOp21
 70
     1
102
RTVSPropertyOp22
 70
     1
102
RTVSPropertyOp23
 70
     1
102
RTVSPropertyOp24
 70
     1
102
RTVSPropertyOp25
 70
     1
102
RTVSPropertyOp26
 70
     1
102
RTVSPropertyOp27
 70
     1
102
RTVSPropertyOp28
 70
     1
102
RTVSPropertyOp29
 70
     1
102
RTVSPropertyOp30
 70
     1
102
RTVSPropertyOp31
 70
     1
102
RTVSPropertyOp32
 70
     1
102
RTVSPropertyOp33
 70
     1
102
RTVSPropertyOp34
 70
     1
102
RTVSPropertyOp35
 70
     1
102
RTVSPropertyOp36
 70
     1
102
RTVSPropertyOp37
 70
     1
102
RTVSPropertyOp38
 70
     1
102
RTVSPropertyOp39
 70
     1
102
RTVSPropertyOp40
 70
     1
102
RTVSPropertyOp41
 70
     1
102
RTVSPropertyOp42
 70
     1
102
RTVSPropertyOp43
 70
     1
102
RTVSPropertyOp44
 70
     1
102
RTVSPropertyOp45
 70
     1
102
RTVSPropertyOp46
 70
     1
102
RTVSPropertyOp47
 70
     1
102
RTVSPropertyOp48
 70
     1
102
RTVSPropertyOp49
 70
     1
102
RTVSPropertyOp50
 70
     1
102
RTVSPropertyOp51
 70
     0
102
RTVSPropertyOp52
 70
     0
102
RTVSPropertyOp53
 70
     1
102
RTVSPropertyOp54
 70
     1
102
RTVSPropertyOp55
 70
     1
102
RTVSPropertyOp56
 70
     1
102
RTVSPropertyOp57
 70
     1
102
RTVSPost2010Prop28
280
     0
102
RTVSPost2010PropOp28
 70
     1
102
RTVSPost2010Prop29
280
     1
102
RTVSPost2010PropOp29
 70
     1
102
RTVSPost2010Prop30
280
     1
102
RTVSPost2010PropOp30
 70
     1
102
RTVSPost2010Prop31
280
     0
102
RTVSPost2010PropOp31
 70
     1
102
RTVSPost2010Prop32
280
     0
102
RTVSPost2010PropOp32
 70
     1
102
RTVSPost2010Prop33
280
     0
102
RTVSPost2010PropOp33
 70
     1
102
RTVSPost2010Prop34
280
     0
102
RTVSPost2010PropOp34
 70
     1
102
RTVSPost2010Prop35
280
     0
102
RTVSPost2010PropOp35
 70
     1
102
RTVSPost2010Prop36
280
     0
102
RTVSPost2010PropOp36
 70
     1
102
RTVSPost2010Prop37
 90
       50
102
RTVSPost2010PropOp37
 70
     1
102
RTVSPost2010Prop38
140
0.0
102
RTVSPost2010PropOp38
 70
     1
102
RTVSPost2010Prop39
140
1.0
102
RTVSPost2010PropOp39
 70
     1
102
RTVSPost2010Prop40
 90
        0
102
RTVSPost2010PropOp40
 70
     1
102
RTVSPost2010Prop41ColorIndex
 90
      178
102
RTVSPost2010Prop41ColorRGB
 90
        0
102
RTVSPost2010PropOp41
 70
     1
102
RTVSPost2010Prop42
 90
       50
102
RTVSPost2010PropOp42
 70
     1
102
RTVSPost2010Prop43
 90
        3
102
RTVSPost2010PropOp43
 70
     1
102
RTVSPost2010Prop44ColorIndex
 90
        5
102
RTVSPost2010Prop44ColorRGB
 90
      255
102
RTVSPost2010PropOp44
 70
     1
102
RTVSPost2010Prop45
280
     0
102
RTVSPost2010PropOp45
 70
     1
102
RTVSPost2010Prop46
 90
       50
102
RTVSPost2010PropOp46
 70
     1
102
RTVSPost2010Prop47
 90
       50
102
RTVSPost2010PropOp47
 70
     1
102
RTVSPost2010Prop48
 90
       50
102
RTVSPost2010PropOp48
 70
     1
102
RTVSPost2010Prop49
280
     0
102
RTVSPost2010PropOp49
 70
     1
102
RTVSPost2010Prop50
 90
       50
102
RTVSPost2010PropOp50
 70
     1
102
RTVSPost2010Prop51ColorIndex
 90
      256
102
RTVSPost2010Prop51ColorRGB
 90
-16777216
102
RTVSPost2010PropOp51
 70
     0
102
RTVSPost2010Prop52
140
1.0
102
RTVSPost2010PropOp52
 70
     0
102
RTVSPost2010Prop53
 90
        2
102
RTVSPost2010PropOp53
 70
     1
102
RTVSPost2010Prop54
  1
strokes_ogs.tif
102
RTVSPost2010PropOp54
 70
     1
102
RTVSPost2010Prop55
280
     0
102
RTVSPost2010PropOp55
 70
     1
102
RTVSPost2010Prop56
140
1.0
102
RTVSPost2010PropOp56
 70
     1
102
RTVSPost2010Prop57
140
1.0
102
RTVSPost2010PropOp57
 70
     1
  0
XRECORD
  5
371
102
{ACAD_REACTORS
330
370
102
}
330
370
100
AcDbXrecord
280
     1
102
RTVSPropertyOp0
 70
     1
102
RTVSPropertyOp1
 70
     1
102
RTVSPropertyOp2
 70
     1
102
RTVSPropertyOp3
 70
     1
102
RTVSPropertyOp4
 70
     1
102
RTVSPropertyOp5
 70
     1
102
RTVSPropertyOp6
 70
     1
102
RTVSPropertyOp7
 70
     1
102
RTVSPropertyOp8
 70
     1
102
RTVSPropertyOp9
 70
     1
102
RTVSPropertyOp10
 70
     1
102
RTVSPropertyOp11
 70
     1
102
RTVSPropertyOp12
 70
     1
102
RTVSPropertyOp13
 70
     1
102
RTVSPropertyOp14
 70
     1
102
RTVSPropertyOp15
 70
     1
102
RTVSPropertyOp16
 70
     1
102
RTVSPropertyOp17
 70
     1
102
RTVSPropertyOp18
 70
     1
102
RTVSPropertyOp19
 70
     1
102
RTVSPropertyOp20
 70
     1
102
RTVSPropertyOp21
 70
     1
102
RTVSPropertyOp22
 70
     1
102
RTVSPropertyOp23
 70
     1
102
RTVSPropertyOp24
 70
     1
102
RTVSPropertyOp25
 70
     1
102
RTVSPropertyOp26
 70
     1
102
RTVSPropertyOp27
 70
     1
102
RTVSPropertyOp28
 70
     1
102
RTVSPropertyOp29
 70
     1
102
RTVSPropertyOp30
 70
     1
102
RTVSPropertyOp31
 70
     1
102
RTVSPropertyOp32
 70
     1
102
RTVSPropertyOp33
 70
     1
102
RTVSPropertyOp34
 70
     1
102
RTVSPropertyOp35
 70
     1
102
RTVSPropertyOp36
 70
     1
102
RTVSPropertyOp37
 70
     1
102
RTVSPropertyOp38
 70
     1
102
RTVSPropertyOp39
 70
     1
102
RTVSPropertyOp40
 70
     1
102
RTVSPropertyOp41
 70
     1
102
RTVSPropertyOp42
 70
     1
102
RTVSPropertyOp43
 70
     1
102
RTVSPropertyOp44
 70
     1
102
RTVSPropertyOp45
 70
     1
102
RTVSPropertyOp46
 70
     1
102
RTVSPropertyOp47
 70
     1
102
RTVSPropertyOp48
 70
     1
102
RTVSPropertyOp49
 70
     1
102
RTVSPropertyOp50
 70
     1
102
RTVSPropertyOp51
 70
     0
102
RTVSPropertyOp52
 70
     0
102
RTVSPropertyOp53
 70
     1
102
RTVSPropertyOp54
 70
     1
102
RTVSPropertyOp55
 70
     1
102
RTVSPropertyOp56
 70
     1
102
RTVSPropertyOp57
 70
     1
102
RTVSPost2010Prop28
280
     0
102
RTVSPost2010PropOp28
 70
     1
102
RTVSPost2010Prop29
280
     1
102
RTVSPost2010PropOp29
 70
     1
102
RTVSPost2010Prop30
280
     1
102
RTVSPost2010PropOp30
 70
     1
102
RTVSPost2010Prop31
280
     0
102
RTVSPost2010PropOp31
 70
     1
102
RTVSPost2010Prop32
280
     0
102
RTVSPost2010PropOp32
 70
     1
102
RTVSPost2010Prop33
280
     0
102
RTVSPost2010PropOp33
 70
     1
102
RTVSPost2010Prop34
280
     0
102
RTVSPost2010PropOp34
 70
     1
102
RTVSPost2010Prop35
280
     0
102
RTVSPost2010PropOp35
 70
     1
102
RTVSPost2010Prop36
280
     0
102
RTVSPost2010PropOp36
 70
     1
102
RTVSPost2010Prop37
 90
       50
102
RTVSPost2010PropOp37
 70
     1
102
RTVSPost2010Prop38
140
0.0
102
RTVSPost2010PropOp38
 70
     1
102
RTVSPost2010Prop39
140
1.0
102
RTVSPost2010PropOp39
 70
     1
102
RTVSPost2010Prop40
 90
        0
102
RTVSPost2010PropOp40
 70
     1
102
RTVSPost2010Prop41ColorIndex
 90
      178
102
RTVSPost2010Prop41ColorRGB
 90
        0
102
RTVSPost2010PropOp41
 70
     1
102
RTVSPost2010Prop42
 90
       50
102
RTVSPost2010PropOp42
 70
     1
102
RTVSPost2010Prop43
 90
        3
102
RTVSPost2010PropOp43
 70
     1
102
RTVSPost2010Prop44ColorIndex
 90
        5
102
RTVSPost2010Prop44ColorRGB
 90
      255
102
RTVSPost2010PropOp44
 70
     1
102
RTVSPost2010Prop45
280
     0
102
RTVSPost2010PropOp45
 70
     1
102
RTVSPost2010Prop46
 90
       50
102
RTVSPost2010PropOp46
 70
     1
102
RTVSPost2010Prop47
 90
       50
102
RTVSPost2010PropOp47
 70
     1
102
RTVSPost2010Prop48
 90
       50
102
RTVSPost2010PropOp48
 70
     1
102
RTVSPost2010Prop49
280
     0
102
RTVSPost2010PropOp49
 70
     1
102
RTVSPost2010Prop50
 90
       50
102
RTVSPost2010PropOp50
 70
     1
102
RTVSPost2010Prop51ColorIndex
 90
      256
102
RTVSPost2010Prop51ColorRGB
 90
-16777216
102
RTVSPost2010PropOp51
 70
     0
102
RTVSPost2010Prop52
140
1.0
102
RTVSPost2010PropOp52
 70
     0
102
RTVSPost2010Prop53
 90
        2
102
RTVSPost2010PropOp53
 70
     1
102
RTVSPost2010Prop54
  1
strokes_ogs.tif
102
RTVSPost2010PropOp54
 70
     1
102
RTVSPost2010Prop55
280
     0
102
RTVSPost2010PropOp55
 70
     1
102
RTVSPost2010Prop56
140
1.0
102
RTVSPost2010PropOp56
 70
     1
102
RTVSPost2010Prop57
140
1.0
102
RTVSPost2010PropOp57
 70
     1
  0
XRECORD
  5
363
102
{ACAD_REACTORS
330
362
102
}
330
362
100
AcDbXrecord
280
     1
102
RTVSPropertyOp0
 70
     1
102
RTVSPropertyOp1
 70
     1
102
RTVSPropertyOp2
 70
     1
102
RTVSPropertyOp3
 70
     1
102
RTVSPropertyOp4
 70
     1
102
RTVSPropertyOp5
 70
     1
102
RTVSPropertyOp6
 70
     1
102
RTVSPropertyOp7
 70
     1
102
RTVSPropertyOp8
 70
     1
102
RTVSPropertyOp9
 70
     1
102
RTVSPropertyOp10
 70
     1
102
RTVSPropertyOp11
 70
     1
102
RTVSPropertyOp12
 70
     1
102
RTVSPropertyOp13
 70
     1
102
RTVSPropertyOp14
 70
     1
102
RTVSPropertyOp15
 70
     1
102
RTVSPropertyOp16
 70
     1
102
RTVSPropertyOp17
 70
     1
102
RTVSPropertyOp18
 70
     1
102
RTVSPropertyOp19
 70
     1
102
RTVSPropertyOp20
 70
     1
102
RTVSPropertyOp21
 70
     1
102
RTVSPropertyOp22
 70
     1
102
RTVSPropertyOp23
 70
     1
102
RTVSPropertyOp24
 70
     1
102
RTVSPropertyOp25
 70
     1
102
RTVSPropertyOp26
 70
     1
102
RTVSPropertyOp27
 70
     1
102
RTVSPropertyOp28
 70
     1
102
RTVSPropertyOp29
 70
     1
102
RTVSPropertyOp30
 70
     1
102
RTVSPropertyOp31
 70
     1
102
RTVSPropertyOp32
 70
     1
102
RTVSPropertyOp33
 70
     1
102
RTVSPropertyOp34
 70
     1
102
RTVSPropertyOp35
 70
     1
102
RTVSPropertyOp36
 70
     1
102
RTVSPropertyOp37
 70
     1
102
RTVSPropertyOp38
 70
     1
102
RTVSPropertyOp39
 70
     1
102
RTVSPropertyOp40
 70
     1
102
RTVSPropertyOp41
 70
     1
102
RTVSPropertyOp42
 70
     1
102
RTVSPropertyOp43
 70
     1
102
RTVSPropertyOp44
 70
     1
102
RTVSPropertyOp45
 70
     1
102
RTVSPropertyOp46
 70
     1
102
RTVSPropertyOp47
 70
     1
102
RTVSPropertyOp48
 70
     1
102
RTVSPropertyOp49
 70
     1
102
RTVSPropertyOp50
 70
     1
102
RTVSPropertyOp51
 70
     0
102
RTVSPropertyOp52
 70
     0
102
RTVSPropertyOp53
 70
     1
102
RTVSPropertyOp54
 70
     1
102
RTVSPropertyOp55
 70
     1
102
RTVSPropertyOp56
 70
     1
102
RTVSPropertyOp57
 70
     1
102
RTVSPost2010Prop28
280
     0
102
RTVSPost2010PropOp28
 70
     1
102
RTVSPost2010Prop29
280
     1
102
RTVSPost2010PropOp29
 70
     1
102
RTVSPost2010Prop30
280
     1
102
RTVSPost2010PropOp30
 70
     1
102
RTVSPost2010Prop31
280
     0
102
RTVSPost2010PropOp31
 70
     1
102
RTVSPost2010Prop32
280
     0
102
RTVSPost2010PropOp32
 70
     1
102
RTVSPost2010Prop33
280
     0
102
RTVSPost2010PropOp33
 70
     1
102
RTVSPost2010Prop34
280
     0
102
RTVSPost2010PropOp34
 70
     1
102
RTVSPost2010Prop35
280
     0
102
RTVSPost2010PropOp35
 70
     1
102
RTVSPost2010Prop36
280
     0
102
RTVSPost2010PropOp36
 70
     1
102
RTVSPost2010Prop37
 90
       50
102
RTVSPost2010PropOp37
 70
     1
102
RTVSPost2010Prop38
140
0.0
102
RTVSPost2010PropOp38
 70
     1
102
RTVSPost2010Prop39
140
1.0
102
RTVSPost2010PropOp39
 70
     1
102
RTVSPost2010Prop40
 90
        0
102
RTVSPost2010PropOp40
 70
     1
102
RTVSPost2010Prop41ColorIndex
 90
      178
102
RTVSPost2010Prop41ColorRGB
 90
        0
102
RTVSPost2010PropOp41
 70
     1
102
RTVSPost2010Prop42
 90
       50
102
RTVSPost2010PropOp42
 70
     1
102
RTVSPost2010Prop43
 90
        3
102
RTVSPost2010PropOp43
 70
     1
102
RTVSPost2010Prop44ColorIndex
 90
        5
102
RTVSPost2010Prop44ColorRGB
 90
      255
102
RTVSPost2010PropOp44
 70
     1
102
RTVSPost2010Prop45
280
     0
102
RTVSPost2010PropOp45
 70
     1
102
RTVSPost2010Prop46
 90
       50
102
RTVSPost2010PropOp46
 70
     1
102
RTVSPost2010Prop47
 90
       50
102
RTVSPost2010PropOp47
 70
     1
102
RTVSPost2010Prop48
 90
       50
102
RTVSPost2010PropOp48
 70
     1
102
RTVSPost2010Prop49
280
     0
102
RTVSPost2010PropOp49
 70
     1
102
RTVSPost2010Prop50
 90
       50
102
RTVSPost2010PropOp50
 70
     1
102
RTVSPost2010Prop51ColorIndex
 90
      256
102
RTVSPost2010Prop51ColorRGB
 90
-16777216
102
RTVSPost2010PropOp51
 70
     0
102
RTVSPost2010Prop52
140
1.0
102
RTVSPost2010PropOp52
 70
     0
102
RTVSPost2010Prop53
 90
        2
102
RTVSPost2010PropOp53
 70
     1
102
RTVSPost2010Prop54
  1
strokes_ogs.tif
102
RTVSPost2010PropOp54
 70
     1
102
RTVSPost2010Prop55
280
     0
102
RTVSPost2010PropOp55
 70
     1
102
RTVSPost2010Prop56
140
1.0
102
RTVSPost2010PropOp56
 70
     1
102
RTVSPost2010Prop57
140
1.0
102
RTVSPost2010PropOp57
 70
     1
  0
XRECORD
  5
383
102
{ACAD_REACTORS
330
382
102
}
330
382
100
AcDbXrecord
280
     1
102
RTVSPropertyOp0
 70
     1
102
RTVSPropertyOp1
 70
     1
102
RTVSPropertyOp2
 70
     1
102
RTVSPropertyOp3
 70
     1
102
RTVSPropertyOp4
 70
     1
102
RTVSPropertyOp5
 70
     1
102
RTVSPropertyOp6
 70
     1
102
RTVSPropertyOp7
 70
     1
102
RTVSPropertyOp8
 70
     1
102
RTVSPropertyOp9
 70
     1
102
RTVSPropertyOp10
 70
     1
102
RTVSPropertyOp11
 70
     1
102
RTVSPropertyOp12
 70
     1
102
RTVSPropertyOp13
 70
     1
102
RTVSPropertyOp14
 70
     1
102
RTVSPropertyOp15
 70
     1
102
RTVSPropertyOp16
 70
     1
102
RTVSPropertyOp17
 70
     1
102
RTVSPropertyOp18
 70
     1
102
RTVSPropertyOp19
 70
     1
102
RTVSPropertyOp20
 70
     1
102
RTVSPropertyOp21
 70
     1
102
RTVSPropertyOp22
 70
     1
102
RTVSPropertyOp23
 70
     1
102
RTVSPropertyOp24
 70
     1
102
RTVSPropertyOp25
 70
     1
102
RTVSPropertyOp26
 70
     1
102
RTVSPropertyOp27
 70
     1
102
RTVSPropertyOp28
 70
     1
102
RTVSPropertyOp29
 70
     1
102
RTVSPropertyOp30
 70
     1
102
RTVSPropertyOp31
 70
     1
102
RTVSPropertyOp32
 70
     1
102
RTVSPropertyOp33
 70
     1
102
RTVSPropertyOp34
 70
     1
102
RTVSPropertyOp35
 70
     1
102
RTVSPropertyOp36
 70
     1
102
RTVSPropertyOp37
 70
     1
102
RTVSPropertyOp38
 70
     1
102
RTVSPropertyOp39
 70
     1
102
RTVSPropertyOp40
 70
     1
102
RTVSPropertyOp41
 70
     1
102
RTVSPropertyOp42
 70
     1
102
RTVSPropertyOp43
 70
     1
102
RTVSPropertyOp44
 70
     1
102
RTVSPropertyOp45
 70
     1
102
RTVSPropertyOp46
 70
     1
102
RTVSPropertyOp47
 70
     1
102
RTVSPropertyOp48
 70
     1
102
RTVSPropertyOp49
 70
     1
102
RTVSPropertyOp50
 70
     1
102
RTVSPropertyOp51
 70
     0
102
RTVSPropertyOp52
 70
     0
102
RTVSPropertyOp53
 70
     1
102
RTVSPropertyOp54
 70
     1
102
RTVSPropertyOp55
 70
     1
102
RTVSPropertyOp56
 70
     1
102
RTVSPropertyOp57
 70
     1
102
RTVSPost2010Prop28
280
     0
102
RTVSPost2010PropOp28
 70
     1
102
RTVSPost2010Prop29
280
     1
102
RTVSPost2010PropOp29
 70
     1
102
RTVSPost2010Prop30
280
     1
102
RTVSPost2010PropOp30
 70
     1
102
RTVSPost2010Prop31
280
     0
102
RTVSPost2010PropOp31
 70
     1
102
RTVSPost2010Prop32
280
     0
102
RTVSPost2010PropOp32
 70
     1
102
RTVSPost2010Prop33
280
     0
102
RTVSPost2010PropOp33
 70
     1
102
RTVSPost2010Prop34
280
     0
102
RTVSPost2010PropOp34
 70
     1
102
RTVSPost2010Prop35
280
     0
102
RTVSPost2010PropOp35
 70
     1
102
RTVSPost2010Prop36
280
     0
102
RTVSPost2010PropOp36
 70
     1
102
RTVSPost2010Prop37
 90
       50
102
RTVSPost2010PropOp37
 70
     1
102
RTVSPost2010Prop38
140
0.0
102
RTVSPost2010PropOp38
 70
     1
102
RTVSPost2010Prop39
140
1.0
102
RTVSPost2010PropOp39
 70
     1
102
RTVSPost2010Prop40
 90
        0
102
RTVSPost2010PropOp40
 70
     1
102
RTVSPost2010Prop41ColorIndex
 90
      178
102
RTVSPost2010Prop41ColorRGB
 90
        0
102
RTVSPost2010PropOp41
 70
     1
102
RTVSPost2010Prop42
 90
       50
102
RTVSPost2010PropOp42
 70
     1
102
RTVSPost2010Prop43
 90
        3
102
RTVSPost2010PropOp43
 70
     1
102
RTVSPost2010Prop44ColorIndex
 90
        5
102
RTVSPost2010Prop44ColorRGB
 90
      255
102
RTVSPost2010PropOp44
 70
     1
102
RTVSPost2010Prop45
280
     0
102
RTVSPost2010PropOp45
 70
     1
102
RTVSPost2010Prop46
 90
       50
102
RTVSPost2010PropOp46
 70
     1
102
RTVSPost2010Prop47
 90
       50
102
RTVSPost2010PropOp47
 70
     1
102
RTVSPost2010Prop48
 90
       50
102
RTVSPost2010PropOp48
 70
     1
102
RTVSPost2010Prop49
280
     0
102
RTVSPost2010PropOp49
 70
     1
102
RTVSPost2010Prop50
 90
       50
102
RTVSPost2010PropOp50
 70
     1
102
RTVSPost2010Prop51ColorIndex
 90
      256
102
RTVSPost2010Prop51ColorRGB
 90
-16777216
102
RTVSPost2010PropOp51
 70
     0
102
RTVSPost2010Prop52
140
1.0
102
RTVSPost2010PropOp52
 70
     0
102
RTVSPost2010Prop53
 90
        2
102
RTVSPost2010PropOp53
 70
     1
102
RTVSPost2010Prop54
  1
strokes_ogs.tif
102
RTVSPost2010PropOp54
 70
     1
102
RTVSPost2010Prop55
280
     0
102
RTVSPost2010PropOp55
 70
     1
102
RTVSPost2010Prop56
140
1.0
102
RTVSPost2010PropOp56
 70
     1
102
RTVSPost2010Prop57
140
1.0
102
RTVSPost2010PropOp57
 70
     1
  0
ENDSEC
  0
EOF
