  0
SECTION
  2
HEADER
  9
$ACADVER
  1
AC1014
  9
$HANDSEED
  5
FFFF
  9
$MEASUREMENT
 70
     1
  0
ENDSEC
  0
SECTION
  2
TABLES
  0
TABLE
  2
VPORT
  5
8
330
0
100
AcDbSymbolTable
 70
     4
  0
VPORT
  5
2E
330
8
100
AcDbSymbolTableRecord
100
AcDbViewportTableRecord
  2
*ACTIVE
 70
     0
 10
0.0
 20
0.0
 11
1.0
 21
1.0
 12
210.0
 22
148.5
 13
0.0
 23
0.0
 14
10.0
 24
10.0
 15
10.0
 25
10.0
 16
0.0
 26
0.0
 36
1.0
 17
0.0
 27
0.0
 37
0.0
 40
341.0
 41
1.24
 42
50.0
 43
0.0
 44
0.0
 50
0.0
 51
0.0
 71
     0
 72
   100
 73
     1
 74
     3
 75
     0
 76
     0
 77
     0
 78
     0
  0
ENDTAB
  0
TABLE
  2
LTYPE
  5
5
330
0
100
AcDbSymbolTable
 70
     1
  0
LTYPE
  5
14
330
5
100
AcDbSymbolTableRecord
100
AcDbLinetypeTableRecord
  2
BYBLOCK
 70
     0
  3

 72
    65
 73
     0
 40
0.0
  0
LTYPE
  5
15
330
5
100
AcDbSymbolTableRecord
100
AcDbLinetypeTableRecord
  2
BYLAYER
 70
     0
  3

 72
    65
 73
     0
 40
0.0
  0
LTYPE
  5
16
330
5
100
AcDbSymbolTableRecord
100
AcDbLinetypeTableRecord
  2
CONTINUOUS
 70
     0
  3
Solid line
 72
    65
 73
     0
 40
0.0
  0
ENDTAB
  0
TABLE
  2
LAYER
  5
2
100
AcDbSymbolTable
 70
2
  0
LAYER
  5
50
100
AcDbSymbolTableRecord
100
AcDbLayerTableRecord
  2
0
 70
0
  6
CONTINUOUS
  0
LAYER
  5
51
100
AcDbSymbolTableRecord
100
AcDbLayerTableRecord
  2
Layer_1
 70
0
  6
CONTINUOUS
  0
ENDTAB
  0
TABLE
  2
STYLE
  5
3
330
0
100
AcDbSymbolTable
 70
     1
  0
STYLE
  5
11
330
3
100
AcDbSymbolTableRecord
100
AcDbTextStyleTableRecord
  2
STANDARD
 70
     0
 40
0.0
 41
1.0
 50
0.0
 71
     0
 42
2.5
  3
txt
  4

  0
ENDTAB
  0
TABLE
  2
VIEW
  5
6
330
0
100
AcDbSymbolTable
 70
     0
  0
ENDTAB
  0
TABLE
  2
UCS
  5
7
330
0
100
AcDbSymbolTable
 70
     0
  0
ENDTAB
  0
TABLE
  2
APPID
  5
9
330
0
100
AcDbSymbolTable
 70
     2
  0
APPID
  5
12
330
9
100
AcDbSymbolTableRecord
100
AcDbRegAppTableRecord
  2
ACAD
 70
     0
  0
ENDTAB
  0
TABLE
  2
DIMSTYLE
  5
A
330
0
100
AcDbSymbolTable
 70
     1
  0
DIMSTYLE
105
27
330
A
100
AcDbSymbolTableRecord
100
AcDbDimStyleTableRecord
  2
ISO-25
 70
     0
  3

  4

  5

  6

  7

 40
1.0
 41
2.5
 42
0.625
 43
3.75
 44
1.25
 45
0.0
 46
0.0
 47
0.0
 48
0.0
140
2.5
141
2.5
142
0.0
143
0.03937007874016
144
1.0
145
0.0
146
1.0
147
0.625
 71
     0
 72
     0
 73
     0
 74
     0
 75
     0
 76
     0
 77
     1
 78
     8
170
     0
171
     3
172
     1
173
     0
174
     0
175
     0
176
     0
177
     0
178
     0
270
     2
271
     2
272
     2
273
     2
274
     3
340
11
275
     0
280
     0
281
     0
282
     0
283
     0
284
     8
285
     0
286
     0
287
     3
288
     0
  0
ENDTAB
  0
TABLE
  2
BLOCK_RECORD
  5
1
330
0
100
AcDbSymbolTable
 70
     1
  0
BLOCK_RECORD
  5
1F
330
1
100
AcDbSymbolTableRecord
100
AcDbBlockTableRecord
  2
*MODEL_SPACE
  0
BLOCK_RECORD
  5
1B
330
1
100
AcDbSymbolTableRecord
100
AcDbBlockTableRecord
  2
*PAPER_SPACE
  0
ENDTAB
  0
ENDSEC
  0
SECTION
  2
BLOCKS
  0
BLOCK
  5
20
330
1F
100
AcDbEntity
  8
0
100
AcDbBlockBegin
  2
*MODEL_SPACE
 70
     0
 10
0.0
 20
0.0
 30
0.0
  3
*MODEL_SPACE
  1

  0
ENDBLK
  5
21
330
1F
100
AcDbEntity
  8
0
100
AcDbBlockEnd
  0
BLOCK
  5
1C
330
1B
100
AcDbEntity
 67
     1
  8
0
100
AcDbBlockBegin
  2
*PAPER_SPACE
  1

  0
ENDBLK
  5
1D
330
1B
100
AcDbEntity
 67
     1
  8
0
100
AcDbBlockEnd
  0
ENDSEC
  0
SECTION
  2
ENTITIES
  0
SPLINE
  5
100
100
AcDbEntity
  8
Layer_1
 62
1
100
AcDbSpline
 70
8
 71
3
 72
8
 73
4
 74
0
 40
0
 40
0
 40
0
 40
0
 40
1
 40
1
 40
1
 40
1
 10
12.101774
 20
-15.266134
 30
0.0
 10
12.020853
 20
-15.347055
 30
0.0
 10
11.810665
 20
-15.292082
 30
0.0
 10
11.517449
 20
-15.113307
 30
0.0
  0
SPLINE
  5
101
100
AcDbEntity
  8
Layer_1
 62
1
100
AcDbSpline
 70
8
 71
3
 72
8
 73
4
 74
0
 40
0
 40
0
 40
0
 40
0
 40
1
 40
1
 40
1
 40
1
 10
11.517449
 20
-15.113307
 30
0.0
 10
11.224233
 20
-14.934532
 30
0.0
 10
10.872009
 20
-14.646599
 30
0.0
 10
10.538261
 20
-14.312851
 30
0.0
  0
SPLINE
  5
102
100
AcDbEntity
  8
Layer_1
 62
1
100
AcDbSpline
 70
8
 71
3
 72
8
 73
4
 74
0
 40
0
 40
0
 40
0
 40
0
 40
1
 40
1
 40
1
 40
1
 10
10.538261
 20
-14.312851
 30
0.0
 10
10.204513
 20
-13.979103
 30
0.0
 10
9.916580
 20
-13.626879
 30
0.0
 10
9.737805
 20
-13.333663
 30
0.0
  0
SPLINE
  5
103
100
AcDbEntity
  8
Layer_1
 62
1
100
AcDbSpline
 70
8
 71
3
 72
8
 73
4
 74
0
 40
0
 40
0
 40
0
 40
0
 40
1
 40
1
 40
1
 40
1
 10
9.737805
 20
-13.333663
 30
0.0
 10
9.559030
 20
-13.040447
 30
0.0
 10
9.504057
 20
-12.830259
 30
0.0
 10
9.584978
 20
-12.749338
 30
0.0
  0
SPLINE
  5
104
100
AcDbEntity
  8
Layer_1
 62
1
100
AcDbSpline
 70
8
 71
3
 72
8
 73
4
 74
0
 40
0
 40
0
 40
0
 40
0
 40
1
 40
1
 40
1
 40
1
 10
9.584978
 20
-12.749338
 30
0.0
 10
9.665900
 20
-12.668416
 30
0.0
 10
9.876088
 20
-12.723389
 30
0.0
 10
10.169304
 20
-12.902164
 30
0.0
  0
SPLINE
  5
105
100
AcDbEntity
  8
Layer_1
 62
1
100
AcDbSpline
 70
8
 71
3
 72
8
 73
4
 74
0
 40
0
 40
0
 40
0
 40
0
 40
1
 40
1
 40
1
 40
1
 10
10.169304
 20
-12.902164
 30
0.0
 10
10.462520
 20
-13.080939
 30
0.0
 10
10.814744
 20
-13.368872
 30
0.0
 10
11.148492
 20
-13.702620
 30
0.0
  0
SPLINE
  5
106
100
AcDbEntity
  8
Layer_1
 62
1
100
AcDbSpline
 70
8
 71
3
 72
8
 73
4
 74
0
 40
0
 40
0
 40
0
 40
0
 40
1
 40
1
 40
1
 40
1
 10
11.148492
 20
-13.702620
 30
0.0
 10
11.482240
 20
-14.036368
 30
0.0
 10
11.770173
 20
-14.388592
 30
0.0
 10
11.948948
 20
-14.681808
 30
0.0
  0
SPLINE
  5
107
100
AcDbEntity
  8
Layer_1
 62
1
100
AcDbSpline
 70
8
 71
3
 72
8
 73
4
 74
0
 40
0
 40
0
 40
0
 40
0
 40
1
 40
1
 40
1
 40
1
 10
11.948948
 20
-14.681808
 30
0.0
 10
12.127723
 20
-14.975024
 30
0.0
 10
12.182696
 20
-15.185212
 30
0.0
 10
12.101774
 20
-15.266134
 30
0.0
  0
SPLINE
  5
108
100
AcDbEntity
  8
Layer_1
 62
1
100
AcDbSpline
 70
8
 71
3
 72
8
 73
4
 74
0
 40
0
 40
0
 40
0
 40
0
 40
1
 40
1
 40
1
 40
1
 10
27.107335
 20
-15.266134
 30
0.0
 10
27.188252
 20
-15.347062
 30
0.0
 10
27.398440
 20
-15.292091
 30
0.0
 10
27.691659
 20
-15.113316
 30
0.0
  0
SPLINE
  5
109
100
AcDbEntity
  8
Layer_1
 62
1
100
AcDbSpline
 70
8
 71
3
 72
8
 73
4
 74
0
 40
0
 40
0
 40
0
 40
0
 40
1
 40
1
 40
1
 40
1
 10
27.691659
 20
-15.113316
 30
0.0
 10
27.984877
 20
-14.934540
 30
0.0
 10
28.337106
 20
-14.646604
 30
0.0
 10
28.670858
 20
-14.312851
 30
0.0
  0
SPLINE
  5
10a
100
AcDbEntity
  8
Layer_1
 62
1
100
AcDbSpline
 70
8
 71
3
 72
8
 73
4
 74
0
 40
0
 40
0
 40
0
 40
0
 40
1
 40
1
 40
1
 40
1
 10
28.670858
 20
-14.312851
 30
0.0
 10
29.365849
 20
-13.617861
 30
0.0
 10
29.792650
 20
-12.917854
 30
0.0
 10
29.624146
 20
-12.749338
 30
0.0
  0
SPLINE
  5
10b
100
AcDbEntity
  8
Layer_1
 62
1
100
AcDbSpline
 70
8
 71
3
 72
8
 73
4
 74
0
 40
0
 40
0
 40
0
 40
0
 40
1
 40
1
 40
1
 40
1
 10
29.624146
 20
-12.749338
 30
0.0
 10
29.543228
 20
-12.668410
 30
0.0
 10
29.333040
 20
-12.723380
 30
0.0
 10
29.039822
 20
-12.902156
 30
0.0
  0
SPLINE
  5
10c
100
AcDbEntity
  8
Layer_1
 62
1
100
AcDbSpline
 70
8
 71
3
 72
8
 73
4
 74
0
 40
0
 40
0
 40
0
 40
0
 40
1
 40
1
 40
1
 40
1
 10
29.039822
 20
-12.902156
 30
0.0
 10
28.746604
 20
-13.080931
 30
0.0
 10
28.394375
 20
-13.368867
 30
0.0
 10
28.060623
 20
-13.702620
 30
0.0
  0
SPLINE
  5
10d
100
AcDbEntity
  8
Layer_1
 62
1
100
AcDbSpline
 70
8
 71
3
 72
8
 73
4
 74
0
 40
0
 40
0
 40
0
 40
0
 40
1
 40
1
 40
1
 40
1
 10
28.060623
 20
-13.702620
 30
0.0
 10
27.365632
 20
-14.397610
 30
0.0
 10
26.938831
 20
-15.097617
 30
0.0
 10
27.107335
 20
-15.266134
 30
0.0
  0
SPLINE
  5
10e
100
AcDbEntity
  8
Layer_1
 62
1
100
AcDbSpline
 70
8
 71
3
 72
8
 73
4
 74
0
 40
0
 40
0
 40
0
 40
0
 40
1
 40
1
 40
1
 40
1
 10
27.107335
 20
6.158921
 30
0.0
 10
27.188252
 20
6.239849
 30
0.0
 10
27.398440
 20
6.184878
 30
0.0
 10
27.691659
 20
6.006103
 30
0.0
  0
SPLINE
  5
10f
100
AcDbEntity
  8
Layer_1
 62
1
100
AcDbSpline
 70
8
 71
3
 72
8
 73
4
 74
0
 40
0
 40
0
 40
0
 40
0
 40
1
 40
1
 40
1
 40
1
 10
27.691659
 20
6.006103
 30
0.0
 10
27.984877
 20
5.827327
 30
0.0
 10
28.337106
 20
5.539391
 30
0.0
 10
28.670858
 20
5.205639
 30
0.0
  0
SPLINE
  5
110
100
AcDbEntity
  8
Layer_1
 62
1
100
AcDbSpline
 70
8
 71
3
 72
8
 73
4
 74
0
 40
0
 40
0
 40
0
 40
0
 40
1
 40
1
 40
1
 40
1
 10
28.670858
 20
5.205639
 30
0.0
 10
29.365849
 20
4.510648
 30
0.0
 10
29.792650
 20
3.810641
 30
0.0
 10
29.624146
 20
3.642125
 30
0.0
  0
SPLINE
  5
111
100
AcDbEntity
  8
Layer_1
 62
1
100
AcDbSpline
 70
8
 71
3
 72
8
 73
4
 74
0
 40
0
 40
0
 40
0
 40
0
 40
1
 40
1
 40
1
 40
1
 10
29.624146
 20
3.642125
 30
0.0
 10
29.543228
 20
3.561197
 30
0.0
 10
29.333040
 20
3.616167
 30
0.0
 10
29.039822
 20
3.794943
 30
0.0
  0
SPLINE
  5
112
100
AcDbEntity
  8
Layer_1
 62
1
100
AcDbSpline
 70
8
 71
3
 72
8
 73
4
 74
0
 40
0
 40
0
 40
0
 40
0
 40
1
 40
1
 40
1
 40
1
 10
29.039822
 20
3.794943
 30
0.0
 10
28.746604
 20
3.973719
 30
0.0
 10
28.394375
 20
4.261655
 30
0.0
 10
28.060623
 20
4.595407
 30
0.0
  0
SPLINE
  5
113
100
AcDbEntity
  8
Layer_1
 62
1
100
AcDbSpline
 70
8
 71
3
 72
8
 73
4
 74
0
 40
0
 40
0
 40
0
 40
0
 40
1
 40
1
 40
1
 40
1
 10
28.060623
 20
4.595407
 30
0.0
 10
27.365632
 20
5.290397
 30
0.0
 10
26.938831
 20
5.990405
 30
0.0
 10
27.107335
 20
6.158921
 30
0.0
  0
SPLINE
  5
114
100
AcDbEntity
  8
Layer_1
 62
1
100
AcDbSpline
 70
8
 71
3
 72
8
 73
4
 74
0
 40
0
 40
0
 40
0
 40
0
 40
1
 40
1
 40
1
 40
1
 10
12.101774
 20
6.158921
 30
0.0
 10
12.020853
 20
6.239843
 30
0.0
 10
11.810665
 20
6.184869
 30
0.0
 10
11.517449
 20
6.006094
 30
0.0
  0
SPLINE
  5
115
100
AcDbEntity
  8
Layer_1
 62
1
100
AcDbSpline
 70
8
 71
3
 72
8
 73
4
 74
0
 40
0
 40
0
 40
0
 40
0
 40
1
 40
1
 40
1
 40
1
 10
11.517449
 20
6.006094
 30
0.0
 10
11.224233
 20
5.827319
 30
0.0
 10
10.872009
 20
5.539387
 30
0.0
 10
10.538261
 20
5.205639
 30
0.0
  0
SPLINE
  5
116
100
AcDbEntity
  8
Layer_1
 62
1
100
AcDbSpline
 70
8
 71
3
 72
8
 73
4
 74
0
 40
0
 40
0
 40
0
 40
0
 40
1
 40
1
 40
1
 40
1
 10
10.538261
 20
5.205639
 30
0.0
 10
10.204513
 20
4.871891
 30
0.0
 10
9.916580
 20
4.519666
 30
0.0
 10
9.737805
 20
4.226450
 30
0.0
  0
SPLINE
  5
117
100
AcDbEntity
  8
Layer_1
 62
1
100
AcDbSpline
 70
8
 71
3
 72
8
 73
4
 74
0
 40
0
 40
0
 40
0
 40
0
 40
1
 40
1
 40
1
 40
1
 10
9.737805
 20
4.226450
 30
0.0
 10
9.559030
 20
3.933235
 30
0.0
 10
9.504057
 20
3.723046
 30
0.0
 10
9.584978
 20
3.642125
 30
0.0
  0
SPLINE
  5
118
100
AcDbEntity
  8
Layer_1
 62
1
100
AcDbSpline
 70
8
 71
3
 72
8
 73
4
 74
0
 40
0
 40
0
 40
0
 40
0
 40
1
 40
1
 40
1
 40
1
 10
9.584978
 20
3.642125
 30
0.0
 10
9.665900
 20
3.561203
 30
0.0
 10
9.876088
 20
3.616176
 30
0.0
 10
10.169304
 20
3.794952
 30
0.0
  0
SPLINE
  5
119
100
AcDbEntity
  8
Layer_1
 62
1
100
AcDbSpline
 70
8
 71
3
 72
8
 73
4
 74
0
 40
0
 40
0
 40
0
 40
0
 40
1
 40
1
 40
1
 40
1
 10
10.169304
 20
3.794952
 30
0.0
 10
10.462520
 20
3.973727
 30
0.0
 10
10.814744
 20
4.261659
 30
0.0
 10
11.148492
 20
4.595407
 30
0.0
  0
SPLINE
  5
11a
100
AcDbEntity
  8
Layer_1
 62
1
100
AcDbSpline
 70
8
 71
3
 72
8
 73
4
 74
0
 40
0
 40
0
 40
0
 40
0
 40
1
 40
1
 40
1
 40
1
 10
11.148492
 20
4.595407
 30
0.0
 10
11.482240
 20
4.929155
 30
0.0
 10
11.770173
 20
5.281380
 30
0.0
 10
11.948948
 20
5.574595
 30
0.0
  0
SPLINE
  5
11b
100
AcDbEntity
  8
Layer_1
 62
1
100
AcDbSpline
 70
8
 71
3
 72
8
 73
4
 74
0
 40
0
 40
0
 40
0
 40
0
 40
1
 40
1
 40
1
 40
1
 10
11.948948
 20
5.574595
 30
0.0
 10
12.127723
 20
5.867811
 30
0.0
 10
12.182696
 20
6.077999
 30
0.0
 10
12.101774
 20
6.158921
 30
0.0
  0
SPLINE
  5
11c
100
AcDbEntity
  8
Layer_1
 62
1
100
AcDbSpline
 70
8
 71
3
 72
8
 73
4
 74
0
 40
0
 40
0
 40
0
 40
0
 40
1
 40
1
 40
1
 40
1
 10
30.827158
 20
-9.758752
 30
0.0
 10
30.978971
 20
-9.758753
 30
0.0
 10
31.102039
 20
-9.881821
 30
0.0
 10
31.102039
 20
-10.033633
 30
0.0
  0
SPLINE
  5
11d
100
AcDbEntity
  8
Layer_1
 62
1
100
AcDbSpline
 70
8
 71
3
 72
8
 73
4
 74
0
 40
0
 40
0
 40
0
 40
0
 40
1
 40
1
 40
1
 40
1
 10
31.102039
 20
-10.033633
 30
0.0
 10
31.102039
 20
-10.185446
 30
0.0
 10
30.978971
 20
-10.308514
 30
0.0
 10
30.827158
 20
-10.308514
 30
0.0
  0
SPLINE
  5
11e
100
AcDbEntity
  8
Layer_1
 62
1
100
AcDbSpline
 70
8
 71
3
 72
8
 73
4
 74
0
 40
0
 40
0
 40
0
 40
0
 40
1
 40
1
 40
1
 40
1
 10
30.827158
 20
-10.308514
 30
0.0
 10
30.754255
 20
-10.308515
 30
0.0
 10
30.684337
 20
-10.279554
 30
0.0
 10
30.632787
 20
-10.228004
 30
0.0
  0
SPLINE
  5
11f
100
AcDbEntity
  8
Layer_1
 62
1
100
AcDbSpline
 70
8
 71
3
 72
8
 73
4
 74
0
 40
0
 40
0
 40
0
 40
0
 40
1
 40
1
 40
1
 40
1
 10
30.632787
 20
-10.228004
 30
0.0
 10
30.581236
 20
-10.176454
 30
0.0
 10
30.552275
 20
-10.106537
 30
0.0
 10
30.552275
 20
-10.033633
 30
0.0
  0
SPLINE
  5
120
100
AcDbEntity
  8
Layer_1
 62
1
100
AcDbSpline
 70
8
 71
3
 72
8
 73
4
 74
0
 40
0
 40
0
 40
0
 40
0
 40
1
 40
1
 40
1
 40
1
 10
30.552275
 20
-10.033633
 30
0.0
 10
30.552275
 20
-9.960730
 30
0.0
 10
30.581236
 20
-9.890813
 30
0.0
 10
30.632787
 20
-9.839263
 30
0.0
  0
SPLINE
  5
121
100
AcDbEntity
  8
Layer_1
 62
1
100
AcDbSpline
 70
8
 71
3
 72
8
 73
4
 74
0
 40
0
 40
0
 40
0
 40
0
 40
1
 40
1
 40
1
 40
1
 10
30.632787
 20
-9.839263
 30
0.0
 10
30.684337
 20
-9.787712
 30
0.0
 10
30.754255
 20
-9.758752
 30
0.0
 10
30.827158
 20
-9.758752
 30
0.0
  0
SPLINE
  5
122
100
AcDbEntity
  8
Layer_1
 62
1
100
AcDbSpline
 70
8
 71
3
 72
8
 73
4
 74
0
 40
0
 40
0
 40
0
 40
0
 40
1
 40
1
 40
1
 40
1
 10
28.649243
 20
-11.936636
 30
0.0
 10
28.801055
 20
-11.936636
 30
0.0
 10
28.924124
 20
-12.059704
 30
0.0
 10
28.924124
 20
-12.211517
 30
0.0
  0
SPLINE
  5
123
100
AcDbEntity
  8
Layer_1
 62
1
100
AcDbSpline
 70
8
 71
3
 72
8
 73
4
 74
0
 40
0
 40
0
 40
0
 40
0
 40
1
 40
1
 40
1
 40
1
 10
28.924124
 20
-12.211517
 30
0.0
 10
28.924124
 20
-12.363329
 30
0.0
 10
28.801055
 20
-12.486398
 30
0.0
 10
28.649243
 20
-12.486398
 30
0.0
  0
SPLINE
  5
124
100
AcDbEntity
  8
Layer_1
 62
1
100
AcDbSpline
 70
8
 71
3
 72
8
 73
4
 74
0
 40
0
 40
0
 40
0
 40
0
 40
1
 40
1
 40
1
 40
1
 10
28.649243
 20
-12.486398
 30
0.0
 10
28.497430
 20
-12.486398
 30
0.0
 10
28.374362
 20
-12.363329
 30
0.0
 10
28.374362
 20
-12.211517
 30
0.0
  0
SPLINE
  5
125
100
AcDbEntity
  8
Layer_1
 62
1
100
AcDbSpline
 70
8
 71
3
 72
8
 73
4
 74
0
 40
0
 40
0
 40
0
 40
0
 40
1
 40
1
 40
1
 40
1
 10
28.374362
 20
-12.211517
 30
0.0
 10
28.374362
 20
-12.059704
 30
0.0
 10
28.497430
 20
-11.936636
 30
0.0
 10
28.649243
 20
-11.936636
 30
0.0
  0
SPLINE
  5
126
100
AcDbEntity
  8
Layer_1
 62
1
100
AcDbSpline
 70
8
 71
3
 72
8
 73
4
 74
0
 40
0
 40
0
 40
0
 40
0
 40
1
 40
1
 40
1
 40
1
 10
18.752497
 20
8.878917
 30
0.0
 10
18.752497
 20
8.806986
 30
0.0
 10
18.695343
 20
8.738002
 30
0.0
 10
18.593609
 20
8.687139
 30
0.0
  0
SPLINE
  5
127
100
AcDbEntity
  8
Layer_1
 62
1
100
AcDbSpline
 70
8
 71
3
 72
8
 73
4
 74
0
 40
0
 40
0
 40
0
 40
0
 40
1
 40
1
 40
1
 40
1
 10
18.593609
 20
8.687139
 30
0.0
 10
18.491874
 20
8.636277
 30
0.0
 10
18.353892
 20
8.607703
 30
0.0
 10
18.210018
 20
8.607703
 30
0.0
  0
SPLINE
  5
128
100
AcDbEntity
  8
Layer_1
 62
1
100
AcDbSpline
 70
8
 71
3
 72
8
 73
4
 74
0
 40
0
 40
0
 40
0
 40
0
 40
1
 40
1
 40
1
 40
1
 10
18.210018
 20
8.607703
 30
0.0
 10
18.066143
 20
8.607703
 30
0.0
 10
17.928162
 20
8.636277
 30
0.0
 10
17.826427
 20
8.687139
 30
0.0
  0
SPLINE
  5
129
100
AcDbEntity
  8
Layer_1
 62
1
100
AcDbSpline
 70
8
 71
3
 72
8
 73
4
 74
0
 40
0
 40
0
 40
0
 40
0
 40
1
 40
1
 40
1
 40
1
 10
17.826427
 20
8.687139
 30
0.0
 10
17.724693
 20
8.738002
 30
0.0
 10
17.667539
 20
8.806986
 30
0.0
 10
17.667539
 20
8.878917
 30
0.0
  0
SPLINE
  5
12a
100
AcDbEntity
  8
Layer_1
 62
1
100
AcDbSpline
 70
8
 71
3
 72
8
 73
4
 74
0
 40
0
 40
0
 40
0
 40
0
 40
1
 40
1
 40
1
 40
1
 10
17.667539
 20
8.878917
 30
0.0
 10
17.667539
 20
8.950847
 30
0.0
 10
17.724693
 20
9.019832
 30
0.0
 10
17.826427
 20
9.070694
 30
0.0
  0
SPLINE
  5
12b
100
AcDbEntity
  8
Layer_1
 62
1
100
AcDbSpline
 70
8
 71
3
 72
8
 73
4
 74
0
 40
0
 40
0
 40
0
 40
0
 40
1
 40
1
 40
1
 40
1
 10
17.826427
 20
9.070694
 30
0.0
 10
17.928162
 20
9.121557
 30
0.0
 10
18.066143
 20
9.150131
 30
0.0
 10
18.210018
 20
9.150131
 30
0.0
  0
SPLINE
  5
12c
100
AcDbEntity
  8
Layer_1
 62
1
100
AcDbSpline
 70
8
 71
3
 72
8
 73
4
 74
0
 40
0
 40
0
 40
0
 40
0
 40
1
 40
1
 40
1
 40
1
 10
18.210018
 20
9.150131
 30
0.0
 10
18.353892
 20
9.150131
 30
0.0
 10
18.491874
 20
9.121557
 30
0.0
 10
18.593609
 20
9.070694
 30
0.0
  0
SPLINE
  5
12d
100
AcDbEntity
  8
Layer_1
 62
1
100
AcDbSpline
 70
8
 71
3
 72
8
 73
4
 74
0
 40
0
 40
0
 40
0
 40
0
 40
1
 40
1
 40
1
 40
1
 10
18.593609
 20
9.070694
 30
0.0
 10
18.695343
 20
9.019832
 30
0.0
 10
18.752497
 20
8.950847
 30
0.0
 10
18.752497
 20
8.878917
 30
0.0
  0
SPLINE
  5
12e
100
AcDbEntity
  8
Layer_1
 62
1
100
AcDbSpline
 70
8
 71
3
 72
8
 73
4
 74
0
 40
0
 40
0
 40
0
 40
0
 40
1
 40
1
 40
1
 40
1
 10
21.338817
 20
8.908627
 30
0.0
 10
21.338818
 20
8.836696
 30
0.0
 10
21.281664
 20
8.767712
 30
0.0
 10
21.179929
 20
8.716849
 30
0.0
  0
SPLINE
  5
12f
100
AcDbEntity
  8
Layer_1
 62
1
100
AcDbSpline
 70
8
 71
3
 72
8
 73
4
 74
0
 40
0
 40
0
 40
0
 40
0
 40
1
 40
1
 40
1
 40
1
 10
21.179929
 20
8.716849
 30
0.0
 10
21.078195
 20
8.665987
 30
0.0
 10
20.940213
 20
8.637413
 30
0.0
 10
20.796338
 20
8.637413
 30
0.0
  0
SPLINE
  5
130
100
AcDbEntity
  8
Layer_1
 62
1
100
AcDbSpline
 70
8
 71
3
 72
8
 73
4
 74
0
 40
0
 40
0
 40
0
 40
0
 40
1
 40
1
 40
1
 40
1
 10
20.796338
 20
8.637413
 30
0.0
 10
20.652464
 20
8.637412
 30
0.0
 10
20.514482
 20
8.665987
 30
0.0
 10
20.412747
 20
8.716849
 30
0.0
  0
SPLINE
  5
131
100
AcDbEntity
  8
Layer_1
 62
1
100
AcDbSpline
 70
8
 71
3
 72
8
 73
4
 74
0
 40
0
 40
0
 40
0
 40
0
 40
1
 40
1
 40
1
 40
1
 10
20.412747
 20
8.716849
 30
0.0
 10
20.311012
 20
8.767712
 30
0.0
 10
20.253858
 20
8.836696
 30
0.0
 10
20.253858
 20
8.908627
 30
0.0
  0
SPLINE
  5
132
100
AcDbEntity
  8
Layer_1
 62
1
100
AcDbSpline
 70
8
 71
3
 72
8
 73
4
 74
0
 40
0
 40
0
 40
0
 40
0
 40
1
 40
1
 40
1
 40
1
 10
20.253858
 20
8.908627
 30
0.0
 10
20.253858
 20
8.980557
 30
0.0
 10
20.311012
 20
9.049542
 30
0.0
 10
20.412747
 20
9.100405
 30
0.0
  0
SPLINE
  5
133
100
AcDbEntity
  8
Layer_1
 62
1
100
AcDbSpline
 70
8
 71
3
 72
8
 73
4
 74
0
 40
0
 40
0
 40
0
 40
0
 40
1
 40
1
 40
1
 40
1
 10
20.412747
 20
9.100405
 30
0.0
 10
20.514482
 20
9.151267
 30
0.0
 10
20.652464
 20
9.179841
 30
0.0
 10
20.796338
 20
9.179841
 30
0.0
  0
SPLINE
  5
134
100
AcDbEntity
  8
Layer_1
 62
1
100
AcDbSpline
 70
8
 71
3
 72
8
 73
4
 74
0
 40
0
 40
0
 40
0
 40
0
 40
1
 40
1
 40
1
 40
1
 10
20.796338
 20
9.179841
 30
0.0
 10
20.940213
 20
9.179841
 30
0.0
 10
21.078195
 20
9.151267
 30
0.0
 10
21.179929
 20
9.100404
 30
0.0
  0
SPLINE
  5
135
100
AcDbEntity
  8
Layer_1
 62
1
100
AcDbSpline
 70
8
 71
3
 72
8
 73
4
 74
0
 40
0
 40
0
 40
0
 40
0
 40
1
 40
1
 40
1
 40
1
 10
21.179929
 20
9.100404
 30
0.0
 10
21.281664
 20
9.049542
 30
0.0
 10
21.338818
 20
8.980557
 30
0.0
 10
21.338817
 20
8.908627
 30
0.0
  0
SPLINE
  5
136
100
AcDbEntity
  8
Layer_1
 62
1
100
AcDbSpline
 70
8
 71
3
 72
8
 73
4
 74
0
 40
0
 40
0
 40
0
 40
0
 40
1
 40
1
 40
1
 40
1
 10
18.752497
 20
5.909033
 30
0.0
 10
18.752497
 20
5.837102
 30
0.0
 10
18.695343
 20
5.768118
 30
0.0
 10
18.593609
 20
5.717255
 30
0.0
  0
SPLINE
  5
137
100
AcDbEntity
  8
Layer_1
 62
1
100
AcDbSpline
 70
8
 71
3
 72
8
 73
4
 74
0
 40
0
 40
0
 40
0
 40
0
 40
1
 40
1
 40
1
 40
1
 10
18.593609
 20
5.717255
 30
0.0
 10
18.491874
 20
5.666393
 30
0.0
 10
18.353892
 20
5.637819
 30
0.0
 10
18.210018
 20
5.637819
 30
0.0
  0
SPLINE
  5
138
100
AcDbEntity
  8
Layer_1
 62
1
100
AcDbSpline
 70
8
 71
3
 72
8
 73
4
 74
0
 40
0
 40
0
 40
0
 40
0
 40
1
 40
1
 40
1
 40
1
 10
18.210018
 20
5.637819
 30
0.0
 10
18.066143
 20
5.637819
 30
0.0
 10
17.928162
 20
5.666393
 30
0.0
 10
17.826427
 20
5.717256
 30
0.0
  0
SPLINE
  5
139
100
AcDbEntity
  8
Layer_1
 62
1
100
AcDbSpline
 70
8
 71
3
 72
8
 73
4
 74
0
 40
0
 40
0
 40
0
 40
0
 40
1
 40
1
 40
1
 40
1
 10
17.826427
 20
5.717256
 30
0.0
 10
17.724693
 20
5.768118
 30
0.0
 10
17.667539
 20
5.837102
 30
0.0
 10
17.667539
 20
5.909033
 30
0.0
  0
SPLINE
  5
13a
100
AcDbEntity
  8
Layer_1
 62
1
100
AcDbSpline
 70
8
 71
3
 72
8
 73
4
 74
0
 40
0
 40
0
 40
0
 40
0
 40
1
 40
1
 40
1
 40
1
 10
17.667539
 20
5.909033
 30
0.0
 10
17.667539
 20
5.980963
 30
0.0
 10
17.724693
 20
6.049948
 30
0.0
 10
17.826427
 20
6.100810
 30
0.0
  0
SPLINE
  5
13b
100
AcDbEntity
  8
Layer_1
 62
1
100
AcDbSpline
 70
8
 71
3
 72
8
 73
4
 74
0
 40
0
 40
0
 40
0
 40
0
 40
1
 40
1
 40
1
 40
1
 10
17.826427
 20
6.100810
 30
0.0
 10
17.928162
 20
6.151673
 30
0.0
 10
18.066143
 20
6.180247
 30
0.0
 10
18.210018
 20
6.180247
 30
0.0
  0
SPLINE
  5
13c
100
AcDbEntity
  8
Layer_1
 62
1
100
AcDbSpline
 70
8
 71
3
 72
8
 73
4
 74
0
 40
0
 40
0
 40
0
 40
0
 40
1
 40
1
 40
1
 40
1
 10
18.210018
 20
6.180247
 30
0.0
 10
18.353892
 20
6.180247
 30
0.0
 10
18.491874
 20
6.151673
 30
0.0
 10
18.593609
 20
6.100810
 30
0.0
  0
SPLINE
  5
13d
100
AcDbEntity
  8
Layer_1
 62
1
100
AcDbSpline
 70
8
 71
3
 72
8
 73
4
 74
0
 40
0
 40
0
 40
0
 40
0
 40
1
 40
1
 40
1
 40
1
 10
18.593609
 20
6.100810
 30
0.0
 10
18.695343
 20
6.049948
 30
0.0
 10
18.752497
 20
5.980963
 30
0.0
 10
18.752497
 20
5.909033
 30
0.0
  0
SPLINE
  5
13e
100
AcDbEntity
  8
Layer_1
 62
1
100
AcDbSpline
 70
8
 71
3
 72
8
 73
4
 74
0
 40
0
 40
0
 40
0
 40
0
 40
1
 40
1
 40
1
 40
1
 10
21.338817
 20
5.938743
 30
0.0
 10
21.338818
 20
5.866813
 30
0.0
 10
21.281664
 20
5.797828
 30
0.0
 10
21.179929
 20
5.746966
 30
0.0
  0
SPLINE
  5
13f
100
AcDbEntity
  8
Layer_1
 62
1
100
AcDbSpline
 70
8
 71
3
 72
8
 73
4
 74
0
 40
0
 40
0
 40
0
 40
0
 40
1
 40
1
 40
1
 40
1
 10
21.179929
 20
5.746966
 30
0.0
 10
21.078195
 20
5.696103
 30
0.0
 10
20.940213
 20
5.667529
 30
0.0
 10
20.796338
 20
5.667529
 30
0.0
  0
SPLINE
  5
140
100
AcDbEntity
  8
Layer_1
 62
1
100
AcDbSpline
 70
8
 71
3
 72
8
 73
4
 74
0
 40
0
 40
0
 40
0
 40
0
 40
1
 40
1
 40
1
 40
1
 10
20.796338
 20
5.667529
 30
0.0
 10
20.652464
 20
5.667529
 30
0.0
 10
20.514482
 20
5.696103
 30
0.0
 10
20.412747
 20
5.746965
 30
0.0
  0
SPLINE
  5
141
100
AcDbEntity
  8
Layer_1
 62
1
100
AcDbSpline
 70
8
 71
3
 72
8
 73
4
 74
0
 40
0
 40
0
 40
0
 40
0
 40
1
 40
1
 40
1
 40
1
 10
20.412747
 20
5.746965
 30
0.0
 10
20.311012
 20
5.797828
 30
0.0
 10
20.253858
 20
5.866812
 30
0.0
 10
20.253858
 20
5.938743
 30
0.0
  0
SPLINE
  5
142
100
AcDbEntity
  8
Layer_1
 62
1
100
AcDbSpline
 70
8
 71
3
 72
8
 73
4
 74
0
 40
0
 40
0
 40
0
 40
0
 40
1
 40
1
 40
1
 40
1
 10
20.253858
 20
5.938743
 30
0.0
 10
20.253858
 20
6.010674
 30
0.0
 10
20.311012
 20
6.079658
 30
0.0
 10
20.412747
 20
6.130521
 30
0.0
  0
SPLINE
  5
143
100
AcDbEntity
  8
Layer_1
 62
1
100
AcDbSpline
 70
8
 71
3
 72
8
 73
4
 74
0
 40
0
 40
0
 40
0
 40
0
 40
1
 40
1
 40
1
 40
1
 10
20.412747
 20
6.130521
 30
0.0
 10
20.514482
 20
6.181383
 30
0.0
 10
20.652464
 20
6.209957
 30
0.0
 10
20.796338
 20
6.209957
 30
0.0
  0
SPLINE
  5
144
100
AcDbEntity
  8
Layer_1
 62
1
100
AcDbSpline
 70
8
 71
3
 72
8
 73
4
 74
0
 40
0
 40
0
 40
0
 40
0
 40
1
 40
1
 40
1
 40
1
 10
20.796338
 20
6.209957
 30
0.0
 10
20.940213
 20
6.209957
 30
0.0
 10
21.078195
 20
6.181383
 30
0.0
 10
21.179929
 20
6.130520
 30
0.0
  0
SPLINE
  5
145
100
AcDbEntity
  8
Layer_1
 62
1
100
AcDbSpline
 70
8
 71
3
 72
8
 73
4
 74
0
 40
0
 40
0
 40
0
 40
0
 40
1
 40
1
 40
1
 40
1
 10
21.179929
 20
6.130520
 30
0.0
 10
21.281664
 20
6.079658
 30
0.0
 10
21.338818
 20
6.010673
 30
0.0
 10
21.338817
 20
5.938743
 30
0.0
  0
SPLINE
  5
146
100
AcDbEntity
  8
Layer_1
 62
1
100
AcDbSpline
 70
8
 71
3
 72
8
 73
4
 74
0
 40
0
 40
0
 40
0
 40
0
 40
1
 40
1
 40
1
 40
1
 10
33.488695
 20
1.274308
 30
0.0
 10
33.935478
 20
0.212687
 30
0.0
 10
33.988543
 20
-9.176938
 30
0.0
 10
33.553786
 20
-10.243538
 30
0.0
  0
SPLINE
  5
147
100
AcDbEntity
  8
Layer_1
 62
1
100
AcDbSpline
 70
8
 71
3
 72
8
 73
4
 74
0
 40
0
 40
0
 40
0
 40
0
 40
1
 40
1
 40
1
 40
1
 10
33.553786
 20
-10.243538
 30
0.0
 10
33.119031
 20
-11.310140
 30
0.0
 10
26.517083
 20
-17.987128
 30
0.0
 10
25.455464
 20
-18.433911
 30
0.0
  0
SPLINE
  5
148
100
AcDbEntity
  8
Layer_1
 62
1
100
AcDbSpline
 70
8
 71
3
 72
8
 73
4
 74
0
 40
0
 40
0
 40
0
 40
0
 40
1
 40
1
 40
1
 40
1
 10
25.455464
 20
-18.433911
 30
0.0
 10
24.393844
 20
-18.880693
 30
0.0
 10
15.004209
 20
-18.933758
 30
0.0
 10
13.937607
 20
-18.499001
 30
0.0
  0
SPLINE
  5
149
100
AcDbEntity
  8
Layer_1
 62
1
100
AcDbSpline
 70
8
 71
3
 72
8
 73
4
 74
0
 40
0
 40
0
 40
0
 40
0
 40
1
 40
1
 40
1
 40
1
 10
13.937607
 20
-18.499001
 30
0.0
 10
12.871005
 20
-18.064246
 30
0.0
 10
6.194017
 20
-11.462299
 30
0.0
 10
5.747234
 20
-10.400679
 30
0.0
  0
SPLINE
  5
14a
100
AcDbEntity
  8
Layer_1
 62
1
100
AcDbSpline
 70
8
 71
3
 72
8
 73
4
 74
0
 40
0
 40
0
 40
0
 40
0
 40
1
 40
1
 40
1
 40
1
 10
5.747234
 20
-10.400679
 30
0.0
 10
5.300452
 20
-9.339061
 30
0.0
 10
5.247389
 20
0.050565
 30
0.0
 10
5.682145
 20
1.117167
 30
0.0
  0
SPLINE
  5
14b
100
AcDbEntity
  8
Layer_1
 62
1
100
AcDbSpline
 70
8
 71
3
 72
8
 73
4
 74
0
 40
0
 40
0
 40
0
 40
0
 40
1
 40
1
 40
1
 40
1
 10
5.682145
 20
1.117167
 30
0.0
 10
6.116901
 20
2.183769
 30
0.0
 10
12.718849
 20
8.860757
 30
0.0
 10
13.780468
 20
9.307539
 30
0.0
  0
SPLINE
  5
14c
100
AcDbEntity
  8
Layer_1
 62
1
100
AcDbSpline
 70
8
 71
3
 72
8
 73
4
 74
0
 40
0
 40
0
 40
0
 40
0
 40
1
 40
1
 40
1
 40
1
 10
13.780468
 20
9.307539
 30
0.0
 10
14.842087
 20
9.754322
 30
0.0
 10
24.231723
 20
9.807386
 30
0.0
 10
25.298325
 20
9.372630
 30
0.0
  0
SPLINE
  5
14d
100
AcDbEntity
  8
Layer_1
 62
1
100
AcDbSpline
 70
8
 71
3
 72
8
 73
4
 74
0
 40
0
 40
0
 40
0
 40
0
 40
1
 40
1
 40
1
 40
1
 10
25.298325
 20
9.372630
 30
0.0
 10
26.364924
 20
8.937874
 30
0.0
 10
33.041913
 20
2.335927
 30
0.0
 10
33.488695
 20
1.274308
 30
0.0
  0
SPLINE
  5
14e
100
AcDbEntity
  8
Layer_1
 62
1
100
AcDbSpline
 70
8
 71
3
 72
8
 73
4
 74
0
 40
0
 40
0
 40
0
 40
0
 40
1
 40
1
 40
1
 40
1
 10
18.316511
 20
-17.634905
 30
0.0
 10
18.316511
 20
-17.706836
 30
0.0
 10
18.259357
 20
-17.775820
 30
0.0
 10
18.157622
 20
-17.826683
 30
0.0
  0
SPLINE
  5
14f
100
AcDbEntity
  8
Layer_1
 62
1
100
AcDbSpline
 70
8
 71
3
 72
8
 73
4
 74
0
 40
0
 40
0
 40
0
 40
0
 40
1
 40
1
 40
1
 40
1
 10
18.157622
 20
-17.826683
 30
0.0
 10
18.055888
 20
-17.877545
 30
0.0
 10
17.917906
 20
-17.906119
 30
0.0
 10
17.774032
 20
-17.906119
 30
0.0
  0
SPLINE
  5
150
100
AcDbEntity
  8
Layer_1
 62
1
100
AcDbSpline
 70
8
 71
3
 72
8
 73
4
 74
0
 40
0
 40
0
 40
0
 40
0
 40
1
 40
1
 40
1
 40
1
 10
17.774032
 20
-17.906119
 30
0.0
 10
17.474430
 20
-17.906119
 30
0.0
 10
17.231555
 20
-17.784692
 30
0.0
 10
17.231555
 20
-17.634905
 30
0.0
  0
SPLINE
  5
151
100
AcDbEntity
  8
Layer_1
 62
1
100
AcDbSpline
 70
8
 71
3
 72
8
 73
4
 74
0
 40
0
 40
0
 40
0
 40
0
 40
1
 40
1
 40
1
 40
1
 10
17.231555
 20
-17.634905
 30
0.0
 10
17.231555
 20
-17.485118
 30
0.0
 10
17.474430
 20
-17.363691
 30
0.0
 10
17.774032
 20
-17.363691
 30
0.0
  0
SPLINE
  5
152
100
AcDbEntity
  8
Layer_1
 62
1
100
AcDbSpline
 70
8
 71
3
 72
8
 73
4
 74
0
 40
0
 40
0
 40
0
 40
0
 40
1
 40
1
 40
1
 40
1
 10
17.774032
 20
-17.363691
 30
0.0
 10
17.917906
 20
-17.363691
 30
0.0
 10
18.055888
 20
-17.392265
 30
0.0
 10
18.157622
 20
-17.443128
 30
0.0
  0
SPLINE
  5
153
100
AcDbEntity
  8
Layer_1
 62
1
100
AcDbSpline
 70
8
 71
3
 72
8
 73
4
 74
0
 40
0
 40
0
 40
0
 40
0
 40
1
 40
1
 40
1
 40
1
 10
18.157622
 20
-17.443128
 30
0.0
 10
18.259357
 20
-17.493990
 30
0.0
 10
18.316511
 20
-17.562975
 30
0.0
 10
18.316511
 20
-17.634905
 30
0.0
  0
SPLINE
  5
154
100
AcDbEntity
  8
Layer_1
 62
1
100
AcDbSpline
 70
8
 71
3
 72
8
 73
4
 74
0
 40
0
 40
0
 40
0
 40
0
 40
1
 40
1
 40
1
 40
1
 10
22.090767
 20
-17.605195
 30
0.0
 10
22.090767
 20
-17.677126
 30
0.0
 10
22.033613
 20
-17.746110
 30
0.0
 10
21.931879
 20
-17.796973
 30
0.0
  0
SPLINE
  5
155
100
AcDbEntity
  8
Layer_1
 62
1
100
AcDbSpline
 70
8
 71
3
 72
8
 73
4
 74
0
 40
0
 40
0
 40
0
 40
0
 40
1
 40
1
 40
1
 40
1
 10
21.931879
 20
-17.796973
 30
0.0
 10
21.830144
 20
-17.847835
 30
0.0
 10
21.692162
 20
-17.876409
 30
0.0
 10
21.548288
 20
-17.876409
 30
0.0
  0
SPLINE
  5
156
100
AcDbEntity
  8
Layer_1
 62
1
100
AcDbSpline
 70
8
 71
3
 72
8
 73
4
 74
0
 40
0
 40
0
 40
0
 40
0
 40
1
 40
1
 40
1
 40
1
 10
21.548288
 20
-17.876409
 30
0.0
 10
21.404414
 20
-17.876409
 30
0.0
 10
21.266432
 20
-17.847835
 30
0.0
 10
21.164697
 20
-17.796973
 30
0.0
  0
SPLINE
  5
157
100
AcDbEntity
  8
Layer_1
 62
1
100
AcDbSpline
 70
8
 71
3
 72
8
 73
4
 74
0
 40
0
 40
0
 40
0
 40
0
 40
1
 40
1
 40
1
 40
1
 10
21.164697
 20
-17.796973
 30
0.0
 10
21.062963
 20
-17.746110
 30
0.0
 10
21.005809
 20
-17.677126
 30
0.0
 10
21.005809
 20
-17.605195
 30
0.0
  0
SPLINE
  5
158
100
AcDbEntity
  8
Layer_1
 62
1
100
AcDbSpline
 70
8
 71
3
 72
8
 73
4
 74
0
 40
0
 40
0
 40
0
 40
0
 40
1
 40
1
 40
1
 40
1
 10
21.005809
 20
-17.605195
 30
0.0
 10
21.005809
 20
-17.533265
 30
0.0
 10
21.062963
 20
-17.464280
 30
0.0
 10
21.164697
 20
-17.413418
 30
0.0
  0
SPLINE
  5
159
100
AcDbEntity
  8
Layer_1
 62
1
100
AcDbSpline
 70
8
 71
3
 72
8
 73
4
 74
0
 40
0
 40
0
 40
0
 40
0
 40
1
 40
1
 40
1
 40
1
 10
21.164697
 20
-17.413418
 30
0.0
 10
21.266432
 20
-17.362555
 30
0.0
 10
21.404414
 20
-17.333981
 30
0.0
 10
21.548288
 20
-17.333981
 30
0.0
  0
SPLINE
  5
15a
100
AcDbEntity
  8
Layer_1
 62
1
100
AcDbSpline
 70
8
 71
3
 72
8
 73
4
 74
0
 40
0
 40
0
 40
0
 40
0
 40
1
 40
1
 40
1
 40
1
 10
21.548288
 20
-17.333981
 30
0.0
 10
21.692162
 20
-17.333981
 30
0.0
 10
21.830144
 20
-17.362555
 30
0.0
 10
21.931879
 20
-17.413418
 30
0.0
  0
SPLINE
  5
15b
100
AcDbEntity
  8
Layer_1
 62
1
100
AcDbSpline
 70
8
 71
3
 72
8
 73
4
 74
0
 40
0
 40
0
 40
0
 40
0
 40
1
 40
1
 40
1
 40
1
 10
21.931879
 20
-17.413418
 30
0.0
 10
22.033613
 20
-17.464280
 30
0.0
 10
22.090767
 20
-17.533265
 30
0.0
 10
22.090767
 20
-17.605195
 30
0.0
  0
SPLINE
  5
15c
100
AcDbEntity
  8
Layer_1
 62
1
100
AcDbSpline
 70
8
 71
3
 72
8
 73
4
 74
0
 40
0
 40
0
 40
0
 40
0
 40
1
 40
1
 40
1
 40
1
 10
18.316503
 20
-10.732496
 30
0.0
 10
18.316503
 20
-10.804426
 30
0.0
 10
18.259350
 20
-10.873410
 30
0.0
 10
18.157615
 20
-10.924273
 30
0.0
  0
SPLINE
  5
15d
100
AcDbEntity
  8
Layer_1
 62
1
100
AcDbSpline
 70
8
 71
3
 72
8
 73
4
 74
0
 40
0
 40
0
 40
0
 40
0
 40
1
 40
1
 40
1
 40
1
 10
18.157615
 20
-10.924273
 30
0.0
 10
18.055880
 20
-10.975136
 30
0.0
 10
17.917899
 20
-11.003710
 30
0.0
 10
17.774024
 20
-11.003710
 30
0.0
  0
SPLINE
  5
15e
100
AcDbEntity
  8
Layer_1
 62
1
100
AcDbSpline
 70
8
 71
3
 72
8
 73
4
 74
0
 40
0
 40
0
 40
0
 40
0
 40
1
 40
1
 40
1
 40
1
 10
17.774024
 20
-11.003710
 30
0.0
 10
17.630150
 20
-11.003710
 30
0.0
 10
17.492168
 20
-10.975136
 30
0.0
 10
17.390434
 20
-10.924273
 30
0.0
  0
SPLINE
  5
15f
100
AcDbEntity
  8
Layer_1
 62
1
100
AcDbSpline
 70
8
 71
3
 72
8
 73
4
 74
0
 40
0
 40
0
 40
0
 40
0
 40
1
 40
1
 40
1
 40
1
 10
17.390434
 20
-10.924273
 30
0.0
 10
17.288699
 20
-10.873410
 30
0.0
 10
17.231545
 20
-10.804426
 30
0.0
 10
17.231545
 20
-10.732496
 30
0.0
  0
SPLINE
  5
160
100
AcDbEntity
  8
Layer_1
 62
1
100
AcDbSpline
 70
8
 71
3
 72
8
 73
4
 74
0
 40
0
 40
0
 40
0
 40
0
 40
1
 40
1
 40
1
 40
1
 10
17.231545
 20
-10.732496
 30
0.0
 10
17.231545
 20
-10.660565
 30
0.0
 10
17.288699
 20
-10.591581
 30
0.0
 10
17.390434
 20
-10.540718
 30
0.0
  0
SPLINE
  5
161
100
AcDbEntity
  8
Layer_1
 62
1
100
AcDbSpline
 70
8
 71
3
 72
8
 73
4
 74
0
 40
0
 40
0
 40
0
 40
0
 40
1
 40
1
 40
1
 40
1
 10
17.390434
 20
-10.540718
 30
0.0
 10
17.492168
 20
-10.489856
 30
0.0
 10
17.630150
 20
-10.461281
 30
0.0
 10
17.774024
 20
-10.461281
 30
0.0
  0
SPLINE
  5
162
100
AcDbEntity
  8
Layer_1
 62
1
100
AcDbSpline
 70
8
 71
3
 72
8
 73
4
 74
0
 40
0
 40
0
 40
0
 40
0
 40
1
 40
1
 40
1
 40
1
 10
17.774024
 20
-10.461281
 30
0.0
 10
17.917899
 20
-10.461281
 30
0.0
 10
18.055880
 20
-10.489856
 30
0.0
 10
18.157615
 20
-10.540718
 30
0.0
  0
SPLINE
  5
163
100
AcDbEntity
  8
Layer_1
 62
1
100
AcDbSpline
 70
8
 71
3
 72
8
 73
4
 74
0
 40
0
 40
0
 40
0
 40
0
 40
1
 40
1
 40
1
 40
1
 10
18.157615
 20
-10.540718
 30
0.0
 10
18.259350
 20
-10.591581
 30
0.0
 10
18.316503
 20
-10.660565
 30
0.0
 10
18.316503
 20
-10.732496
 30
0.0
  0
SPLINE
  5
164
100
AcDbEntity
  8
Layer_1
 62
1
100
AcDbSpline
 70
8
 71
3
 72
8
 73
4
 74
0
 40
0
 40
0
 40
0
 40
0
 40
1
 40
1
 40
1
 40
1
 10
22.090760
 20
-10.702785
 30
0.0
 10
22.090760
 20
-10.774716
 30
0.0
 10
22.033606
 20
-10.843700
 30
0.0
 10
21.931871
 20
-10.894563
 30
0.0
  0
SPLINE
  5
165
100
AcDbEntity
  8
Layer_1
 62
1
100
AcDbSpline
 70
8
 71
3
 72
8
 73
4
 74
0
 40
0
 40
0
 40
0
 40
0
 40
1
 40
1
 40
1
 40
1
 10
21.931871
 20
-10.894563
 30
0.0
 10
21.830137
 20
-10.945425
 30
0.0
 10
21.692155
 20
-10.974000
 30
0.0
 10
21.548281
 20
-10.974000
 30
0.0
  0
SPLINE
  5
166
100
AcDbEntity
  8
Layer_1
 62
1
100
AcDbSpline
 70
8
 71
3
 72
8
 73
4
 74
0
 40
0
 40
0
 40
0
 40
0
 40
1
 40
1
 40
1
 40
1
 10
21.548281
 20
-10.974000
 30
0.0
 10
21.404406
 20
-10.974000
 30
0.0
 10
21.266424
 20
-10.945425
 30
0.0
 10
21.164690
 20
-10.894563
 30
0.0
  0
SPLINE
  5
167
100
AcDbEntity
  8
Layer_1
 62
1
100
AcDbSpline
 70
8
 71
3
 72
8
 73
4
 74
0
 40
0
 40
0
 40
0
 40
0
 40
1
 40
1
 40
1
 40
1
 10
21.164690
 20
-10.894563
 30
0.0
 10
21.062955
 20
-10.843700
 30
0.0
 10
21.005802
 20
-10.774716
 30
0.0
 10
21.005802
 20
-10.702785
 30
0.0
  0
SPLINE
  5
168
100
AcDbEntity
  8
Layer_1
 62
1
100
AcDbSpline
 70
8
 71
3
 72
8
 73
4
 74
0
 40
0
 40
0
 40
0
 40
0
 40
1
 40
1
 40
1
 40
1
 10
21.005802
 20
-10.702785
 30
0.0
 10
21.005802
 20
-10.630855
 30
0.0
 10
21.062955
 20
-10.561871
 30
0.0
 10
21.164690
 20
-10.511008
 30
0.0
  0
SPLINE
  5
169
100
AcDbEntity
  8
Layer_1
 62
1
100
AcDbSpline
 70
8
 71
3
 72
8
 73
4
 74
0
 40
0
 40
0
 40
0
 40
0
 40
1
 40
1
 40
1
 40
1
 10
21.164690
 20
-10.511008
 30
0.0
 10
21.266424
 20
-10.460146
 30
0.0
 10
21.404406
 20
-10.431571
 30
0.0
 10
21.548281
 20
-10.431571
 30
0.0
  0
SPLINE
  5
16a
100
AcDbEntity
  8
Layer_1
 62
1
100
AcDbSpline
 70
8
 71
3
 72
8
 73
4
 74
0
 40
0
 40
0
 40
0
 40
0
 40
1
 40
1
 40
1
 40
1
 10
21.548281
 20
-10.431571
 30
0.0
 10
21.692155
 20
-10.431571
 30
0.0
 10
21.830137
 20
-10.460146
 30
0.0
 10
21.931871
 20
-10.511008
 30
0.0
  0
SPLINE
  5
16b
100
AcDbEntity
  8
Layer_1
 62
1
100
AcDbSpline
 70
8
 71
3
 72
8
 73
4
 74
0
 40
0
 40
0
 40
0
 40
0
 40
1
 40
1
 40
1
 40
1
 10
21.931871
 20
-10.511008
 30
0.0
 10
22.033606
 20
-10.561871
 30
0.0
 10
22.090760
 20
-10.630855
 30
0.0
 10
22.090760
 20
-10.702785
 30
0.0
  0
SPLINE
  5
16c
100
AcDbEntity
  8
Layer_1
 62
1
100
AcDbSpline
 70
8
 71
3
 72
8
 73
4
 74
0
 40
0
 40
0
 40
0
 40
0
 40
1
 40
1
 40
1
 40
1
 10
6.627334
 20
-4.592524
 30
0.0
 10
6.555403
 20
-4.592524
 30
0.0
 10
6.486419
 20
-4.649678
 30
0.0
 10
6.435556
 20
-4.751412
 30
0.0
  0
SPLINE
  5
16d
100
AcDbEntity
  8
Layer_1
 62
1
100
AcDbSpline
 70
8
 71
3
 72
8
 73
4
 74
0
 40
0
 40
0
 40
0
 40
0
 40
1
 40
1
 40
1
 40
1
 10
6.435556
 20
-4.751412
 30
0.0
 10
6.384694
 20
-4.853147
 30
0.0
 10
6.356119
 20
-4.991128
 30
0.0
 10
6.356120
 20
-5.135003
 30
0.0
  0
SPLINE
  5
16e
100
AcDbEntity
  8
Layer_1
 62
1
100
AcDbSpline
 70
8
 71
3
 72
8
 73
4
 74
0
 40
0
 40
0
 40
0
 40
0
 40
1
 40
1
 40
1
 40
1
 10
6.356120
 20
-5.135003
 30
0.0
 10
6.356119
 20
-5.278877
 30
0.0
 10
6.384694
 20
-5.416859
 30
0.0
 10
6.435556
 20
-5.518593
 30
0.0
  0
SPLINE
  5
16f
100
AcDbEntity
  8
Layer_1
 62
1
100
AcDbSpline
 70
8
 71
3
 72
8
 73
4
 74
0
 40
0
 40
0
 40
0
 40
0
 40
1
 40
1
 40
1
 40
1
 10
6.435556
 20
-5.518593
 30
0.0
 10
6.486419
 20
-5.620328
 30
0.0
 10
6.555403
 20
-5.677482
 30
0.0
 10
6.627334
 20
-5.677482
 30
0.0
  0
SPLINE
  5
170
100
AcDbEntity
  8
Layer_1
 62
1
100
AcDbSpline
 70
8
 71
3
 72
8
 73
4
 74
0
 40
0
 40
0
 40
0
 40
0
 40
1
 40
1
 40
1
 40
1
 10
6.627334
 20
-5.677482
 30
0.0
 10
6.699264
 20
-5.677482
 30
0.0
 10
6.768249
 20
-5.620328
 30
0.0
 10
6.819111
 20
-5.518593
 30
0.0
  0
SPLINE
  5
171
100
AcDbEntity
  8
Layer_1
 62
1
100
AcDbSpline
 70
8
 71
3
 72
8
 73
4
 74
0
 40
0
 40
0
 40
0
 40
0
 40
1
 40
1
 40
1
 40
1
 10
6.819111
 20
-5.518593
 30
0.0
 10
6.869974
 20
-5.416859
 30
0.0
 10
6.898548
 20
-5.278877
 30
0.0
 10
6.898548
 20
-5.135003
 30
0.0
  0
SPLINE
  5
172
100
AcDbEntity
  8
Layer_1
 62
1
100
AcDbSpline
 70
8
 71
3
 72
8
 73
4
 74
0
 40
0
 40
0
 40
0
 40
0
 40
1
 40
1
 40
1
 40
1
 10
6.898548
 20
-5.135003
 30
0.0
 10
6.898548
 20
-4.991128
 30
0.0
 10
6.869974
 20
-4.853147
 30
0.0
 10
6.819111
 20
-4.751412
 30
0.0
  0
SPLINE
  5
173
100
AcDbEntity
  8
Layer_1
 62
1
100
AcDbSpline
 70
8
 71
3
 72
8
 73
4
 74
0
 40
0
 40
0
 40
0
 40
0
 40
1
 40
1
 40
1
 40
1
 10
6.819111
 20
-4.751412
 30
0.0
 10
6.768249
 20
-4.649678
 30
0.0
 10
6.699264
 20
-4.592524
 30
0.0
 10
6.627334
 20
-4.592524
 30
0.0
  0
SPLINE
  5
174
100
AcDbEntity
  8
Layer_1
 62
1
100
AcDbSpline
 70
8
 71
3
 72
8
 73
4
 74
0
 40
0
 40
0
 40
0
 40
0
 40
1
 40
1
 40
1
 40
1
 10
6.657044
 20
-0.818277
 30
0.0
 10
6.585113
 20
-0.818277
 30
0.0
 10
6.516129
 20
-0.875431
 30
0.0
 10
6.465266
 20
-0.977166
 30
0.0
  0
SPLINE
  5
175
100
AcDbEntity
  8
Layer_1
 62
1
100
AcDbSpline
 70
8
 71
3
 72
8
 73
4
 74
0
 40
0
 40
0
 40
0
 40
0
 40
1
 40
1
 40
1
 40
1
 10
6.465266
 20
-0.977166
 30
0.0
 10
6.414404
 20
-1.078900
 30
0.0
 10
6.385830
 20
-1.216882
 30
0.0
 10
6.385830
 20
-1.360756
 30
0.0
  0
SPLINE
  5
176
100
AcDbEntity
  8
Layer_1
 62
1
100
AcDbSpline
 70
8
 71
3
 72
8
 73
4
 74
0
 40
0
 40
0
 40
0
 40
0
 40
1
 40
1
 40
1
 40
1
 10
6.385830
 20
-1.360756
 30
0.0
 10
6.385830
 20
-1.504631
 30
0.0
 10
6.414404
 20
-1.642612
 30
0.0
 10
6.465266
 20
-1.744347
 30
0.0
  0
SPLINE
  5
177
100
AcDbEntity
  8
Layer_1
 62
1
100
AcDbSpline
 70
8
 71
3
 72
8
 73
4
 74
0
 40
0
 40
0
 40
0
 40
0
 40
1
 40
1
 40
1
 40
1
 10
6.465266
 20
-1.744347
 30
0.0
 10
6.516129
 20
-1.846082
 30
0.0
 10
6.585113
 20
-1.903235
 30
0.0
 10
6.657044
 20
-1.903235
 30
0.0
  0
SPLINE
  5
178
100
AcDbEntity
  8
Layer_1
 62
1
100
AcDbSpline
 70
8
 71
3
 72
8
 73
4
 74
0
 40
0
 40
0
 40
0
 40
0
 40
1
 40
1
 40
1
 40
1
 10
6.657044
 20
-1.903235
 30
0.0
 10
6.728974
 20
-1.903235
 30
0.0
 10
6.797959
 20
-1.846082
 30
0.0
 10
6.848821
 20
-1.744347
 30
0.0
  0
SPLINE
  5
179
100
AcDbEntity
  8
Layer_1
 62
1
100
AcDbSpline
 70
8
 71
3
 72
8
 73
4
 74
0
 40
0
 40
0
 40
0
 40
0
 40
1
 40
1
 40
1
 40
1
 10
6.848821
 20
-1.744347
 30
0.0
 10
6.899684
 20
-1.642612
 30
0.0
 10
6.928258
 20
-1.504631
 30
0.0
 10
6.928258
 20
-1.360756
 30
0.0
  0
SPLINE
  5
17a
100
AcDbEntity
  8
Layer_1
 62
1
100
AcDbSpline
 70
8
 71
3
 72
8
 73
4
 74
0
 40
0
 40
0
 40
0
 40
0
 40
1
 40
1
 40
1
 40
1
 10
6.928258
 20
-1.360756
 30
0.0
 10
6.928258
 20
-1.216882
 30
0.0
 10
6.899684
 20
-1.078900
 30
0.0
 10
6.848821
 20
-0.977166
 30
0.0
  0
SPLINE
  5
17b
100
AcDbEntity
  8
Layer_1
 62
1
100
AcDbSpline
 70
8
 71
3
 72
8
 73
4
 74
0
 40
0
 40
0
 40
0
 40
0
 40
1
 40
1
 40
1
 40
1
 10
6.848821
 20
-0.977166
 30
0.0
 10
6.797959
 20
-0.875431
 30
0.0
 10
6.728974
 20
-0.818277
 30
0.0
 10
6.657044
 20
-0.818277
 30
0.0
  0
SPLINE
  5
17c
100
AcDbEntity
  8
Layer_1
 62
1
100
AcDbSpline
 70
8
 71
3
 72
8
 73
4
 74
0
 40
0
 40
0
 40
0
 40
0
 40
1
 40
1
 40
1
 40
1
 10
11.153850
 20
-4.592524
 30
0.0
 10
11.081920
 20
-4.592524
 30
0.0
 10
11.012935
 20
-4.649678
 30
0.0
 10
10.962073
 20
-4.751412
 30
0.0
  0
SPLINE
  5
17d
100
AcDbEntity
  8
Layer_1
 62
1
100
AcDbSpline
 70
8
 71
3
 72
8
 73
4
 74
0
 40
0
 40
0
 40
0
 40
0
 40
1
 40
1
 40
1
 40
1
 10
10.962073
 20
-4.751412
 30
0.0
 10
10.911210
 20
-4.853147
 30
0.0
 10
10.882636
 20
-4.991128
 30
0.0
 10
10.882636
 20
-5.135003
 30
0.0
  0
SPLINE
  5
17e
100
AcDbEntity
  8
Layer_1
 62
1
100
AcDbSpline
 70
8
 71
3
 72
8
 73
4
 74
0
 40
0
 40
0
 40
0
 40
0
 40
1
 40
1
 40
1
 40
1
 10
10.882636
 20
-5.135003
 30
0.0
 10
10.882636
 20
-5.278877
 30
0.0
 10
10.911210
 20
-5.416859
 30
0.0
 10
10.962073
 20
-5.518593
 30
0.0
  0
SPLINE
  5
17f
100
AcDbEntity
  8
Layer_1
 62
1
100
AcDbSpline
 70
8
 71
3
 72
8
 73
4
 74
0
 40
0
 40
0
 40
0
 40
0
 40
1
 40
1
 40
1
 40
1
 10
10.962073
 20
-5.518593
 30
0.0
 10
11.012935
 20
-5.620328
 30
0.0
 10
11.081920
 20
-5.677482
 30
0.0
 10
11.153850
 20
-5.677482
 30
0.0
  0
SPLINE
  5
180
100
AcDbEntity
  8
Layer_1
 62
1
100
AcDbSpline
 70
8
 71
3
 72
8
 73
4
 74
0
 40
0
 40
0
 40
0
 40
0
 40
1
 40
1
 40
1
 40
1
 10
11.153850
 20
-5.677482
 30
0.0
 10
11.225781
 20
-5.677482
 30
0.0
 10
11.294765
 20
-5.620328
 30
0.0
 10
11.345628
 20
-5.518593
 30
0.0
  0
SPLINE
  5
181
100
AcDbEntity
  8
Layer_1
 62
1
100
AcDbSpline
 70
8
 71
3
 72
8
 73
4
 74
0
 40
0
 40
0
 40
0
 40
0
 40
1
 40
1
 40
1
 40
1
 10
11.345628
 20
-5.518593
 30
0.0
 10
11.396490
 20
-5.416859
 30
0.0
 10
11.425065
 20
-5.278877
 30
0.0
 10
11.425065
 20
-5.135003
 30
0.0
  0
SPLINE
  5
182
100
AcDbEntity
  8
Layer_1
 62
1
100
AcDbSpline
 70
8
 71
3
 72
8
 73
4
 74
0
 40
0
 40
0
 40
0
 40
0
 40
1
 40
1
 40
1
 40
1
 10
11.425065
 20
-5.135003
 30
0.0
 10
11.425065
 20
-4.991128
 30
0.0
 10
11.396490
 20
-4.853147
 30
0.0
 10
11.345628
 20
-4.751412
 30
0.0
  0
SPLINE
  5
183
100
AcDbEntity
  8
Layer_1
 62
1
100
AcDbSpline
 70
8
 71
3
 72
8
 73
4
 74
0
 40
0
 40
0
 40
0
 40
0
 40
1
 40
1
 40
1
 40
1
 10
11.345628
 20
-4.751412
 30
0.0
 10
11.294765
 20
-4.649678
 30
0.0
 10
11.225781
 20
-4.592524
 30
0.0
 10
11.153850
 20
-4.592524
 30
0.0
  0
SPLINE
  5
184
100
AcDbEntity
  8
Layer_1
 62
1
100
AcDbSpline
 70
8
 71
3
 72
8
 73
4
 74
0
 40
0
 40
0
 40
0
 40
0
 40
1
 40
1
 40
1
 40
1
 10
11.183560
 20
-0.818277
 30
0.0
 10
11.111630
 20
-0.818277
 30
0.0
 10
11.042645
 20
-0.875431
 30
0.0
 10
10.991783
 20
-0.977166
 30
0.0
  0
SPLINE
  5
185
100
AcDbEntity
  8
Layer_1
 62
1
100
AcDbSpline
 70
8
 71
3
 72
8
 73
4
 74
0
 40
0
 40
0
 40
0
 40
0
 40
1
 40
1
 40
1
 40
1
 10
10.991783
 20
-0.977166
 30
0.0
 10
10.940920
 20
-1.078900
 30
0.0
 10
10.912346
 20
-1.216882
 30
0.0
 10
10.912346
 20
-1.360756
 30
0.0
  0
SPLINE
  5
186
100
AcDbEntity
  8
Layer_1
 62
1
100
AcDbSpline
 70
8
 71
3
 72
8
 73
4
 74
0
 40
0
 40
0
 40
0
 40
0
 40
1
 40
1
 40
1
 40
1
 10
10.912346
 20
-1.360756
 30
0.0
 10
10.912346
 20
-1.504631
 30
0.0
 10
10.940920
 20
-1.642612
 30
0.0
 10
10.991783
 20
-1.744347
 30
0.0
  0
SPLINE
  5
187
100
AcDbEntity
  8
Layer_1
 62
1
100
AcDbSpline
 70
8
 71
3
 72
8
 73
4
 74
0
 40
0
 40
0
 40
0
 40
0
 40
1
 40
1
 40
1
 40
1
 10
10.991783
 20
-1.744347
 30
0.0
 10
11.042645
 20
-1.846082
 30
0.0
 10
11.111630
 20
-1.903235
 30
0.0
 10
11.183560
 20
-1.903235
 30
0.0
  0
SPLINE
  5
188
100
AcDbEntity
  8
Layer_1
 62
1
100
AcDbSpline
 70
8
 71
3
 72
8
 73
4
 74
0
 40
0
 40
0
 40
0
 40
0
 40
1
 40
1
 40
1
 40
1
 10
11.183560
 20
-1.903235
 30
0.0
 10
11.255491
 20
-1.903235
 30
0.0
 10
11.324475
 20
-1.846082
 30
0.0
 10
11.375338
 20
-1.744347
 30
0.0
  0
SPLINE
  5
189
100
AcDbEntity
  8
Layer_1
 62
1
100
AcDbSpline
 70
8
 71
3
 72
8
 73
4
 74
0
 40
0
 40
0
 40
0
 40
0
 40
1
 40
1
 40
1
 40
1
 10
11.375338
 20
-1.744347
 30
0.0
 10
11.426200
 20
-1.642612
 30
0.0
 10
11.454775
 20
-1.504631
 30
0.0
 10
11.454775
 20
-1.360756
 30
0.0
  0
SPLINE
  5
18a
100
AcDbEntity
  8
Layer_1
 62
1
100
AcDbSpline
 70
8
 71
3
 72
8
 73
4
 74
0
 40
0
 40
0
 40
0
 40
0
 40
1
 40
1
 40
1
 40
1
 10
11.454775
 20
-1.360756
 30
0.0
 10
11.454775
 20
-1.216882
 30
0.0
 10
11.426200
 20
-1.078900
 30
0.0
 10
11.375338
 20
-0.977166
 30
0.0
  0
SPLINE
  5
18b
100
AcDbEntity
  8
Layer_1
 62
1
100
AcDbSpline
 70
8
 71
3
 72
8
 73
4
 74
0
 40
0
 40
0
 40
0
 40
0
 40
1
 40
1
 40
1
 40
1
 10
11.375338
 20
-0.977166
 30
0.0
 10
11.324475
 20
-0.875431
 30
0.0
 10
11.255491
 20
-0.818277
 30
0.0
 10
11.183560
 20
-0.818277
 30
0.0
  0
SPLINE
  5
18c
100
AcDbEntity
  8
Layer_1
 62
1
100
AcDbSpline
 70
8
 71
3
 72
8
 73
4
 74
0
 40
0
 40
0
 40
0
 40
0
 40
1
 40
1
 40
1
 40
1
 10
32.572816
 20
-4.506155
 30
0.0
 10
32.644746
 20
-4.506155
 30
0.0
 10
32.713731
 20
-4.563309
 30
0.0
 10
32.764593
 20
-4.665043
 30
0.0
  0
SPLINE
  5
18d
100
AcDbEntity
  8
Layer_1
 62
1
100
AcDbSpline
 70
8
 71
3
 72
8
 73
4
 74
0
 40
0
 40
0
 40
0
 40
0
 40
1
 40
1
 40
1
 40
1
 10
32.764593
 20
-4.665043
 30
0.0
 10
32.815456
 20
-4.766778
 30
0.0
 10
32.844030
 20
-4.904760
 30
0.0
 10
32.844030
 20
-5.048634
 30
0.0
  0
SPLINE
  5
18e
100
AcDbEntity
  8
Layer_1
 62
1
100
AcDbSpline
 70
8
 71
3
 72
8
 73
4
 74
0
 40
0
 40
0
 40
0
 40
0
 40
1
 40
1
 40
1
 40
1
 10
32.844030
 20
-5.048634
 30
0.0
 10
32.844030
 20
-5.192508
 30
0.0
 10
32.815456
 20
-5.330490
 30
0.0
 10
32.764593
 20
-5.432225
 30
0.0
  0
SPLINE
  5
18f
100
AcDbEntity
  8
Layer_1
 62
1
100
AcDbSpline
 70
8
 71
3
 72
8
 73
4
 74
0
 40
0
 40
0
 40
0
 40
0
 40
1
 40
1
 40
1
 40
1
 10
32.764593
 20
-5.432225
 30
0.0
 10
32.713731
 20
-5.533959
 30
0.0
 10
32.644746
 20
-5.591113
 30
0.0
 10
32.572816
 20
-5.591113
 30
0.0
  0
SPLINE
  5
190
100
AcDbEntity
  8
Layer_1
 62
1
100
AcDbSpline
 70
8
 71
3
 72
8
 73
4
 74
0
 40
0
 40
0
 40
0
 40
0
 40
1
 40
1
 40
1
 40
1
 10
32.572816
 20
-5.591113
 30
0.0
 10
32.500885
 20
-5.591113
 30
0.0
 10
32.431901
 20
-5.533959
 30
0.0
 10
32.381039
 20
-5.432225
 30
0.0
  0
SPLINE
  5
191
100
AcDbEntity
  8
Layer_1
 62
1
100
AcDbSpline
 70
8
 71
3
 72
8
 73
4
 74
0
 40
0
 40
0
 40
0
 40
0
 40
1
 40
1
 40
1
 40
1
 10
32.381039
 20
-5.432225
 30
0.0
 10
32.330176
 20
-5.330490
 30
0.0
 10
32.301602
 20
-5.192508
 30
0.0
 10
32.301602
 20
-5.048634
 30
0.0
  0
SPLINE
  5
192
100
AcDbEntity
  8
Layer_1
 62
1
100
AcDbSpline
 70
8
 71
3
 72
8
 73
4
 74
0
 40
0
 40
0
 40
0
 40
0
 40
1
 40
1
 40
1
 40
1
 10
32.301602
 20
-5.048634
 30
0.0
 10
32.301602
 20
-4.904760
 30
0.0
 10
32.330176
 20
-4.766778
 30
0.0
 10
32.381039
 20
-4.665043
 30
0.0
  0
SPLINE
  5
193
100
AcDbEntity
  8
Layer_1
 62
1
100
AcDbSpline
 70
8
 71
3
 72
8
 73
4
 74
0
 40
0
 40
0
 40
0
 40
0
 40
1
 40
1
 40
1
 40
1
 10
32.381039
 20
-4.665043
 30
0.0
 10
32.431901
 20
-4.563309
 30
0.0
 10
32.500885
 20
-4.506155
 30
0.0
 10
32.572816
 20
-4.506155
 30
0.0
  0
SPLINE
  5
194
100
AcDbEntity
  8
Layer_1
 62
1
100
AcDbSpline
 70
8
 71
3
 72
8
 73
4
 74
0
 40
0
 40
0
 40
0
 40
0
 40
1
 40
1
 40
1
 40
1
 10
32.543106
 20
-0.731909
 30
0.0
 10
32.615036
 20
-0.731908
 30
0.0
 10
32.684021
 20
-0.789062
 30
0.0
 10
32.734883
 20
-0.890797
 30
0.0
  0
SPLINE
  5
195
100
AcDbEntity
  8
Layer_1
 62
1
100
AcDbSpline
 70
8
 71
3
 72
8
 73
4
 74
0
 40
0
 40
0
 40
0
 40
0
 40
1
 40
1
 40
1
 40
1
 10
32.734883
 20
-0.890797
 30
0.0
 10
32.785746
 20
-0.992531
 30
0.0
 10
32.814320
 20
-1.130513
 30
0.0
 10
32.814320
 20
-1.274387
 30
0.0
  0
SPLINE
  5
196
100
AcDbEntity
  8
Layer_1
 62
1
100
AcDbSpline
 70
8
 71
3
 72
8
 73
4
 74
0
 40
0
 40
0
 40
0
 40
0
 40
1
 40
1
 40
1
 40
1
 10
32.814320
 20
-1.274387
 30
0.0
 10
32.814320
 20
-1.418262
 30
0.0
 10
32.785746
 20
-1.556244
 30
0.0
 10
32.734883
 20
-1.657978
 30
0.0
  0
SPLINE
  5
197
100
AcDbEntity
  8
Layer_1
 62
1
100
AcDbSpline
 70
8
 71
3
 72
8
 73
4
 74
0
 40
0
 40
0
 40
0
 40
0
 40
1
 40
1
 40
1
 40
1
 10
32.734883
 20
-1.657978
 30
0.0
 10
32.684021
 20
-1.759713
 30
0.0
 10
32.615036
 20
-1.816867
 30
0.0
 10
32.543106
 20
-1.816866
 30
0.0
  0
SPLINE
  5
198
100
AcDbEntity
  8
Layer_1
 62
1
100
AcDbSpline
 70
8
 71
3
 72
8
 73
4
 74
0
 40
0
 40
0
 40
0
 40
0
 40
1
 40
1
 40
1
 40
1
 10
32.543106
 20
-1.816866
 30
0.0
 10
32.471175
 20
-1.816867
 30
0.0
 10
32.402191
 20
-1.759713
 30
0.0
 10
32.351328
 20
-1.657978
 30
0.0
  0
SPLINE
  5
199
100
AcDbEntity
  8
Layer_1
 62
1
100
AcDbSpline
 70
8
 71
3
 72
8
 73
4
 74
0
 40
0
 40
0
 40
0
 40
0
 40
1
 40
1
 40
1
 40
1
 10
32.351328
 20
-1.657978
 30
0.0
 10
32.300466
 20
-1.556244
 30
0.0
 10
32.271892
 20
-1.418262
 30
0.0
 10
32.271892
 20
-1.274387
 30
0.0
  0
SPLINE
  5
19a
100
AcDbEntity
  8
Layer_1
 62
1
100
AcDbSpline
 70
8
 71
3
 72
8
 73
4
 74
0
 40
0
 40
0
 40
0
 40
0
 40
1
 40
1
 40
1
 40
1
 10
32.271892
 20
-1.274387
 30
0.0
 10
32.271892
 20
-1.130513
 30
0.0
 10
32.300466
 20
-0.992531
 30
0.0
 10
32.351328
 20
-0.890797
 30
0.0
  0
SPLINE
  5
19b
100
AcDbEntity
  8
Layer_1
 62
1
100
AcDbSpline
 70
8
 71
3
 72
8
 73
4
 74
0
 40
0
 40
0
 40
0
 40
0
 40
1
 40
1
 40
1
 40
1
 10
32.351328
 20
-0.890797
 30
0.0
 10
32.402191
 20
-0.789062
 30
0.0
 10
32.471175
 20
-0.731908
 30
0.0
 10
32.543106
 20
-0.731909
 30
0.0
  0
SPLINE
  5
19c
100
AcDbEntity
  8
Layer_1
 62
1
100
AcDbSpline
 70
8
 71
3
 72
8
 73
4
 74
0
 40
0
 40
0
 40
0
 40
0
 40
1
 40
1
 40
1
 40
1
 10
28.046307
 20
-4.506155
 30
0.0
 10
28.118238
 20
-4.506155
 30
0.0
 10
28.187222
 20
-4.563309
 30
0.0
 10
28.238085
 20
-4.665043
 30
0.0
  0
SPLINE
  5
19d
100
AcDbEntity
  8
Layer_1
 62
1
100
AcDbSpline
 70
8
 71
3
 72
8
 73
4
 74
0
 40
0
 40
0
 40
0
 40
0
 40
1
 40
1
 40
1
 40
1
 10
28.238085
 20
-4.665043
 30
0.0
 10
28.288947
 20
-4.766778
 30
0.0
 10
28.317522
 20
-4.904760
 30
0.0
 10
28.317522
 20
-5.048634
 30
0.0
  0
SPLINE
  5
19e
100
AcDbEntity
  8
Layer_1
 62
1
100
AcDbSpline
 70
8
 71
3
 72
8
 73
4
 74
0
 40
0
 40
0
 40
0
 40
0
 40
1
 40
1
 40
1
 40
1
 10
28.317522
 20
-5.048634
 30
0.0
 10
28.317522
 20
-5.192508
 30
0.0
 10
28.288947
 20
-5.330490
 30
0.0
 10
28.238085
 20
-5.432225
 30
0.0
  0
SPLINE
  5
19f
100
AcDbEntity
  8
Layer_1
 62
1
100
AcDbSpline
 70
8
 71
3
 72
8
 73
4
 74
0
 40
0
 40
0
 40
0
 40
0
 40
1
 40
1
 40
1
 40
1
 10
28.238085
 20
-5.432225
 30
0.0
 10
28.187222
 20
-5.533959
 30
0.0
 10
28.118238
 20
-5.591113
 30
0.0
 10
28.046307
 20
-5.591113
 30
0.0
  0
SPLINE
  5
1a0
100
AcDbEntity
  8
Layer_1
 62
1
100
AcDbSpline
 70
8
 71
3
 72
8
 73
4
 74
0
 40
0
 40
0
 40
0
 40
0
 40
1
 40
1
 40
1
 40
1
 10
28.046307
 20
-5.591113
 30
0.0
 10
27.974377
 20
-5.591113
 30
0.0
 10
27.905393
 20
-5.533959
 30
0.0
 10
27.854530
 20
-5.432225
 30
0.0
  0
SPLINE
  5
1a1
100
AcDbEntity
  8
Layer_1
 62
1
100
AcDbSpline
 70
8
 71
3
 72
8
 73
4
 74
0
 40
0
 40
0
 40
0
 40
0
 40
1
 40
1
 40
1
 40
1
 10
27.854530
 20
-5.432225
 30
0.0
 10
27.803667
 20
-5.330490
 30
0.0
 10
27.775093
 20
-5.192508
 30
0.0
 10
27.775093
 20
-5.048634
 30
0.0
  0
SPLINE
  5
1a2
100
AcDbEntity
  8
Layer_1
 62
1
100
AcDbSpline
 70
8
 71
3
 72
8
 73
4
 74
0
 40
0
 40
0
 40
0
 40
0
 40
1
 40
1
 40
1
 40
1
 10
27.775093
 20
-5.048634
 30
0.0
 10
27.775093
 20
-4.904760
 30
0.0
 10
27.803667
 20
-4.766778
 30
0.0
 10
27.854530
 20
-4.665043
 30
0.0
  0
SPLINE
  5
1a3
100
AcDbEntity
  8
Layer_1
 62
1
100
AcDbSpline
 70
8
 71
3
 72
8
 73
4
 74
0
 40
0
 40
0
 40
0
 40
0
 40
1
 40
1
 40
1
 40
1
 10
27.854530
 20
-4.665043
 30
0.0
 10
27.905393
 20
-4.563309
 30
0.0
 10
27.974377
 20
-4.506155
 30
0.0
 10
28.046307
 20
-4.506155
 30
0.0
  0
SPLINE
  5
1a4
100
AcDbEntity
  8
Layer_1
 62
1
100
AcDbSpline
 70
8
 71
3
 72
8
 73
4
 74
0
 40
0
 40
0
 40
0
 40
0
 40
1
 40
1
 40
1
 40
1
 10
28.016597
 20
-0.731909
 30
0.0
 10
28.088528
 20
-0.731908
 30
0.0
 10
28.157512
 20
-0.789062
 30
0.0
 10
28.208375
 20
-0.890797
 30
0.0
  0
SPLINE
  5
1a5
100
AcDbEntity
  8
Layer_1
 62
1
100
AcDbSpline
 70
8
 71
3
 72
8
 73
4
 74
0
 40
0
 40
0
 40
0
 40
0
 40
1
 40
1
 40
1
 40
1
 10
28.208375
 20
-0.890797
 30
0.0
 10
28.259237
 20
-0.992531
 30
0.0
 10
28.287812
 20
-1.130513
 30
0.0
 10
28.287812
 20
-1.274387
 30
0.0
  0
SPLINE
  5
1a6
100
AcDbEntity
  8
Layer_1
 62
1
100
AcDbSpline
 70
8
 71
3
 72
8
 73
4
 74
0
 40
0
 40
0
 40
0
 40
0
 40
1
 40
1
 40
1
 40
1
 10
28.287812
 20
-1.274387
 30
0.0
 10
28.287812
 20
-1.418262
 30
0.0
 10
28.259237
 20
-1.556244
 30
0.0
 10
28.208375
 20
-1.657978
 30
0.0
  0
SPLINE
  5
1a7
100
AcDbEntity
  8
Layer_1
 62
1
100
AcDbSpline
 70
8
 71
3
 72
8
 73
4
 74
0
 40
0
 40
0
 40
0
 40
0
 40
1
 40
1
 40
1
 40
1
 10
28.208375
 20
-1.657978
 30
0.0
 10
28.157512
 20
-1.759713
 30
0.0
 10
28.088528
 20
-1.816867
 30
0.0
 10
28.016597
 20
-1.816866
 30
0.0
  0
SPLINE
  5
1a8
100
AcDbEntity
  8
Layer_1
 62
1
100
AcDbSpline
 70
8
 71
3
 72
8
 73
4
 74
0
 40
0
 40
0
 40
0
 40
0
 40
1
 40
1
 40
1
 40
1
 10
28.016597
 20
-1.816866
 30
0.0
 10
27.944667
 20
-1.816867
 30
0.0
 10
27.875683
 20
-1.759713
 30
0.0
 10
27.824820
 20
-1.657978
 30
0.0
  0
SPLINE
  5
1a9
100
AcDbEntity
  8
Layer_1
 62
1
100
AcDbSpline
 70
8
 71
3
 72
8
 73
4
 74
0
 40
0
 40
0
 40
0
 40
0
 40
1
 40
1
 40
1
 40
1
 10
27.824820
 20
-1.657978
 30
0.0
 10
27.773957
 20
-1.556244
 30
0.0
 10
27.745383
 20
-1.418262
 30
0.0
 10
27.745383
 20
-1.274387
 30
0.0
  0
SPLINE
  5
1aa
100
AcDbEntity
  8
Layer_1
 62
1
100
AcDbSpline
 70
8
 71
3
 72
8
 73
4
 74
0
 40
0
 40
0
 40
0
 40
0
 40
1
 40
1
 40
1
 40
1
 10
27.745383
 20
-1.274387
 30
0.0
 10
27.745383
 20
-1.130513
 30
0.0
 10
27.773957
 20
-0.992531
 30
0.0
 10
27.824820
 20
-0.890797
 30
0.0
  0
SPLINE
  5
1ab
100
AcDbEntity
  8
Layer_1
 62
1
100
AcDbSpline
 70
8
 71
3
 72
8
 73
4
 74
0
 40
0
 40
0
 40
0
 40
0
 40
1
 40
1
 40
1
 40
1
 10
27.824820
 20
-0.890797
 30
0.0
 10
27.875683
 20
-0.789062
 30
0.0
 10
27.944667
 20
-0.731908
 30
0.0
 10
28.016597
 20
-0.731909
 30
0.0
  0
SPLINE
  5
1ac
100
AcDbEntity
  8
Layer_1
 62
1
100
AcDbSpline
 70
8
 71
3
 72
8
 73
4
 74
0
 40
0
 40
0
 40
0
 40
0
 40
1
 40
1
 40
1
 40
1
 10
22.756597
 20
4.749435
 30
0.0
 10
22.756596
 20
4.597622
 30
0.0
 10
22.633528
 20
4.474554
 30
0.0
 10
22.481716
 20
4.474554
 30
0.0
  0
SPLINE
  5
1ad
100
AcDbEntity
  8
Layer_1
 62
1
100
AcDbSpline
 70
8
 71
3
 72
8
 73
4
 74
0
 40
0
 40
0
 40
0
 40
0
 40
1
 40
1
 40
1
 40
1
 10
22.481716
 20
4.474554
 30
0.0
 10
22.329903
 20
4.474554
 30
0.0
 10
22.206835
 20
4.597622
 30
0.0
 10
22.206835
 20
4.749435
 30
0.0
  0
SPLINE
  5
1ae
100
AcDbEntity
  8
Layer_1
 62
1
100
AcDbSpline
 70
8
 71
3
 72
8
 73
4
 74
0
 40
0
 40
0
 40
0
 40
0
 40
1
 40
1
 40
1
 40
1
 10
22.206835
 20
4.749435
 30
0.0
 10
22.206835
 20
4.901248
 30
0.0
 10
22.329903
 20
5.024316
 30
0.0
 10
22.481716
 20
5.024316
 30
0.0
  0
SPLINE
  5
1af
100
AcDbEntity
  8
Layer_1
 62
1
100
AcDbSpline
 70
8
 71
3
 72
8
 73
4
 74
0
 40
0
 40
0
 40
0
 40
0
 40
1
 40
1
 40
1
 40
1
 10
22.481716
 20
5.024316
 30
0.0
 10
22.633528
 20
5.024316
 30
0.0
 10
22.756596
 20
4.901248
 30
0.0
 10
22.756597
 20
4.749435
 30
0.0
  0
SPLINE
  5
1b0
100
AcDbEntity
  8
Layer_1
 62
1
100
AcDbSpline
 70
8
 71
3
 72
8
 73
4
 74
0
 40
0
 40
0
 40
0
 40
0
 40
1
 40
1
 40
1
 40
1
 10
17.029103
 20
4.749435
 30
0.0
 10
17.029103
 20
4.597622
 30
0.0
 10
16.906035
 20
4.474554
 30
0.0
 10
16.754222
 20
4.474554
 30
0.0
  0
SPLINE
  5
1b1
100
AcDbEntity
  8
Layer_1
 62
1
100
AcDbSpline
 70
8
 71
3
 72
8
 73
4
 74
0
 40
0
 40
0
 40
0
 40
0
 40
1
 40
1
 40
1
 40
1
 10
16.754222
 20
4.474554
 30
0.0
 10
16.602410
 20
4.474554
 30
0.0
 10
16.479341
 20
4.597622
 30
0.0
 10
16.479341
 20
4.749435
 30
0.0
  0
SPLINE
  5
1b2
100
AcDbEntity
  8
Layer_1
 62
1
100
AcDbSpline
 70
8
 71
3
 72
8
 73
4
 74
0
 40
0
 40
0
 40
0
 40
0
 40
1
 40
1
 40
1
 40
1
 10
16.479341
 20
4.749435
 30
0.0
 10
16.479341
 20
4.901248
 30
0.0
 10
16.602410
 20
5.024316
 30
0.0
 10
16.754222
 20
5.024316
 30
0.0
  0
SPLINE
  5
1b3
100
AcDbEntity
  8
Layer_1
 62
1
100
AcDbSpline
 70
8
 71
3
 72
8
 73
4
 74
0
 40
0
 40
0
 40
0
 40
0
 40
1
 40
1
 40
1
 40
1
 10
16.754222
 20
5.024316
 30
0.0
 10
16.906035
 20
5.024316
 30
0.0
 10
17.029103
 20
4.901248
 30
0.0
 10
17.029103
 20
4.749435
 30
0.0
  0
SPLINE
  5
1b4
100
AcDbEntity
  8
Layer_1
 62
1
100
AcDbSpline
 70
8
 71
3
 72
8
 73
4
 74
0
 40
0
 40
0
 40
0
 40
0
 40
1
 40
1
 40
1
 40
1
 10
22.756595
 20
-9.491888
 30
0.0
 10
22.756595
 20
-9.643700
 30
0.0
 10
22.633526
 20
-9.766769
 30
0.0
 10
22.481714
 20
-9.766769
 30
0.0
  0
SPLINE
  5
1b5
100
AcDbEntity
  8
Layer_1
 62
1
100
AcDbSpline
 70
8
 71
3
 72
8
 73
4
 74
0
 40
0
 40
0
 40
0
 40
0
 40
1
 40
1
 40
1
 40
1
 10
22.481714
 20
-9.766769
 30
0.0
 10
22.329901
 20
-9.766769
 30
0.0
 10
22.206833
 20
-9.643700
 30
0.0
 10
22.206833
 20
-9.491888
 30
0.0
  0
SPLINE
  5
1b6
100
AcDbEntity
  8
Layer_1
 62
1
100
AcDbSpline
 70
8
 71
3
 72
8
 73
4
 74
0
 40
0
 40
0
 40
0
 40
0
 40
1
 40
1
 40
1
 40
1
 10
22.206833
 20
-9.491888
 30
0.0
 10
22.206833
 20
-9.340075
 30
0.0
 10
22.329901
 20
-9.217007
 30
0.0
 10
22.481714
 20
-9.217007
 30
0.0
  0
SPLINE
  5
1b7
100
AcDbEntity
  8
Layer_1
 62
1
100
AcDbSpline
 70
8
 71
3
 72
8
 73
4
 74
0
 40
0
 40
0
 40
0
 40
0
 40
1
 40
1
 40
1
 40
1
 10
22.481714
 20
-9.217007
 30
0.0
 10
22.633526
 20
-9.217007
 30
0.0
 10
22.756595
 20
-9.340075
 30
0.0
 10
22.756595
 20
-9.491888
 30
0.0
  0
SPLINE
  5
1b8
100
AcDbEntity
  8
Layer_1
 62
1
100
AcDbSpline
 70
8
 71
3
 72
8
 73
4
 74
0
 40
0
 40
0
 40
0
 40
0
 40
1
 40
1
 40
1
 40
1
 10
17.029101
 20
-9.491888
 30
0.0
 10
17.029101
 20
-9.643700
 30
0.0
 10
16.906033
 20
-9.766769
 30
0.0
 10
16.754220
 20
-9.766769
 30
0.0
  0
SPLINE
  5
1b9
100
AcDbEntity
  8
Layer_1
 62
1
100
AcDbSpline
 70
8
 71
3
 72
8
 73
4
 74
0
 40
0
 40
0
 40
0
 40
0
 40
1
 40
1
 40
1
 40
1
 10
16.754220
 20
-9.766769
 30
0.0
 10
16.602408
 20
-9.766769
 30
0.0
 10
16.479340
 20
-9.643700
 30
0.0
 10
16.479339
 20
-9.491888
 30
0.0
  0
SPLINE
  5
1ba
100
AcDbEntity
  8
Layer_1
 62
1
100
AcDbSpline
 70
8
 71
3
 72
8
 73
4
 74
0
 40
0
 40
0
 40
0
 40
0
 40
1
 40
1
 40
1
 40
1
 10
16.479339
 20
-9.491888
 30
0.0
 10
16.479340
 20
-9.340075
 30
0.0
 10
16.602408
 20
-9.217007
 30
0.0
 10
16.754220
 20
-9.217007
 30
0.0
  0
SPLINE
  5
1bb
100
AcDbEntity
  8
Layer_1
 62
1
100
AcDbSpline
 70
8
 71
3
 72
8
 73
4
 74
0
 40
0
 40
0
 40
0
 40
0
 40
1
 40
1
 40
1
 40
1
 10
16.754220
 20
-9.217007
 30
0.0
 10
16.906033
 20
-9.217007
 30
0.0
 10
17.029101
 20
-9.340075
 30
0.0
 10
17.029101
 20
-9.491888
 30
0.0
  0
SPLINE
  5
1bc
100
AcDbEntity
  8
Layer_1
 62
1
100
AcDbSpline
 70
8
 71
3
 72
8
 73
4
 74
0
 40
0
 40
0
 40
0
 40
0
 40
1
 40
1
 40
1
 40
1
 10
26.746790
 20
0.753352
 30
0.0
 10
26.819694
 20
0.753352
 30
0.0
 10
26.889611
 20
0.724391
 30
0.0
 10
26.941161
 20
0.672840
 30
0.0
  0
SPLINE
  5
1bd
100
AcDbEntity
  8
Layer_1
 62
1
100
AcDbSpline
 70
8
 71
3
 72
8
 73
4
 74
0
 40
0
 40
0
 40
0
 40
0
 40
1
 40
1
 40
1
 40
1
 10
26.941161
 20
0.672840
 30
0.0
 10
26.992711
 20
0.621290
 30
0.0
 10
27.021672
 20
0.551372
 30
0.0
 10
27.021671
 20
0.478469
 30
0.0
  0
SPLINE
  5
1be
100
AcDbEntity
  8
Layer_1
 62
1
100
AcDbSpline
 70
8
 71
3
 72
8
 73
4
 74
0
 40
0
 40
0
 40
0
 40
0
 40
1
 40
1
 40
1
 40
1
 10
27.021671
 20
0.478469
 30
0.0
 10
27.021671
 20
0.326657
 30
0.0
 10
26.898603
 20
0.203588
 30
0.0
 10
26.746790
 20
0.203588
 30
0.0
  0
SPLINE
  5
1bf
100
AcDbEntity
  8
Layer_1
 62
1
100
AcDbSpline
 70
8
 71
3
 72
8
 73
4
 74
0
 40
0
 40
0
 40
0
 40
0
 40
1
 40
1
 40
1
 40
1
 10
26.746790
 20
0.203588
 30
0.0
 10
26.594978
 20
0.203588
 30
0.0
 10
26.471910
 20
0.326657
 30
0.0
 10
26.471909
 20
0.478469
 30
0.0
  0
SPLINE
  5
1c0
100
AcDbEntity
  8
Layer_1
 62
1
100
AcDbSpline
 70
8
 71
3
 72
8
 73
4
 74
0
 40
0
 40
0
 40
0
 40
0
 40
1
 40
1
 40
1
 40
1
 10
26.471909
 20
0.478469
 30
0.0
 10
26.471909
 20
0.551372
 30
0.0
 10
26.500869
 20
0.621290
 30
0.0
 10
26.552420
 20
0.672840
 30
0.0
  0
SPLINE
  5
1c1
100
AcDbEntity
  8
Layer_1
 62
1
100
AcDbSpline
 70
8
 71
3
 72
8
 73
4
 74
0
 40
0
 40
0
 40
0
 40
0
 40
1
 40
1
 40
1
 40
1
 10
26.552420
 20
0.672840
 30
0.0
 10
26.603970
 20
0.724391
 30
0.0
 10
26.673887
 20
0.753352
 30
0.0
 10
26.746790
 20
0.753352
 30
0.0
  0
SPLINE
  5
1c2
100
AcDbEntity
  8
Layer_1
 62
1
100
AcDbSpline
 70
8
 71
3
 72
8
 73
4
 74
0
 40
0
 40
0
 40
0
 40
0
 40
1
 40
1
 40
1
 40
1
 10
26.746790
 20
-4.974133
 30
0.0
 10
26.898603
 20
-4.974134
 30
0.0
 10
27.021671
 20
-5.097202
 30
0.0
 10
27.021671
 20
-5.249014
 30
0.0
  0
SPLINE
  5
1c3
100
AcDbEntity
  8
Layer_1
 62
1
100
AcDbSpline
 70
8
 71
3
 72
8
 73
4
 74
0
 40
0
 40
0
 40
0
 40
0
 40
1
 40
1
 40
1
 40
1
 10
27.021671
 20
-5.249014
 30
0.0
 10
27.021671
 20
-5.400827
 30
0.0
 10
26.898603
 20
-5.523895
 30
0.0
 10
26.746790
 20
-5.523895
 30
0.0
  0
SPLINE
  5
1c4
100
AcDbEntity
  8
Layer_1
 62
1
100
AcDbSpline
 70
8
 71
3
 72
8
 73
4
 74
0
 40
0
 40
0
 40
0
 40
0
 40
1
 40
1
 40
1
 40
1
 10
26.746790
 20
-5.523895
 30
0.0
 10
26.594978
 20
-5.523895
 30
0.0
 10
26.471910
 20
-5.400827
 30
0.0
 10
26.471909
 20
-5.249014
 30
0.0
  0
SPLINE
  5
1c5
100
AcDbEntity
  8
Layer_1
 62
1
100
AcDbSpline
 70
8
 71
3
 72
8
 73
4
 74
0
 40
0
 40
0
 40
0
 40
0
 40
1
 40
1
 40
1
 40
1
 10
26.471909
 20
-5.249014
 30
0.0
 10
26.471910
 20
-5.097202
 30
0.0
 10
26.594978
 20
-4.974134
 30
0.0
 10
26.746790
 20
-4.974133
 30
0.0
  0
SPLINE
  5
1c6
100
AcDbEntity
  8
Layer_1
 62
1
100
AcDbSpline
 70
8
 71
3
 72
8
 73
4
 74
0
 40
0
 40
0
 40
0
 40
0
 40
1
 40
1
 40
1
 40
1
 10
12.557703
 20
0.753359
 30
0.0
 10
12.630606
 20
0.753359
 30
0.0
 10
12.700523
 20
0.724398
 30
0.0
 10
12.752073
 20
0.672848
 30
0.0
  0
SPLINE
  5
1c7
100
AcDbEntity
  8
Layer_1
 62
1
100
AcDbSpline
 70
8
 71
3
 72
8
 73
4
 74
0
 40
0
 40
0
 40
0
 40
0
 40
1
 40
1
 40
1
 40
1
 10
12.752073
 20
0.672848
 30
0.0
 10
12.803624
 20
0.621297
 30
0.0
 10
12.832584
 20
0.551380
 30
0.0
 10
12.832584
 20
0.478477
 30
0.0
  0
SPLINE
  5
1c8
100
AcDbEntity
  8
Layer_1
 62
1
100
AcDbSpline
 70
8
 71
3
 72
8
 73
4
 74
0
 40
0
 40
0
 40
0
 40
0
 40
1
 40
1
 40
1
 40
1
 10
12.832584
 20
0.478477
 30
0.0
 10
12.832584
 20
0.326664
 30
0.0
 10
12.709515
 20
0.203596
 30
0.0
 10
12.557703
 20
0.203596
 30
0.0
  0
SPLINE
  5
1c9
100
AcDbEntity
  8
Layer_1
 62
1
100
AcDbSpline
 70
8
 71
3
 72
8
 73
4
 74
0
 40
0
 40
0
 40
0
 40
0
 40
1
 40
1
 40
1
 40
1
 10
12.557703
 20
0.203596
 30
0.0
 10
12.405890
 20
0.203596
 30
0.0
 10
12.282822
 20
0.326664
 30
0.0
 10
12.282822
 20
0.478477
 30
0.0
  0
SPLINE
  5
1ca
100
AcDbEntity
  8
Layer_1
 62
1
100
AcDbSpline
 70
8
 71
3
 72
8
 73
4
 74
0
 40
0
 40
0
 40
0
 40
0
 40
1
 40
1
 40
1
 40
1
 10
12.282822
 20
0.478477
 30
0.0
 10
12.282821
 20
0.551380
 30
0.0
 10
12.311782
 20
0.621297
 30
0.0
 10
12.363332
 20
0.672848
 30
0.0
  0
SPLINE
  5
1cb
100
AcDbEntity
  8
Layer_1
 62
1
100
AcDbSpline
 70
8
 71
3
 72
8
 73
4
 74
0
 40
0
 40
0
 40
0
 40
0
 40
1
 40
1
 40
1
 40
1
 10
12.363332
 20
0.672848
 30
0.0
 10
12.414882
 20
0.724398
 30
0.0
 10
12.484799
 20
0.753359
 30
0.0
 10
12.557703
 20
0.753359
 30
0.0
  0
SPLINE
  5
1cc
100
AcDbEntity
  8
Layer_1
 62
1
100
AcDbSpline
 70
8
 71
3
 72
8
 73
4
 74
0
 40
0
 40
0
 40
0
 40
0
 40
1
 40
1
 40
1
 40
1
 10
12.557703
 20
-4.974139
 30
0.0
 10
12.709515
 20
-4.974139
 30
0.0
 10
12.832584
 20
-5.097208
 30
0.0
 10
12.832584
 20
-5.249020
 30
0.0
  0
SPLINE
  5
1cd
100
AcDbEntity
  8
Layer_1
 62
1
100
AcDbSpline
 70
8
 71
3
 72
8
 73
4
 74
0
 40
0
 40
0
 40
0
 40
0
 40
1
 40
1
 40
1
 40
1
 10
12.832584
 20
-5.249020
 30
0.0
 10
12.832584
 20
-5.321923
 30
0.0
 10
12.803624
 20
-5.391841
 30
0.0
 10
12.752073
 20
-5.443391
 30
0.0
  0
SPLINE
  5
1ce
100
AcDbEntity
  8
Layer_1
 62
1
100
AcDbSpline
 70
8
 71
3
 72
8
 73
4
 74
0
 40
0
 40
0
 40
0
 40
0
 40
1
 40
1
 40
1
 40
1
 10
12.752073
 20
-5.443391
 30
0.0
 10
12.700523
 20
-5.494942
 30
0.0
 10
12.630606
 20
-5.523903
 30
0.0
 10
12.557703
 20
-5.523903
 30
0.0
  0
SPLINE
  5
1cf
100
AcDbEntity
  8
Layer_1
 62
1
100
AcDbSpline
 70
8
 71
3
 72
8
 73
4
 74
0
 40
0
 40
0
 40
0
 40
0
 40
1
 40
1
 40
1
 40
1
 10
12.557703
 20
-5.523903
 30
0.0
 10
12.484799
 20
-5.523903
 30
0.0
 10
12.414882
 20
-5.494942
 30
0.0
 10
12.363332
 20
-5.443391
 30
0.0
  0
SPLINE
  5
1d0
100
AcDbEntity
  8
Layer_1
 62
1
100
AcDbSpline
 70
8
 71
3
 72
8
 73
4
 74
0
 40
0
 40
0
 40
0
 40
0
 40
1
 40
1
 40
1
 40
1
 10
12.363332
 20
-5.443391
 30
0.0
 10
12.311782
 20
-5.391841
 30
0.0
 10
12.282821
 20
-5.321923
 30
0.0
 10
12.282822
 20
-5.249020
 30
0.0
  0
SPLINE
  5
1d1
100
AcDbEntity
  8
Layer_1
 62
1
100
AcDbSpline
 70
8
 71
3
 72
8
 73
4
 74
0
 40
0
 40
0
 40
0
 40
0
 40
1
 40
1
 40
1
 40
1
 10
12.282822
 20
-5.249020
 30
0.0
 10
12.282822
 20
-5.097208
 30
0.0
 10
12.405890
 20
-4.974139
 30
0.0
 10
12.557703
 20
-4.974139
 30
0.0
  0
SPLINE
  5
1d2
100
AcDbEntity
  8
Layer_1
 62
7
100
AcDbSpline
 70
8
 71
3
 72
8
 73
4
 74
0
 40
0
 40
0
 40
0
 40
0
 40
1
 40
1
 40
1
 40
1
 10
19.685683
 20
-24.615404
 30
0.0
 10
19.567061
 20
-24.996041
 30
0.0
 10
19.454873
 20
-25.378072
 30
0.0
 10
19.373276
 20
-25.767110
 30
0.0
  0
SPLINE
  5
1d3
100
AcDbEntity
  8
Layer_1
 62
7
100
AcDbSpline
 70
8
 71
3
 72
8
 73
4
 74
0
 40
0
 40
0
 40
0
 40
0
 40
1
 40
1
 40
1
 40
1
 10
19.373276
 20
-25.767110
 30
0.0
 10
19.279493
 20
-26.213184
 30
0.0
 10
18.979248
 20
-26.588115
 30
0.0
 10
18.564455
 20
-26.777123
 30
0.0
  0
SPLINE
  5
1d4
100
AcDbEntity
  8
Layer_1
 62
7
100
AcDbSpline
 70
8
 71
3
 72
8
 73
4
 74
0
 40
0
 40
0
 40
0
 40
0
 40
1
 40
1
 40
1
 40
1
 10
18.564455
 20
-26.777123
 30
0.0
 10
18.149662
 20
-26.966130
 30
0.0
 10
17.669722
 20
-26.946706
 30
0.0
 10
17.271560
 20
-26.724795
 30
0.0
  0
SPLINE
  5
1d5
100
AcDbEntity
  8
Layer_1
 62
7
100
AcDbSpline
 70
8
 71
3
 72
8
 73
4
 74
0
 40
0
 40
0
 40
0
 40
0
 40
1
 40
1
 40
1
 40
1
 10
17.271560
 20
-26.724795
 30
0.0
 10
16.880262
 20
-26.638122
 30
0.0
 10
16.543081
 20
-26.391671
 30
0.0
 10
16.341708
 20
-26.045152
 30
0.0
  0
SPLINE
  5
1d6
100
AcDbEntity
  8
Layer_1
 62
7
100
AcDbSpline
 70
8
 71
3
 72
8
 73
4
 74
0
 40
0
 40
0
 40
0
 40
0
 40
1
 40
1
 40
1
 40
1
 10
16.341708
 20
-26.045152
 30
0.0
 10
16.140335
 20
-25.698633
 30
0.0
 10
16.093143
 20
-25.283660
 30
0.0
 10
16.211566
 20
-24.900773
 30
0.0
  0
SPLINE
  5
1d7
100
AcDbEntity
  8
Layer_1
 62
7
100
AcDbSpline
 70
8
 71
3
 72
8
 73
4
 74
0
 40
0
 40
0
 40
0
 40
0
 40
1
 40
1
 40
1
 40
1
 10
16.211566
 20
-24.900773
 30
0.0
 10
15.775406
 20
-25.152505
 30
0.0
 10
15.339265
 20
-25.404293
 30
0.0
 10
14.903107
 20
-25.656032
 30
0.0
  0
SPLINE
  5
1d8
100
AcDbEntity
  8
Layer_1
 62
7
100
AcDbSpline
 70
8
 71
3
 72
8
 73
4
 74
0
 40
0
 40
0
 40
0
 40
0
 40
1
 40
1
 40
1
 40
1
 10
14.903107
 20
-25.656032
 30
0.0
 10
14.646886
 20
-26.101162
 30
0.0
 10
14.172197
 20
-26.375300
 30
0.0
 10
13.658593
 20
-26.374751
 30
0.0
  0
SPLINE
  5
1d9
100
AcDbEntity
  8
Layer_1
 62
7
100
AcDbSpline
 70
8
 71
3
 72
8
 73
4
 74
0
 40
0
 40
0
 40
0
 40
0
 40
1
 40
1
 40
1
 40
1
 10
13.658593
 20
-26.374751
 30
0.0
 10
13.203790
 20
-26.637380
 30
0.0
 10
12.749053
 20
-26.900234
 30
0.0
 10
12.294230
 20
-27.162895
 30
0.0
  0
SPLINE
  5
1da
100
AcDbEntity
  8
Layer_1
 62
7
100
AcDbSpline
 70
8
 71
3
 72
8
 73
4
 74
0
 40
0
 40
0
 40
0
 40
0
 40
1
 40
1
 40
1
 40
1
 10
12.294230
 20
-27.162895
 30
0.0
 10
13.048631
 20
-27.396535
 30
0.0
 10
13.472184
 20
-28.196108
 30
0.0
 10
13.241683
 20
-28.951474
 30
0.0
  0
SPLINE
  5
1db
100
AcDbEntity
  8
Layer_1
 62
7
100
AcDbSpline
 70
8
 71
3
 72
8
 73
4
 74
0
 40
0
 40
0
 40
0
 40
0
 40
1
 40
1
 40
1
 40
1
 10
13.241683
 20
-28.951474
 30
0.0
 10
13.241282
 20
-29.408989
 30
0.0
 10
13.022622
 20
-29.838858
 30
0.0
 10
12.653088
 20
-30.108607
 30
0.0
  0
SPLINE
  5
1dc
100
AcDbEntity
  8
Layer_1
 62
7
100
AcDbSpline
 70
8
 71
3
 72
8
 73
4
 74
0
 40
0
 40
0
 40
0
 40
0
 40
1
 40
1
 40
1
 40
1
 10
12.653088
 20
-30.108607
 30
0.0
 10
12.283555
 20
-30.378356
 30
0.0
 10
11.807497
 20
-30.455612
 30
0.0
 10
11.371623
 20
-30.316566
 30
0.0
  0
SPLINE
  5
1dd
100
AcDbEntity
  8
Layer_1
 62
7
100
AcDbSpline
 70
8
 71
3
 72
8
 73
4
 74
0
 40
0
 40
0
 40
0
 40
0
 40
1
 40
1
 40
1
 40
1
 10
11.371623
 20
-30.316566
 30
0.0
 10
11.017462
 20
-30.203455
 30
0.0
 10
10.658180
 20
-30.123557
 30
0.0
 10
10.299207
 20
-30.042161
 30
0.0
  0
SPLINE
  5
1de
100
AcDbEntity
  8
Layer_1
 62
7
100
AcDbSpline
 70
8
 71
3
 72
8
 73
4
 74
0
 40
0
 40
0
 40
0
 40
0
 40
1
 40
1
 40
1
 40
1
 10
10.299207
 20
-30.042161
 30
0.0
 10
10.562044
 20
-30.326874
 30
0.0
 10
10.827509
 20
-30.608771
 30
0.0
 10
11.115119
 20
-30.868304
 30
0.0
  0
SPLINE
  5
1df
100
AcDbEntity
  8
Layer_1
 62
7
100
AcDbSpline
 70
8
 71
3
 72
8
 73
4
 74
0
 40
0
 40
0
 40
0
 40
0
 40
1
 40
1
 40
1
 40
1
 10
11.115119
 20
-30.868304
 30
0.0
 10
11.451537
 20
-31.172028
 30
0.0
 10
11.624588
 20
-31.616902
 30
0.0
 10
11.581834
 20
-32.068120
 30
0.0
  0
SPLINE
  5
1e0
100
AcDbEntity
  8
Layer_1
 62
7
100
AcDbSpline
 70
8
 71
3
 72
8
 73
4
 74
0
 40
0
 40
0
 40
0
 40
0
 40
1
 40
1
 40
1
 40
1
 10
11.581834
 20
-32.068120
 30
0.0
 10
11.539081
 20
-32.519337
 30
0.0
 10
11.285555
 20
-32.923792
 30
0.0
 10
10.898079
 20
-33.158927
 30
0.0
  0
SPLINE
  5
1e1
100
AcDbEntity
  8
Layer_1
 62
7
100
AcDbSpline
 70
8
 71
3
 72
8
 73
4
 74
0
 40
0
 40
0
 40
0
 40
0
 40
1
 40
1
 40
1
 40
1
 10
10.898079
 20
-33.158927
 30
0.0
 10
10.638464
 20
-33.447452
 30
0.0
 10
10.272993
 20
-33.618433
 30
0.0
 10
9.885127
 20
-33.632824
 30
0.0
  0
SPLINE
  5
1e2
100
AcDbEntity
  8
Layer_1
 62
7
100
AcDbSpline
 70
8
 71
3
 72
8
 73
4
 74
0
 40
0
 40
0
 40
0
 40
0
 40
1
 40
1
 40
1
 40
1
 10
9.885127
 20
-33.632824
 30
0.0
 10
9.497262
 20
-33.647215
 30
0.0
 10
9.120125
 20
-33.503787
 30
0.0
 10
8.839842
 20
-33.235294
 30
0.0
  0
LWPOLYLINE
  5
1e3
100
AcDbEntity
  8
Layer_1
 62
1
100
AcDbPolyline
 90
1
 70
1
 10
33.488695
 20
1.274308
 30
0.0
  0
SPLINE
  5
1e4
100
AcDbEntity
  8
Layer_1
 62
7
100
AcDbSpline
 70
8
 71
3
 72
8
 73
4
 74
0
 40
0
 40
0
 40
0
 40
0
 40
1
 40
1
 40
1
 40
1
 10
8.839842
 20
-34.739235
 30
0.0
 10
9.096725
 20
-35.183429
 30
0.0
 10
9.096725
 20
-35.731019
 30
0.0
 10
8.839842
 20
-36.175213
 30
0.0
  0
LWPOLYLINE
  5
1e5
100
AcDbEntity
  8
Layer_1
 62
7
100
AcDbPolyline
 90
2
 70
0
 10
8.839842
 20
-33.235294
 30
0.0
 10
8.839842
 20
-34.739235
 30
0.0
  0
SPLINE
  5
1e6
100
AcDbEntity
  8
Layer_1
 62
7
100
AcDbSpline
 70
8
 71
3
 72
8
 73
4
 74
0
 40
0
 40
0
 40
0
 40
0
 40
1
 40
1
 40
1
 40
1
 10
8.839842
 20
-37.654673
 30
0.0
 10
9.121713
 20
-37.384277
 30
0.0
 10
9.501674
 20
-37.240543
 30
0.0
 10
9.891936
 20
-37.256681
 30
0.0
  0
SPLINE
  5
1e7
100
AcDbEntity
  8
Layer_1
 62
7
100
AcDbSpline
 70
8
 71
3
 72
8
 73
4
 74
0
 40
0
 40
0
 40
0
 40
0
 40
1
 40
1
 40
1
 40
1
 10
9.891936
 20
-37.256681
 30
0.0
 10
10.282198
 20
-37.272818
 30
0.0
 10
10.648995
 20
-37.447431
 30
0.0
 10
10.907579
 20
-37.740175
 30
0.0
  0
SPLINE
  5
1e8
100
AcDbEntity
  8
Layer_1
 62
7
100
AcDbSpline
 70
8
 71
3
 72
8
 73
4
 74
0
 40
0
 40
0
 40
0
 40
0
 40
1
 40
1
 40
1
 40
1
 10
10.907579
 20
-37.740175
 30
0.0
 10
11.301384
 20
-37.972054
 30
0.0
 10
11.561105
 20
-38.377729
 30
0.0
 10
11.606864
 20
-38.832433
 30
0.0
  0
SPLINE
  5
1e9
100
AcDbEntity
  8
Layer_1
 62
7
100
AcDbSpline
 70
8
 71
3
 72
8
 73
4
 74
0
 40
0
 40
0
 40
0
 40
0
 40
1
 40
1
 40
1
 40
1
 10
11.606864
 20
-38.832433
 30
0.0
 10
11.652624
 20
-39.287138
 30
0.0
 10
11.478942
 20
-39.736428
 30
0.0
 10
11.139235
 20
-40.042124
 30
0.0
  0
SPLINE
  5
1ea
100
AcDbEntity
  8
Layer_1
 62
7
100
AcDbSpline
 70
8
 71
3
 72
8
 73
4
 74
0
 40
0
 40
0
 40
0
 40
0
 40
1
 40
1
 40
1
 40
1
 10
11.139235
 20
-40.042124
 30
0.0
 10
10.845929
 20
-40.305761
 30
0.0
 10
10.582812
 20
-40.588498
 30
0.0
 10
10.319303
 20
-40.871191
 30
0.0
  0
SPLINE
  5
1eb
100
AcDbEntity
  8
Layer_1
 62
7
100
AcDbSpline
 70
8
 71
3
 72
8
 73
4
 74
0
 40
0
 40
0
 40
0
 40
0
 40
1
 40
1
 40
1
 40
1
 10
10.319303
 20
-40.871191
 30
0.0
 10
10.677214
 20
-40.789877
 30
0.0
 10
11.035444
 20
-40.709475
 30
0.0
 10
11.386238
 20
-40.596786
 30
0.0
  0
SPLINE
  5
1ec
100
AcDbEntity
  8
Layer_1
 62
7
100
AcDbSpline
 70
8
 71
3
 72
8
 73
4
 74
0
 40
0
 40
0
 40
0
 40
0
 40
1
 40
1
 40
1
 40
1
 10
11.386238
 20
-40.596786
 30
0.0
 10
11.821398
 20
-40.457063
 30
0.0
 10
12.297097
 20
-40.533113
 30
0.0
 10
12.667007
 20
-40.801541
 30
0.0
  0
SPLINE
  5
1ed
100
AcDbEntity
  8
Layer_1
 62
7
100
AcDbSpline
 70
8
 71
3
 72
8
 73
4
 74
0
 40
0
 40
0
 40
0
 40
0
 40
1
 40
1
 40
1
 40
1
 10
12.667007
 20
-40.801541
 30
0.0
 10
13.036916
 20
-41.069969
 30
0.0
 10
13.256739
 20
-41.498630
 30
0.0
 10
13.258857
 20
-41.955667
 30
0.0
  0
SPLINE
  5
1ee
100
AcDbEntity
  8
Layer_1
 62
7
100
AcDbSpline
 70
8
 71
3
 72
8
 73
4
 74
0
 40
0
 40
0
 40
0
 40
0
 40
1
 40
1
 40
1
 40
1
 10
13.258857
 20
-41.955667
 30
0.0
 10
13.487239
 20
-42.703555
 30
0.0
 10
13.074410
 20
-43.496545
 30
0.0
 10
12.330769
 20
-43.738400
 30
0.0
  0
SPLINE
  5
1ef
100
AcDbEntity
  8
Layer_1
 62
7
100
AcDbSpline
 70
8
 71
3
 72
8
 73
4
 74
0
 40
0
 40
0
 40
0
 40
0
 40
1
 40
1
 40
1
 40
1
 10
12.330769
 20
-43.738400
 30
0.0
 10
12.767628
 20
-43.990666
 30
0.0
 10
13.204553
 20
-44.242866
 30
0.0
 10
13.641419
 20
-44.495118
 30
0.0
  0
SPLINE
  5
1f0
100
AcDbEntity
  8
Layer_1
 62
7
100
AcDbSpline
 70
8
 71
3
 72
8
 73
4
 74
0
 40
0
 40
0
 40
0
 40
0
 40
1
 40
1
 40
1
 40
1
 10
13.641419
 20
-44.495118
 30
0.0
 10
14.155882
 20
-44.493858
 30
0.0
 10
14.631609
 20
-44.768251
 30
0.0
 10
14.888125
 20
-45.214203
 30
0.0
  0
SPLINE
  5
1f1
100
AcDbEntity
  8
Layer_1
 62
7
100
AcDbSpline
 70
8
 71
3
 72
8
 73
4
 74
0
 40
0
 40
0
 40
0
 40
0
 40
1
 40
1
 40
1
 40
1
 10
14.888125
 20
-45.214203
 30
0.0
 10
15.316727
 20
-45.461686
 30
0.0
 10
15.745327
 20
-45.709194
 30
0.0
 10
16.173931
 20
-45.956674
 30
0.0
  0
SPLINE
  5
1f2
100
AcDbEntity
  8
Layer_1
 62
7
100
AcDbSpline
 70
8
 71
3
 72
8
 73
4
 74
0
 40
0
 40
0
 40
0
 40
0
 40
1
 40
1
 40
1
 40
1
 10
16.173931
 20
-45.956674
 30
0.0
 10
16.077019
 20
-45.575822
 30
0.0
 10
16.140633
 20
-45.171888
 30
0.0
 10
16.349909
 20
-44.839257
 30
0.0
  0
SPLINE
  5
1f3
100
AcDbEntity
  8
Layer_1
 62
7
100
AcDbSpline
 70
8
 71
3
 72
8
 73
4
 74
0
 40
0
 40
0
 40
0
 40
0
 40
1
 40
1
 40
1
 40
1
 10
16.349909
 20
-44.839257
 30
0.0
 10
16.559184
 20
-44.506626
 30
0.0
 10
16.895786
 20
-44.274443
 30
0.0
 10
17.281060
 20
-44.196961
 30
0.0
  0
SPLINE
  5
1f4
100
AcDbEntity
  8
Layer_1
 62
7
100
AcDbSpline
 70
8
 71
3
 72
8
 73
4
 74
0
 40
0
 40
0
 40
0
 40
0
 40
1
 40
1
 40
1
 40
1
 10
17.281060
 20
-44.196961
 30
0.0
 10
17.678987
 20
-43.975202
 30
0.0
 10
18.158602
 20
-43.955677
 30
0.0
 10
18.573238
 20
-44.144358
 30
0.0
  0
SPLINE
  5
1f5
100
AcDbEntity
  8
Layer_1
 62
7
100
AcDbSpline
 70
8
 71
3
 72
8
 73
4
 74
0
 40
0
 40
0
 40
0
 40
0
 40
1
 40
1
 40
1
 40
1
 10
18.573238
 20
-44.144358
 30
0.0
 10
18.987873
 20
-44.333039
 30
0.0
 10
19.288212
 20
-44.707482
 30
0.0
 10
19.382410
 20
-45.153184
 30
0.0
  0
SPLINE
  5
1f6
100
AcDbEntity
  8
Layer_1
 62
7
100
AcDbSpline
 70
8
 71
3
 72
8
 73
4
 74
0
 40
0
 40
0
 40
0
 40
0
 40
1
 40
1
 40
1
 40
1
 10
19.382410
 20
-45.153184
 30
0.0
 10
19.464101
 20
-45.540155
 30
0.0
 10
19.577285
 20
-45.911516
 30
0.0
 10
19.691529
 20
-46.282599
 30
0.0
  0
SPLINE
  5
1f7
100
AcDbEntity
  8
Layer_1
 62
7
100
AcDbSpline
 70
8
 71
3
 72
8
 73
4
 74
0
 40
0
 40
0
 40
0
 40
0
 40
1
 40
1
 40
1
 40
1
 10
19.691529
 20
-46.282599
 30
0.0
 10
19.806033
 20
-45.914298
 30
0.0
 10
19.916451
 20
-45.545801
 30
0.0
 10
19.995898
 20
-45.172183
 30
0.0
  0
SPLINE
  5
1f8
100
AcDbEntity
  8
Layer_1
 62
7
100
AcDbSpline
 70
8
 71
3
 72
8
 73
4
 74
0
 40
0
 40
0
 40
0
 40
0
 40
1
 40
1
 40
1
 40
1
 10
19.995898
 20
-45.172183
 30
0.0
 10
20.091326
 20
-44.723433
 30
0.0
 10
20.395685
 20
-44.347420
 30
0.0
 10
20.814710
 20
-44.160600
 30
0.0
  0
SPLINE
  5
1f9
100
AcDbEntity
  8
Layer_1
 62
7
100
AcDbSpline
 70
8
 71
3
 72
8
 73
4
 74
0
 40
0
 40
0
 40
0
 40
0
 40
1
 40
1
 40
1
 40
1
 10
20.814710
 20
-44.160600
 30
0.0
 10
21.233735
 20
-43.973781
 30
0.0
 10
21.716849
 20
-43.998704
 30
0.0
 10
22.114424
 20
-44.227653
 30
0.0
  0
SPLINE
  5
1fa
100
AcDbEntity
  8
Layer_1
 62
7
100
AcDbSpline
 70
8
 71
3
 72
8
 73
4
 74
0
 40
0
 40
0
 40
0
 40
0
 40
1
 40
1
 40
1
 40
1
 10
22.114424
 20
-44.227653
 30
0.0
 10
22.496009
 20
-44.317023
 30
0.0
 10
22.824398
 20
-44.558655
 30
0.0
 10
23.023246
 20
-44.896373
 30
0.0
  0
SPLINE
  5
1fb
100
AcDbEntity
  8
Layer_1
 62
7
100
AcDbSpline
 70
8
 71
3
 72
8
 73
4
 74
0
 40
0
 40
0
 40
0
 40
0
 40
1
 40
1
 40
1
 40
1
 10
23.023246
 20
-44.896373
 30
0.0
 10
23.222094
 20
-45.234090
 30
0.0
 10
23.274077
 20
-45.638471
 30
0.0
 10
23.167109
 20
-46.015501
 30
0.0
  0
SPLINE
  5
1fc
100
AcDbEntity
  8
Layer_1
 62
7
100
AcDbSpline
 70
8
 71
3
 72
8
 73
4
 74
0
 40
0
 40
0
 40
0
 40
0
 40
1
 40
1
 40
1
 40
1
 10
23.167109
 20
-46.015501
 30
0.0
 10
23.577581
 20
-45.778505
 30
0.0
 10
23.987951
 20
-45.541435
 30
0.0
 10
24.398470
 20
-45.304454
 30
0.0
  0
SPLINE
  5
1fd
100
AcDbEntity
  8
Layer_1
 62
7
100
AcDbSpline
 70
8
 71
3
 72
8
 73
4
 74
0
 40
0
 40
0
 40
0
 40
0
 40
1
 40
1
 40
1
 40
1
 10
24.398470
 20
-45.304454
 30
0.0
 10
24.505704
 20
-44.929511
 30
0.0
 10
24.760999
 20
-44.614403
 30
0.0
 10
25.105541
 20
-44.431722
 30
0.0
  0
SPLINE
  5
1fe
100
AcDbEntity
  8
Layer_1
 62
7
100
AcDbSpline
 70
8
 71
3
 72
8
 73
4
 74
0
 40
0
 40
0
 40
0
 40
0
 40
1
 40
1
 40
1
 40
1
 10
25.105541
 20
-44.431722
 30
0.0
 10
25.450083
 20
-44.249042
 30
0.0
 10
25.854160
 20
-44.214543
 30
0.0
 10
26.224684
 20
-44.336174
 30
0.0
  0
SPLINE
  5
1ff
100
AcDbEntity
  8
Layer_1
 62
7
100
AcDbSpline
 70
8
 71
3
 72
8
 73
4
 74
0
 40
0
 40
0
 40
0
 40
0
 40
1
 40
1
 40
1
 40
1
 10
26.224684
 20
-44.336174
 30
0.0
 10
26.257063
 20
-44.321918
 30
0.0
 10
26.341170
 20
-44.279505
 30
0.0
 10
26.503475
 20
-44.129728
 30
0.0
  0
SPLINE
  5
200
100
AcDbEntity
  8
Layer_1
 62
7
100
AcDbSpline
 70
8
 71
3
 72
8
 73
4
 74
0
 40
0
 40
0
 40
0
 40
0
 40
1
 40
1
 40
1
 40
1
 10
26.503475
 20
-44.129728
 30
0.0
 10
26.581390
 20
-44.057752
 30
0.0
 10
26.667050
 20
-43.994641
 30
0.0
 10
26.758882
 20
-43.941554
 30
0.0
  0
LWPOLYLINE
  5
201
100
AcDbEntity
  8
Layer_1
 62
7
100
AcDbPolyline
 90
2
 70
0
 10
8.839842
 20
-36.175213
 30
0.0
 10
8.839842
 20
-37.654673
 30
0.0
  0
SPLINE
  5
202
100
AcDbEntity
  8
Layer_1
 62
7
100
AcDbSpline
 70
8
 71
3
 72
8
 73
4
 74
0
 40
0
 40
0
 40
0
 40
0
 40
1
 40
1
 40
1
 40
1
 10
27.091386
 20
-43.749361
 30
0.0
 10
26.661982
 20
-43.695736
 30
0.0
 10
26.279749
 20
-43.451092
 30
0.0
 10
26.051221
 20
-43.083617
 30
0.0
  0
SPLINE
  5
203
100
AcDbEntity
  8
Layer_1
 62
7
100
AcDbSpline
 70
8
 71
3
 72
8
 73
4
 74
0
 40
0
 40
0
 40
0
 40
0
 40
1
 40
1
 40
1
 40
1
 10
26.051221
 20
-43.083617
 30
0.0
 10
25.822693
 20
-42.716143
 30
0.0
 10
25.772305
 20
-42.265128
 30
0.0
 10
25.914102
 20
-41.856281
 30
0.0
  0
SPLINE
  5
204
100
AcDbEntity
  8
Layer_1
 62
7
100
AcDbSpline
 70
8
 71
3
 72
8
 73
4
 74
0
 40
0
 40
0
 40
0
 40
0
 40
1
 40
1
 40
1
 40
1
 10
25.914102
 20
-41.856281
 30
0.0
 10
25.924416
 20
-41.400311
 30
0.0
 10
26.150990
 20
-40.976430
 30
0.0
 10
26.524390
 20
-40.714538
 30
0.0
  0
SPLINE
  5
205
100
AcDbEntity
  8
Layer_1
 62
7
100
AcDbSpline
 70
8
 71
3
 72
8
 73
4
 74
0
 40
0
 40
0
 40
0
 40
0
 40
1
 40
1
 40
1
 40
1
 10
26.524390
 20
-40.714538
 30
0.0
 10
26.897790
 20
-40.452646
 30
0.0
 10
27.373494
 20
-40.383969
 30
0.0
 10
27.805721
 20
-40.529553
 30
0.0
  0
SPLINE
  5
206
100
AcDbEntity
  8
Layer_1
 62
7
100
AcDbSpline
 70
8
 71
3
 72
8
 73
4
 74
0
 40
0
 40
0
 40
0
 40
0
 40
1
 40
1
 40
1
 40
1
 10
27.805721
 20
-40.529553
 30
0.0
 10
28.227162
 20
-40.671630
 30
0.0
 10
28.650838
 20
-40.778885
 30
0.0
 10
29.076544
 20
-40.872654
 30
0.0
  0
SPLINE
  5
207
100
AcDbEntity
  8
Layer_1
 62
7
100
AcDbSpline
 70
8
 71
3
 72
8
 73
4
 74
0
 40
0
 40
0
 40
0
 40
0
 40
1
 40
1
 40
1
 40
1
 10
29.076544
 20
-40.872654
 30
0.0
 10
28.859760
 20
-40.639679
 30
0.0
 10
28.651530
 20
-40.400953
 30
0.0
 10
28.415189
 20
-40.181337
 30
0.0
  0
SPLINE
  5
208
100
AcDbEntity
  8
Layer_1
 62
7
100
AcDbSpline
 70
8
 71
3
 72
8
 73
4
 74
0
 40
0
 40
0
 40
0
 40
0
 40
1
 40
1
 40
1
 40
1
 10
28.415189
 20
-40.181337
 30
0.0
 10
28.083607
 20
-39.873009
 30
0.0
 10
27.917097
 20
-39.426207
 30
0.0
 10
27.966025
 20
-38.976075
 30
0.0
  0
SPLINE
  5
209
100
AcDbEntity
  8
Layer_1
 62
7
100
AcDbSpline
 70
8
 71
3
 72
8
 73
4
 74
0
 40
0
 40
0
 40
0
 40
0
 40
1
 40
1
 40
1
 40
1
 10
27.966025
 20
-38.976075
 30
0.0
 10
28.014952
 20
-38.525942
 30
0.0
 10
28.273571
 20
-38.125349
 30
0.0
 10
28.663655
 20
-37.895464
 30
0.0
  0
SPLINE
  5
20a
100
AcDbEntity
  8
Layer_1
 62
7
100
AcDbSpline
 70
8
 71
3
 72
8
 73
4
 74
0
 40
0
 40
0
 40
0
 40
0
 40
1
 40
1
 40
1
 40
1
 10
28.663655
 20
-37.895464
 30
0.0
 10
29.172578
 20
-37.348286
 30
0.0
 10
30.016364
 20
-37.283575
 30
0.0
 10
30.602773
 20
-37.746751
 30
0.0
  0
LWPOLYLINE
  5
20b
100
AcDbEntity
  8
Layer_1
 62
7
100
AcDbPolyline
 90
2
 70
0
 10
26.758882
 20
-43.941554
 30
0.0
 10
27.091386
 20
-43.749361
 30
0.0
  0
SPLINE
  5
20c
100
AcDbEntity
  8
Layer_1
 62
7
100
AcDbSpline
 70
8
 71
3
 72
8
 73
4
 74
0
 40
0
 40
0
 40
0
 40
0
 40
1
 40
1
 40
1
 40
1
 10
30.602773
 20
-36.158039
 30
0.0
 10
30.345890
 20
-35.713845
 30
0.0
 10
30.345890
 20
-35.166255
 30
0.0
 10
30.602773
 20
-34.722061
 30
0.0
  0
LWPOLYLINE
  5
20d
100
AcDbEntity
  8
Layer_1
 62
7
100
AcDbPolyline
 90
2
 70
0
 10
30.602773
 20
-37.746751
 30
0.0
 10
30.602773
 20
-36.158039
 30
0.0
  0
SPLINE
  5
20e
100
AcDbEntity
  8
Layer_1
 62
7
100
AcDbSpline
 70
8
 71
3
 72
8
 73
4
 74
0
 40
0
 40
0
 40
0
 40
0
 40
1
 40
1
 40
1
 40
1
 10
30.602773
 20
-33.173908
 30
0.0
 10
30.017709
 20
-33.676289
 30
0.0
 10
29.140115
 20
-33.626091
 30
0.0
 10
28.616153
 20
-33.060272
 30
0.0
  0
SPLINE
  5
20f
100
AcDbEntity
  8
Layer_1
 62
7
100
AcDbSpline
 70
8
 71
3
 72
8
 73
4
 74
0
 40
0
 40
0
 40
0
 40
0
 40
1
 40
1
 40
1
 40
1
 10
28.616153
 20
-33.060272
 30
0.0
 10
28.224406
 20
-32.830370
 30
0.0
 10
27.964724
 20
-32.428483
 30
0.0
 10
27.916105
 20
-31.976867
 30
0.0
  0
SPLINE
  5
210
100
AcDbEntity
  8
Layer_1
 62
7
100
AcDbSpline
 70
8
 71
3
 72
8
 73
4
 74
0
 40
0
 40
0
 40
0
 40
0
 40
1
 40
1
 40
1
 40
1
 10
27.916105
 20
-31.976867
 30
0.0
 10
27.867486
 20
-31.525251
 30
0.0
 10
28.035678
 20
-31.077300
 30
0.0
 10
28.369516
 20
-30.769285
 30
0.0
  0
SPLINE
  5
211
100
AcDbEntity
  8
Layer_1
 62
7
100
AcDbSpline
 70
8
 71
3
 72
8
 73
4
 74
0
 40
0
 40
0
 40
0
 40
0
 40
1
 40
1
 40
1
 40
1
 10
28.369516
 20
-30.769285
 30
0.0
 10
28.623169
 20
-30.535277
 30
0.0
 10
28.848410
 20
-30.281360
 30
0.0
 10
29.079833
 20
-30.031564
 30
0.0
  0
SPLINE
  5
212
100
AcDbEntity
  8
Layer_1
 62
7
100
AcDbSpline
 70
8
 71
3
 72
8
 73
4
 74
0
 40
0
 40
0
 40
0
 40
0
 40
1
 40
1
 40
1
 40
1
 10
29.079833
 20
-30.031564
 30
0.0
 10
28.645880
 20
-30.129493
 30
0.0
 10
28.218075
 20
-30.242997
 30
0.0
 10
27.798047
 20
-30.385627
 30
0.0
  0
SPLINE
  5
213
100
AcDbEntity
  8
Layer_1
 62
7
100
AcDbSpline
 70
8
 71
3
 72
8
 73
4
 74
0
 40
0
 40
0
 40
0
 40
0
 40
1
 40
1
 40
1
 40
1
 10
27.798047
 20
-30.385627
 30
0.0
 10
27.365217
 20
-30.532432
 30
0.0
 10
26.888334
 20
-30.464149
 30
0.0
 10
26.514092
 20
-30.201783
 30
0.0
  0
SPLINE
  5
214
100
AcDbEntity
  8
Layer_1
 62
7
100
AcDbSpline
 70
8
 71
3
 72
8
 73
4
 74
0
 40
0
 40
0
 40
0
 40
0
 40
1
 40
1
 40
1
 40
1
 10
26.514092
 20
-30.201783
 30
0.0
 10
26.139849
 20
-29.939416
 30
0.0
 10
25.913067
 20
-29.514386
 30
0.0
 10
25.903506
 20
-29.057438
 30
0.0
  0
SPLINE
  5
215
100
AcDbEntity
  8
Layer_1
 62
7
100
AcDbSpline
 70
8
 71
3
 72
8
 73
4
 74
0
 40
0
 40
0
 40
0
 40
0
 40
1
 40
1
 40
1
 40
1
 10
25.903506
 20
-29.057438
 30
0.0
 10
25.763776
 20
-28.636086
 30
0.0
 10
25.827038
 20
-28.173778
 30
0.0
 10
26.074827
 20
-27.805455
 30
0.0
  0
SPLINE
  5
216
100
AcDbEntity
  8
Layer_1
 62
7
100
AcDbSpline
 70
8
 71
3
 72
8
 73
4
 74
0
 40
0
 40
0
 40
0
 40
0
 40
1
 40
1
 40
1
 40
1
 10
26.074827
 20
-27.805455
 30
0.0
 10
26.322616
 20
-27.437131
 30
0.0
 10
26.726999
 20
-27.204312
 30
0.0
 10
27.169944
 20
-27.174954
 30
0.0
  0
SPLINE
  5
217
100
AcDbEntity
  8
Layer_1
 62
7
100
AcDbSpline
 70
8
 71
3
 72
8
 73
4
 74
0
 40
0
 40
0
 40
0
 40
0
 40
1
 40
1
 40
1
 40
1
 10
27.169944
 20
-27.174954
 30
0.0
 10
26.708118
 20
-26.908297
 30
0.0
 10
26.246203
 20
-26.641741
 30
0.0
 10
25.784389
 20
-26.375118
 30
0.0
  0
SPLINE
  5
218
100
AcDbEntity
  8
Layer_1
 62
7
100
AcDbSpline
 70
8
 71
3
 72
8
 73
4
 74
0
 40
0
 40
0
 40
0
 40
0
 40
1
 40
1
 40
1
 40
1
 10
25.784389
 20
-26.375118
 30
0.0
 10
25.271553
 20
-26.375650
 30
0.0
 10
24.797461
 20
-26.102311
 30
0.0
 10
24.540971
 20
-25.658223
 30
0.0
  0
SPLINE
  5
219
100
AcDbEntity
  8
Layer_1
 62
7
100
AcDbSpline
 70
8
 71
3
 72
8
 73
4
 74
0
 40
0
 40
0
 40
0
 40
0
 40
1
 40
1
 40
1
 40
1
 10
24.540971
 20
-25.658223
 30
0.0
 10
24.073044
 20
-25.389347
 30
0.0
 10
23.609847
 20
-25.123118
 30
0.0
 10
23.144454
 20
-24.853272
 30
0.0
  0
SPLINE
  5
21a
100
AcDbEntity
  8
Layer_1
 62
7
100
AcDbSpline
 70
8
 71
3
 72
8
 73
4
 74
0
 40
0
 40
0
 40
0
 40
0
 40
1
 40
1
 40
1
 40
1
 10
23.144454
 20
-24.853272
 30
0.0
 10
23.145763
 20
-24.855573
 30
0.0
 10
23.147129
 20
-24.857911
 30
0.0
 10
23.148476
 20
-24.860212
 30
0.0
  0
SPLINE
  5
21b
100
AcDbEntity
  8
Layer_1
 62
7
100
AcDbSpline
 70
8
 71
3
 72
8
 73
4
 74
0
 40
0
 40
0
 40
0
 40
0
 40
1
 40
1
 40
1
 40
1
 10
23.148476
 20
-24.860212
 30
0.0
 10
23.388438
 20
-25.273354
 30
0.0
 10
23.406910
 20
-25.778863
 30
0.0
 10
23.197742
 20
-26.208417
 30
0.0
  0
SPLINE
  5
21c
100
AcDbEntity
  8
Layer_1
 62
7
100
AcDbSpline
 70
8
 71
3
 72
8
 73
4
 74
0
 40
0
 40
0
 40
0
 40
0
 40
1
 40
1
 40
1
 40
1
 10
23.197742
 20
-26.208417
 30
0.0
 10
22.988574
 20
-26.637970
 30
0.0
 10
22.579234
 20
-26.935159
 30
0.0
 10
22.106023
 20
-27.001027
 30
0.0
  0
SPLINE
  5
21d
100
AcDbEntity
  8
Layer_1
 62
7
100
AcDbSpline
 70
8
 71
3
 72
8
 73
4
 74
0
 40
0
 40
0
 40
0
 40
0
 40
1
 40
1
 40
1
 40
1
 10
22.106023
 20
-27.001027
 30
0.0
 10
21.704336
 20
-27.208274
 30
0.0
 10
21.228453
 20
-27.214033
 30
0.0
 10
20.821869
 20
-27.016565
 30
0.0
  0
SPLINE
  5
21e
100
AcDbEntity
  8
Layer_1
 62
7
100
AcDbSpline
 70
8
 71
3
 72
8
 73
4
 74
0
 40
0
 40
0
 40
0
 40
0
 40
1
 40
1
 40
1
 40
1
 10
20.821869
 20
-27.016565
 30
0.0
 10
20.415285
 20
-26.819098
 30
0.0
 10
20.125581
 20
-26.441514
 30
0.0
 10
20.040113
 20
-25.997668
 30
0.0
  0
SPLINE
  5
21f
100
AcDbEntity
  8
Layer_1
 62
7
100
AcDbSpline
 70
8
 71
3
 72
8
 73
4
 74
0
 40
0
 40
0
 40
0
 40
0
 40
1
 40
1
 40
1
 40
1
 10
20.040113
 20
-25.997668
 30
0.0
 10
19.949602
 20
-25.527019
 30
0.0
 10
19.826508
 20
-25.068493
 30
0.0
 10
19.685686
 20
-24.615403
 30
0.0
  0
LWPOLYLINE
  5
220
100
AcDbEntity
  8
Layer_1
 62
7
100
AcDbPolyline
 90
2
 70
0
 10
30.602773
 20
-34.722061
 30
0.0
 10
30.602773
 20
-33.173908
 30
0.0
  0
SPLINE
  5
221
100
AcDbEntity
  8
Layer_1
 62
7
100
AcDbSpline
 70
8
 71
3
 72
8
 73
4
 74
0
 40
0
 40
0
 40
0
 40
0
 40
1
 40
1
 40
1
 40
1
 10
15.451192
 20
-26.642948
 30
0.0
 10
15.565988
 20
-26.641303
 30
0.0
 10
15.680566
 20
-26.653447
 30
0.0
 10
15.792466
 20
-26.679121
 30
0.0
  0
SPLINE
  5
222
100
AcDbEntity
  8
Layer_1
 62
7
100
AcDbSpline
 70
8
 71
3
 72
8
 73
4
 74
0
 40
0
 40
0
 40
0
 40
0
 40
1
 40
1
 40
1
 40
1
 10
15.792466
 20
-26.679121
 30
0.0
 10
16.255470
 20
-26.722253
 30
0.0
 10
16.668825
 20
-26.987185
 30
0.0
 10
16.901385
 20
-27.389862
 30
0.0
  0
SPLINE
  5
223
100
AcDbEntity
  8
Layer_1
 62
7
100
AcDbSpline
 70
8
 71
3
 72
8
 73
4
 74
0
 40
0
 40
0
 40
0
 40
0
 40
1
 40
1
 40
1
 40
1
 10
16.901385
 20
-27.389862
 30
0.0
 10
17.133944
 20
-27.792540
 30
0.0
 10
17.156840
 20
-28.282976
 30
0.0
 10
16.962807
 20
-28.705568
 30
0.0
  0
SPLINE
  5
224
100
AcDbEntity
  8
Layer_1
 62
7
100
AcDbSpline
 70
8
 71
3
 72
8
 73
4
 74
0
 40
0
 40
0
 40
0
 40
0
 40
1
 40
1
 40
1
 40
1
 10
16.962807
 20
-28.705568
 30
0.0
 10
16.742529
 20
-29.427379
 30
0.0
 10
16.000554
 20
-29.854992
 30
0.0
 10
15.265572
 20
-29.683713
 30
0.0
  0
SPLINE
  5
225
100
AcDbEntity
  8
Layer_1
 62
7
100
AcDbSpline
 70
8
 71
3
 72
8
 73
4
 74
0
 40
0
 40
0
 40
0
 40
0
 40
1
 40
1
 40
1
 40
1
 10
15.265572
 20
-29.683713
 30
0.0
 10
15.265073
 20
-29.683589
 30
0.0
 10
15.264575
 20
-29.683464
 30
0.0
 10
15.264076
 20
-29.683339
 30
0.0
  0
SPLINE
  5
226
100
AcDbEntity
  8
Layer_1
 62
7
100
AcDbSpline
 70
8
 71
3
 72
8
 73
4
 74
0
 40
0
 40
0
 40
0
 40
0
 40
1
 40
1
 40
1
 40
1
 10
15.264076
 20
-29.683339
 30
0.0
 10
14.803004
 20
-29.638030
 30
0.0
 10
14.392217
 20
-29.372786
 30
0.0
 10
14.161189
 20
-28.971206
 30
0.0
  0
SPLINE
  5
227
100
AcDbEntity
  8
Layer_1
 62
7
100
AcDbSpline
 70
8
 71
3
 72
8
 73
4
 74
0
 40
0
 40
0
 40
0
 40
0
 40
1
 40
1
 40
1
 40
1
 10
14.161189
 20
-28.971206
 30
0.0
 10
13.930160
 20
-28.569626
 30
0.0
 10
13.907350
 20
-28.081179
 30
0.0
 10
14.099946
 20
-27.659816
 30
0.0
  0
SPLINE
  5
228
100
AcDbEntity
  8
Layer_1
 62
7
100
AcDbSpline
 70
8
 71
3
 72
8
 73
4
 74
0
 40
0
 40
0
 40
0
 40
0
 40
1
 40
1
 40
1
 40
1
 10
14.099946
 20
-27.659816
 30
0.0
 10
14.281347
 20
-27.063123
 30
0.0
 10
14.827566
 20
-26.652057
 30
0.0
 10
15.451157
 20
-26.642938
 30
0.0
  0
LWPOLYLINE
  5
229
100
AcDbEntity
  8
Layer_1
 62
7
100
AcDbPolyline
 90
1
 70
1
 10
19.685686
 20
-24.615403
 30
0.0
  0
SPLINE
  5
22a
100
AcDbEntity
  8
Layer_1
 62
7
100
AcDbSpline
 70
8
 71
3
 72
8
 73
4
 74
0
 40
0
 40
0
 40
0
 40
0
 40
1
 40
1
 40
1
 40
1
 10
23.922001
 20
-26.729178
 30
0.0
 10
24.551673
 20
-26.728644
 30
0.0
 10
25.108047
 20
-27.138885
 30
0.0
 10
25.293671
 20
-27.740575
 30
0.0
  0
SPLINE
  5
22b
100
AcDbEntity
  8
Layer_1
 62
7
100
AcDbSpline
 70
8
 71
3
 72
8
 73
4
 74
0
 40
0
 40
0
 40
0
 40
0
 40
1
 40
1
 40
1
 40
1
 10
25.293671
 20
-27.740575
 30
0.0
 10
25.485054
 20
-28.154195
 30
0.0
 10
25.468456
 20
-28.634156
 30
0.0
 10
25.248957
 20
-29.033567
 30
0.0
  0
SPLINE
  5
22c
100
AcDbEntity
  8
Layer_1
 62
7
100
AcDbSpline
 70
8
 71
3
 72
8
 73
4
 74
0
 40
0
 40
0
 40
0
 40
0
 40
1
 40
1
 40
1
 40
1
 10
25.248957
 20
-29.033567
 30
0.0
 10
25.029458
 20
-29.432978
 30
0.0
 10
24.633189
 20
-29.704288
 30
0.0
 10
24.181428
 20
-29.764464
 30
0.0
  0
SPLINE
  5
22d
100
AcDbEntity
  8
Layer_1
 62
7
100
AcDbSpline
 70
8
 71
3
 72
8
 73
4
 74
0
 40
0
 40
0
 40
0
 40
0
 40
1
 40
1
 40
1
 40
1
 10
24.181428
 20
-29.764464
 30
0.0
 10
23.747932
 20
-29.907686
 30
0.0
 10
23.272146
 20
-29.835962
 30
0.0
 10
22.900136
 20
-29.571312
 30
0.0
  0
SPLINE
  5
22e
100
AcDbEntity
  8
Layer_1
 62
7
100
AcDbSpline
 70
8
 71
3
 72
8
 73
4
 74
0
 40
0
 40
0
 40
0
 40
0
 40
1
 40
1
 40
1
 40
1
 10
22.900136
 20
-29.571312
 30
0.0
 10
22.528126
 20
-29.306663
 30
0.0
 10
22.304341
 20
-28.880709
 30
0.0
 10
22.297483
 20
-28.424218
 30
0.0
  0
SPLINE
  5
22f
100
AcDbEntity
  8
Layer_1
 62
7
100
AcDbSpline
 70
8
 71
3
 72
8
 73
4
 74
0
 40
0
 40
0
 40
0
 40
0
 40
1
 40
1
 40
1
 40
1
 10
22.297483
 20
-28.424218
 30
0.0
 10
22.232843
 20
-28.026426
 30
0.0
 10
22.338553
 20
-27.619793
 30
0.0
 10
22.588739
 20
-27.303844
 30
0.0
  0
SPLINE
  5
230
100
AcDbEntity
  8
Layer_1
 62
7
100
AcDbSpline
 70
8
 71
3
 72
8
 73
4
 74
0
 40
0
 40
0
 40
0
 40
0
 40
1
 40
1
 40
1
 40
1
 10
22.588739
 20
-27.303844
 30
0.0
 10
22.838926
 20
-26.987896
 30
0.0
 10
23.210501
 20
-26.791790
 30
0.0
 10
23.612518
 20
-26.763526
 30
0.0
  0
SPLINE
  5
231
100
AcDbEntity
  8
Layer_1
 62
7
100
AcDbSpline
 70
8
 71
3
 72
8
 73
4
 74
0
 40
0
 40
0
 40
0
 40
0
 40
1
 40
1
 40
1
 40
1
 10
23.612518
 20
-26.763526
 30
0.0
 10
23.714127
 20
-26.740879
 30
0.0
 10
23.817900
 20
-26.729361
 30
0.0
 10
23.922001
 20
-26.729178
 30
0.0
  0
LWPOLYLINE
  5
232
100
AcDbEntity
  8
Layer_1
 62
7
100
AcDbPolyline
 90
1
 70
1
 10
15.451157
 20
-26.642938
 30
0.0
  0
SPLINE
  5
233
100
AcDbEntity
  8
Layer_1
 62
7
100
AcDbSpline
 70
8
 71
3
 72
8
 73
4
 74
0
 40
0
 40
0
 40
0
 40
0
 40
1
 40
1
 40
1
 40
1
 10
16.899959
 20
-28.826876
 30
0.0
 10
16.899337
 20
-28.828093
 30
0.0
 10
16.898714
 20
-28.829309
 30
0.0
 10
16.898088
 20
-28.830524
 30
0.0
  0
LWPOLYLINE
  5
234
100
AcDbEntity
  8
Layer_1
 62
7
100
AcDbPolyline
 90
1
 70
1
 10
23.922001
 20
-26.729178
 30
0.0
  0
SPLINE
  5
235
100
AcDbEntity
  8
Layer_1
 62
7
100
AcDbSpline
 70
8
 71
3
 72
8
 73
4
 74
0
 40
0
 40
0
 40
0
 40
0
 40
1
 40
1
 40
1
 40
1
 10
16.899211
 20
-28.829027
 30
0.0
 10
16.899585
 20
-28.828279
 30
0.0
 10
16.899585
 20
-28.827531
 30
0.0
 10
16.899959
 20
-28.826838
 30
0.0
  0
LWPOLYLINE
  5
236
100
AcDbEntity
  8
Layer_1
 62
7
100
AcDbPolyline
 90
2
 70
0
 10
16.898088
 20
-28.830524
 30
0.0
 10
16.899211
 20
-28.829027
 30
0.0
  0
SPLINE
  5
237
100
AcDbEntity
  8
Layer_1
 62
7
100
AcDbSpline
 70
8
 71
3
 72
8
 73
4
 74
0
 40
0
 40
0
 40
0
 40
0
 40
1
 40
1
 40
1
 40
1
 10
17.922316
 20
-29.759714
 30
0.0
 10
18.611402
 20
-29.753961
 30
0.0
 10
19.207171
 20
-30.239107
 30
0.0
 10
19.341121
 20
-30.915074
 30
0.0
  0
SPLINE
  5
238
100
AcDbEntity
  8
Layer_1
 62
7
100
AcDbSpline
 70
8
 71
3
 72
8
 73
4
 74
0
 40
0
 40
0
 40
0
 40
0
 40
1
 40
1
 40
1
 40
1
 10
19.341121
 20
-30.915074
 30
0.0
 10
19.431235
 20
-31.370207
 30
0.0
 10
19.552689
 20
-31.811854
 30
0.0
 10
19.694087
 20
-32.244725
 30
0.0
  0
SPLINE
  5
239
100
AcDbEntity
  8
Layer_1
 62
7
100
AcDbSpline
 70
8
 71
3
 72
8
 73
4
 74
0
 40
0
 40
0
 40
0
 40
0
 40
1
 40
1
 40
1
 40
1
 10
19.694087
 20
-32.244725
 30
0.0
 10
19.814145
 20
-31.877663
 30
0.0
 10
19.916055
 20
-31.508401
 30
0.0
 10
19.996629
 20
-31.136865
 30
0.0
  0
SPLINE
  5
23a
100
AcDbEntity
  8
Layer_1
 62
7
100
AcDbSpline
 70
8
 71
3
 72
8
 73
4
 74
0
 40
0
 40
0
 40
0
 40
0
 40
1
 40
1
 40
1
 40
1
 10
19.996629
 20
-31.136865
 30
0.0
 10
20.085438
 20
-30.727812
 30
0.0
 10
20.348519
 20
-30.377972
 30
0.0
 10
20.716855
 20
-30.179124
 30
0.0
  0
SPLINE
  5
23b
100
AcDbEntity
  8
Layer_1
 62
7
100
AcDbSpline
 70
8
 71
3
 72
8
 73
4
 74
0
 40
0
 40
0
 40
0
 40
0
 40
1
 40
1
 40
1
 40
1
 10
20.716855
 20
-30.179124
 30
0.0
 10
21.085190
 20
-29.980276
 30
0.0
 10
21.522015
 20
-29.952268
 30
0.0
 10
21.912729
 20
-30.102449
 30
0.0
  0
SPLINE
  5
23c
100
AcDbEntity
  8
Layer_1
 62
7
100
AcDbSpline
 70
8
 71
3
 72
8
 73
4
 74
0
 40
0
 40
0
 40
0
 40
0
 40
1
 40
1
 40
1
 40
1
 10
21.912729
 20
-30.102449
 30
0.0
 10
22.423565
 20
-30.061934
 30
0.0
 10
22.917206
 20
-30.297055
 30
0.0
 10
23.207666
 20
-30.719226
 30
0.0
  0
SPLINE
  5
23d
100
AcDbEntity
  8
Layer_1
 62
7
100
AcDbSpline
 70
8
 71
3
 72
8
 73
4
 74
0
 40
0
 40
0
 40
0
 40
0
 40
1
 40
1
 40
1
 40
1
 10
23.207666
 20
-30.719226
 30
0.0
 10
23.570326
 20
-30.968212
 30
0.0
 10
23.798658
 20
-31.369861
 30
0.0
 10
23.827102
 20
-31.808846
 30
0.0
  0
SPLINE
  5
23e
100
AcDbEntity
  8
Layer_1
 62
7
100
AcDbSpline
 70
8
 71
3
 72
8
 73
4
 74
0
 40
0
 40
0
 40
0
 40
0
 40
1
 40
1
 40
1
 40
1
 10
23.827102
 20
-31.808846
 30
0.0
 10
23.855546
 20
-32.247830
 30
0.0
 10
23.680953
 20
-32.675586
 30
0.0
 10
23.353457
 20
-32.969290
 30
0.0
  0
SPLINE
  5
23f
100
AcDbEntity
  8
Layer_1
 62
7
100
AcDbSpline
 70
8
 71
3
 72
8
 73
4
 74
0
 40
0
 40
0
 40
0
 40
0
 40
1
 40
1
 40
1
 40
1
 10
23.353457
 20
-32.969290
 30
0.0
 10
23.042866
 20
-33.247670
 30
0.0
 10
22.752211
 20
-33.542692
 30
0.0
 10
22.477255
 20
-33.850609
 30
0.0
  0
SPLINE
  5
240
100
AcDbEntity
  8
Layer_1
 62
7
100
AcDbSpline
 70
8
 71
3
 72
8
 73
4
 74
0
 40
0
 40
0
 40
0
 40
0
 40
1
 40
1
 40
1
 40
1
 10
22.477255
 20
-33.850609
 30
0.0
 10
22.879099
 20
-33.764562
 30
0.0
 10
23.275666
 20
-33.661996
 30
0.0
 10
23.664038
 20
-33.534548
 30
0.0
  0
SPLINE
  5
241
100
AcDbEntity
  8
Layer_1
 62
7
100
AcDbSpline
 70
8
 71
3
 72
8
 73
4
 74
0
 40
0
 40
0
 40
0
 40
0
 40
1
 40
1
 40
1
 40
1
 10
23.664038
 20
-33.534548
 30
0.0
 10
24.080472
 20
-33.397973
 30
0.0
 10
24.536495
 20
-33.459298
 30
0.0
 10
24.902054
 20
-33.701034
 30
0.0
  0
SPLINE
  5
242
100
AcDbEntity
  8
Layer_1
 62
7
100
AcDbSpline
 70
8
 71
3
 72
8
 73
4
 74
0
 40
0
 40
0
 40
0
 40
0
 40
1
 40
1
 40
1
 40
1
 10
24.902054
 20
-33.701034
 30
0.0
 10
25.267613
 20
-33.942770
 30
0.0
 10
25.502580
 20
-34.338382
 30
0.0
 10
25.539944
 20
-34.775043
 30
0.0
  0
SPLINE
  5
243
100
AcDbEntity
  8
Layer_1
 62
7
100
AcDbSpline
 70
8
 71
3
 72
8
 73
4
 74
0
 40
0
 40
0
 40
0
 40
0
 40
1
 40
1
 40
1
 40
1
 10
25.539944
 20
-34.775043
 30
0.0
 10
25.765693
 20
-35.232074
 30
0.0
 10
25.731890
 20
-35.774586
 30
0.0
 10
25.451154
 20
-36.200059
 30
0.0
  0
SPLINE
  5
244
100
AcDbEntity
  8
Layer_1
 62
7
100
AcDbSpline
 70
8
 71
3
 72
8
 73
4
 74
0
 40
0
 40
0
 40
0
 40
0
 40
1
 40
1
 40
1
 40
1
 10
25.451154
 20
-36.200059
 30
0.0
 10
25.390345
 20
-36.617888
 30
0.0
 10
25.148508
 20
-36.987692
 30
0.0
 10
24.790101
 20
-37.210904
 30
0.0
  0
SPLINE
  5
245
100
AcDbEntity
  8
Layer_1
 62
7
100
AcDbSpline
 70
8
 71
3
 72
8
 73
4
 74
0
 40
0
 40
0
 40
0
 40
0
 40
1
 40
1
 40
1
 40
1
 10
24.790101
 20
-37.210904
 30
0.0
 10
24.431694
 20
-37.434117
 30
0.0
 10
23.993139
 20
-37.488055
 30
0.0
 10
23.591326
 20
-37.358343
 30
0.0
  0
SPLINE
  5
246
100
AcDbEntity
  8
Layer_1
 62
7
100
AcDbSpline
 70
8
 71
3
 72
8
 73
4
 74
0
 40
0
 40
0
 40
0
 40
0
 40
1
 40
1
 40
1
 40
1
 10
23.591326
 20
-37.358343
 30
0.0
 10
23.221689
 20
-37.238856
 30
0.0
 10
22.844340
 20
-37.141019
 30
0.0
 10
22.461909
 20
-37.057993
 30
0.0
  0
SPLINE
  5
247
100
AcDbEntity
  8
Layer_1
 62
7
100
AcDbSpline
 70
8
 71
3
 72
8
 73
4
 74
0
 40
0
 40
0
 40
0
 40
0
 40
1
 40
1
 40
1
 40
1
 10
22.461909
 20
-37.057993
 30
0.0
 10
22.751878
 20
-37.379215
 30
0.0
 10
23.054102
 20
-37.687475
 30
0.0
 10
23.377206
 20
-37.973293
 30
0.0
  0
SPLINE
  5
248
100
AcDbEntity
  8
Layer_1
 62
7
100
AcDbSpline
 70
8
 71
3
 72
8
 73
4
 74
0
 40
0
 40
0
 40
0
 40
0
 40
1
 40
1
 40
1
 40
1
 10
23.377206
 20
-37.973293
 30
0.0
 10
23.711857
 20
-38.269378
 30
0.0
 10
23.889387
 20
-38.704522
 30
0.0
 10
23.857364
 20
-39.150203
 30
0.0
  0
SPLINE
  5
249
100
AcDbEntity
  8
Layer_1
 62
7
100
AcDbSpline
 70
8
 71
3
 72
8
 73
4
 74
0
 40
0
 40
0
 40
0
 40
0
 40
1
 40
1
 40
1
 40
1
 10
23.857364
 20
-39.150203
 30
0.0
 10
23.825340
 20
-39.595885
 30
0.0
 10
23.587422
 20
-40.001177
 30
0.0
 10
23.213879
 20
-40.246377
 30
0.0
  0
SPLINE
  5
24a
100
AcDbEntity
  8
Layer_1
 62
7
100
AcDbSpline
 70
8
 71
3
 72
8
 73
4
 74
0
 40
0
 40
0
 40
0
 40
0
 40
1
 40
1
 40
1
 40
1
 10
23.213879
 20
-40.246377
 30
0.0
 10
22.889793
 20
-40.663264
 30
0.0
 10
22.362842
 20
-40.868346
 30
0.0
 10
21.842209
 20
-40.780211
 30
0.0
  0
SPLINE
  5
24b
100
AcDbEntity
  8
Layer_1
 62
7
100
AcDbSpline
 70
8
 71
3
 72
8
 73
4
 74
0
 40
0
 40
0
 40
0
 40
0
 40
1
 40
1
 40
1
 40
1
 10
21.842209
 20
-40.780211
 30
0.0
 10
21.456503
 20
-40.909086
 30
0.0
 10
21.034219
 20
-40.868158
 30
0.0
 10
20.680440
 20
-40.667612
 30
0.0
  0
SPLINE
  5
24c
100
AcDbEntity
  8
Layer_1
 62
7
100
AcDbSpline
 70
8
 71
3
 72
8
 73
4
 74
0
 40
0
 40
0
 40
0
 40
0
 40
1
 40
1
 40
1
 40
1
 10
20.680440
 20
-40.667612
 30
0.0
 10
20.326662
 20
-40.467065
 30
0.0
 10
20.074655
 20
-40.125757
 30
0.0
 10
19.987129
 20
-39.728621
 30
0.0
  0
SPLINE
  5
24d
100
AcDbEntity
  8
Layer_1
 62
7
100
AcDbSpline
 70
8
 71
3
 72
8
 73
4
 74
0
 40
0
 40
0
 40
0
 40
0
 40
1
 40
1
 40
1
 40
1
 10
19.987129
 20
-39.728621
 30
0.0
 10
19.907830
 20
-39.368433
 30
0.0
 10
19.807169
 20
-39.010747
 30
0.0
 10
19.691164
 20
-38.655108
 30
0.0
  0
SPLINE
  5
24e
100
AcDbEntity
  8
Layer_1
 62
7
100
AcDbSpline
 70
8
 71
3
 72
8
 73
4
 74
0
 40
0
 40
0
 40
0
 40
0
 40
1
 40
1
 40
1
 40
1
 10
19.691164
 20
-38.655108
 30
0.0
 10
19.561444
 20
-39.046480
 30
0.0
 10
19.449391
 20
-39.439033
 30
0.0
 10
19.365968
 20
-39.833853
 30
0.0
  0
SPLINE
  5
24f
100
AcDbEntity
  8
Layer_1
 62
7
100
AcDbSpline
 70
8
 71
3
 72
8
 73
4
 74
0
 40
0
 40
0
 40
0
 40
0
 40
1
 40
1
 40
1
 40
1
 10
19.365968
 20
-39.833853
 30
0.0
 10
19.276829
 20
-40.255658
 30
0.0
 10
19.002670
 20
-40.614988
 30
0.0
 10
18.619386
 20
-40.812369
 30
0.0
  0
SPLINE
  5
250
100
AcDbEntity
  8
Layer_1
 62
7
100
AcDbSpline
 70
8
 71
3
 72
8
 73
4
 74
0
 40
0
 40
0
 40
0
 40
0
 40
1
 40
1
 40
1
 40
1
 10
18.619386
 20
-40.812369
 30
0.0
 10
18.236102
 20
-41.009750
 30
0.0
 10
17.784359
 20
-41.024239
 30
0.0
 10
17.389214
 20
-40.851827
 30
0.0
  0
SPLINE
  5
251
100
AcDbEntity
  8
Layer_1
 62
7
100
AcDbSpline
 70
8
 71
3
 72
8
 73
4
 74
0
 40
0
 40
0
 40
0
 40
0
 40
1
 40
1
 40
1
 40
1
 10
17.389214
 20
-40.851827
 30
0.0
 10
16.879026
 20
-40.838652
 30
0.0
 10
16.414275
 20
-40.555348
 30
0.0
 10
16.168817
 20
-40.107894
 30
0.0
  0
SPLINE
  5
252
100
AcDbEntity
  8
Layer_1
 62
7
100
AcDbSpline
 70
8
 71
3
 72
8
 73
4
 74
0
 40
0
 40
0
 40
0
 40
0
 40
1
 40
1
 40
1
 40
1
 10
16.168817
 20
-40.107894
 30
0.0
 10
15.829947
 20
-39.849116
 30
0.0
 10
15.623789
 20
-39.452978
 30
0.0
 10
15.606276
 20
-39.026960
 30
0.0
  0
SPLINE
  5
253
100
AcDbEntity
  8
Layer_1
 62
7
100
AcDbSpline
 70
8
 71
3
 72
8
 73
4
 74
0
 40
0
 40
0
 40
0
 40
0
 40
1
 40
1
 40
1
 40
1
 10
15.606276
 20
-39.026960
 30
0.0
 10
15.588764
 20
-38.600942
 30
0.0
 10
15.761713
 20
-38.189220
 30
0.0
 10
16.078199
 20
-37.903503
 30
0.0
  0
SPLINE
  5
254
100
AcDbEntity
  8
Layer_1
 62
7
100
AcDbSpline
 70
8
 71
3
 72
8
 73
4
 74
0
 40
0
 40
0
 40
0
 40
0
 40
1
 40
1
 40
1
 40
1
 10
16.078199
 20
-37.903503
 30
0.0
 10
16.375255
 20
-37.635426
 30
0.0
 10
16.655217
 20
-37.348989
 30
0.0
 10
16.923344
 20
-37.049954
 30
0.0
  0
SPLINE
  5
255
100
AcDbEntity
  8
Layer_1
 62
7
100
AcDbSpline
 70
8
 71
3
 72
8
 73
4
 74
0
 40
0
 40
0
 40
0
 40
0
 40
1
 40
1
 40
1
 40
1
 10
16.923344
 20
-37.049954
 30
0.0
 10
16.527827
 20
-37.131208
 30
0.0
 10
16.141606
 20
-37.230589
 30
0.0
 10
15.767253
 20
-37.351400
 30
0.0
  0
SPLINE
  5
256
100
AcDbEntity
  8
Layer_1
 62
7
100
AcDbSpline
 70
8
 71
3
 72
8
 73
4
 74
0
 40
0
 40
0
 40
0
 40
0
 40
1
 40
1
 40
1
 40
1
 10
15.767253
 20
-37.351400
 30
0.0
 10
15.389137
 20
-37.473267
 30
0.0
 10
14.977412
 20
-37.432837
 30
0.0
 10
14.630224
 20
-37.239747
 30
0.0
  0
SPLINE
  5
257
100
AcDbEntity
  8
Layer_1
 62
7
100
AcDbSpline
 70
8
 71
3
 72
8
 73
4
 74
0
 40
0
 40
0
 40
0
 40
0
 40
1
 40
1
 40
1
 40
1
 10
14.630224
 20
-37.239747
 30
0.0
 10
14.283036
 20
-37.046657
 30
0.0
 10
14.031493
 20
-36.718208
 30
0.0
 10
13.935558
 20
-36.332697
 30
0.0
  0
SPLINE
  5
258
100
AcDbEntity
  8
Layer_1
 62
7
100
AcDbSpline
 70
8
 71
3
 72
8
 73
4
 74
0
 40
0
 40
0
 40
0
 40
0
 40
1
 40
1
 40
1
 40
1
 10
13.935558
 20
-36.332697
 30
0.0
 10
13.564881
 20
-35.936378
 30
0.0
 10
13.449630
 20
-35.364788
 30
0.0
 10
13.637765
 20
-34.855794
 30
0.0
  0
LWPOLYLINE
  5
259
100
AcDbEntity
  8
Layer_1
 62
7
100
AcDbPolyline
 90
1
 70
1
 10
16.899959
 20
-28.826838
 30
0.0
  0
SPLINE
  5
25a
100
AcDbEntity
  8
Layer_1
 62
7
100
AcDbSpline
 70
8
 71
3
 72
8
 73
4
 74
0
 40
0
 40
0
 40
0
 40
0
 40
1
 40
1
 40
1
 40
1
 10
13.637765
 20
-34.855420
 30
0.0
 10
13.629299
 20
-34.388515
 30
0.0
 10
13.848682
 20
-33.946724
 30
0.0
 10
14.225780
 20
-33.671280
 30
0.0
  0
SPLINE
  5
25b
100
AcDbEntity
  8
Layer_1
 62
7
100
AcDbSpline
 70
8
 71
3
 72
8
 73
4
 74
0
 40
0
 40
0
 40
0
 40
0
 40
1
 40
1
 40
1
 40
1
 10
14.225780
 20
-33.671280
 30
0.0
 10
14.602879
 20
-33.395837
 30
0.0
 10
15.090468
 20
-33.321236
 30
0.0
 10
15.532673
 20
-33.471326
 30
0.0
  0
SPLINE
  5
25c
100
AcDbEntity
  8
Layer_1
 62
7
100
AcDbSpline
 70
8
 71
3
 72
8
 73
4
 74
0
 40
0
 40
0
 40
0
 40
0
 40
1
 40
1
 40
1
 40
1
 10
15.532673
 20
-33.471326
 30
0.0
 10
15.986091
 20
-33.625502
 30
0.0
 10
16.444089
 20
-33.742913
 30
0.0
 10
16.904344
 20
-33.835253
 30
0.0
  0
SPLINE
  5
25d
100
AcDbEntity
  8
Layer_1
 62
7
100
AcDbSpline
 70
8
 71
3
 72
8
 73
4
 74
0
 40
0
 40
0
 40
0
 40
0
 40
1
 40
1
 40
1
 40
1
 10
16.904344
 20
-33.835253
 30
0.0
 10
16.661428
 20
-33.563407
 30
0.0
 10
16.409655
 20
-33.305724
 30
0.0
 10
16.146893
 20
-33.065380
 30
0.0
  0
SPLINE
  5
25e
100
AcDbEntity
  8
Layer_1
 62
7
100
AcDbSpline
 70
8
 71
3
 72
8
 73
4
 74
0
 40
0
 40
0
 40
0
 40
0
 40
1
 40
1
 40
1
 40
1
 10
16.146893
 20
-33.065380
 30
0.0
 10
15.859525
 20
-32.802447
 30
0.0
 10
15.691461
 20
-32.433942
 30
0.0
 10
15.681330
 20
-32.044570
 30
0.0
  0
SPLINE
  5
25f
100
AcDbEntity
  8
Layer_1
 62
7
100
AcDbSpline
 70
8
 71
3
 72
8
 73
4
 74
0
 40
0
 40
0
 40
0
 40
0
 40
1
 40
1
 40
1
 40
1
 10
15.681330
 20
-32.044570
 30
0.0
 10
15.671200
 20
-31.655197
 30
0.0
 10
15.819875
 20
-31.278452
 30
0.0
 10
16.093180
 20
-31.000932
 30
0.0
  0
SPLINE
  5
260
100
AcDbEntity
  8
Layer_1
 62
7
100
AcDbSpline
 70
8
 71
3
 72
8
 73
4
 74
0
 40
0
 40
0
 40
0
 40
0
 40
1
 40
1
 40
1
 40
1
 10
16.093180
 20
-31.000932
 30
0.0
 10
16.230137
 20
-30.429579
 30
0.0
 10
16.701725
 20
-29.999547
 30
0.0
 10
17.283253
 20
-29.915727
 30
0.0
  0
SPLINE
  5
261
100
AcDbEntity
  8
Layer_1
 62
7
100
AcDbSpline
 70
8
 71
3
 72
8
 73
4
 74
0
 40
0
 40
0
 40
0
 40
0
 40
1
 40
1
 40
1
 40
1
 10
17.283253
 20
-29.915727
 30
0.0
 10
17.481308
 20
-29.814908
 30
0.0
 10
17.700084
 20
-29.761497
 30
0.0
 10
17.922316
 20
-29.759707
 30
0.0
  0
LWPOLYLINE
  5
262
100
AcDbEntity
  8
Layer_1
 62
7
100
AcDbPolyline
 90
2
 70
0
 10
13.637765
 20
-34.855794
 30
0.0
 10
13.637765
 20
-34.855420
 30
0.0
  0
SPLINE
  5
263
100
AcDbEntity
  8
Layer_1
 62
7
100
AcDbSpline
 70
8
 71
3
 72
8
 73
4
 74
0
 40
0
 40
0
 40
0
 40
0
 40
1
 40
1
 40
1
 40
1
 10
11.304757
 20
-33.833070
 30
0.0
 10
11.670956
 20
-33.828643
 30
0.0
 10
12.024974
 20
-33.964472
 30
0.0
 10
12.294230
 20
-34.212710
 30
0.0
  0
SPLINE
  5
264
100
AcDbEntity
  8
Layer_1
 62
7
100
AcDbSpline
 70
8
 71
3
 72
8
 73
4
 74
0
 40
0
 40
0
 40
0
 40
0
 40
1
 40
1
 40
1
 40
1
 10
12.294230
 20
-34.212710
 30
0.0
 10
12.173474
 20
-34.096373
 30
0.0
 10
12.173158
 20
-34.107955
 30
0.0
 10
12.350865
 20
-34.238652
 30
0.0
  0
SPLINE
  5
265
100
AcDbEntity
  8
Layer_1
 62
7
100
AcDbSpline
 70
8
 71
3
 72
8
 73
4
 74
0
 40
0
 40
0
 40
0
 40
0
 40
1
 40
1
 40
1
 40
1
 10
12.350865
 20
-34.238652
 30
0.0
 10
12.706097
 20
-34.500029
 30
0.0
 10
12.921318
 20
-34.910310
 30
0.0
 10
12.934446
 20
-35.351144
 30
0.0
  0
SPLINE
  5
266
100
AcDbEntity
  8
Layer_1
 62
7
100
AcDbSpline
 70
8
 71
3
 72
8
 73
4
 74
0
 40
0
 40
0
 40
0
 40
0
 40
1
 40
1
 40
1
 40
1
 10
12.934446
 20
-35.351144
 30
0.0
 10
12.947573
 20
-35.791979
 30
0.0
 10
12.757147
 20
-36.214340
 30
0.0
 10
12.418097
 20
-36.496391
 30
0.0
  0
SPLINE
  5
267
100
AcDbEntity
  8
Layer_1
 62
7
100
AcDbSpline
 70
8
 71
3
 72
8
 73
4
 74
0
 40
0
 40
0
 40
0
 40
0
 40
1
 40
1
 40
1
 40
1
 10
12.418097
 20
-36.496391
 30
0.0
 10
12.136637
 20
-36.849683
 30
0.0
 10
11.705184
 20
-37.049732
 30
0.0
 10
11.253681
 20
-37.036287
 30
0.0
  0
SPLINE
  5
268
100
AcDbEntity
  8
Layer_1
 62
7
100
AcDbSpline
 70
8
 71
3
 72
8
 73
4
 74
0
 40
0
 40
0
 40
0
 40
0
 40
1
 40
1
 40
1
 40
1
 10
11.253681
 20
-37.036287
 30
0.0
 10
10.802179
 20
-37.022842
 30
0.0
 10
10.383394
 20
-36.797476
 30
0.0
 10
10.123454
 20
-36.428062
 30
0.0
  0
SPLINE
  5
269
100
AcDbEntity
  8
Layer_1
 62
7
100
AcDbSpline
 70
8
 71
3
 72
8
 73
4
 74
0
 40
0
 40
0
 40
0
 40
0
 40
1
 40
1
 40
1
 40
1
 10
10.123454
 20
-36.428062
 30
0.0
 10
9.622628
 20
-35.883880
 30
0.0
 10
9.617727
 20
-35.048097
 30
0.0
 10
10.112136
 20
-34.498078
 30
0.0
  0
SPLINE
  5
26a
100
AcDbEntity
  8
Layer_1
 62
7
100
AcDbSpline
 70
8
 71
3
 72
8
 73
4
 74
0
 40
0
 40
0
 40
0
 40
0
 40
1
 40
1
 40
1
 40
1
 10
10.112136
 20
-34.498078
 30
0.0
 10
10.112385
 20
-34.497704
 30
0.0
 10
10.112634
 20
-34.497330
 30
0.0
 10
10.112884
 20
-34.496956
 30
0.0
  0
SPLINE
  5
26b
100
AcDbEntity
  8
Layer_1
 62
7
100
AcDbSpline
 70
8
 71
3
 72
8
 73
4
 74
0
 40
0
 40
0
 40
0
 40
0
 40
1
 40
1
 40
1
 40
1
 10
10.112884
 20
-34.496956
 30
0.0
 10
10.372740
 20
-34.088748
 30
0.0
 10
10.820922
 20
-33.839101
 30
0.0
 10
11.304784
 20
-33.833044
 30
0.0
  0
LWPOLYLINE
  5
26c
100
AcDbEntity
  8
Layer_1
 62
7
100
AcDbPolyline
 90
1
 70
1
 10
17.922316
 20
-29.759707
 30
0.0
  0
SPLINE
  5
26d
100
AcDbEntity
  8
Layer_1
 62
7
100
AcDbSpline
 70
8
 71
3
 72
8
 73
4
 74
0
 40
0
 40
0
 40
0
 40
0
 40
1
 40
1
 40
1
 40
1
 10
28.114839
 20
-33.856820
 30
0.0
 10
28.590416
 20
-33.849843
 30
0.0
 10
29.038516
 20
-34.079094
 30
0.0
 10
29.311122
 20
-34.468847
 30
0.0
  0
SPLINE
  5
26e
100
AcDbEntity
  8
Layer_1
 62
7
100
AcDbSpline
 70
8
 71
3
 72
8
 73
4
 74
0
 40
0
 40
0
 40
0
 40
0
 40
1
 40
1
 40
1
 40
1
 10
29.311122
 20
-34.468847
 30
0.0
 10
29.822576
 20
-35.021377
 30
0.0
 10
29.819700
 20
-35.875336
 30
0.0
 10
29.304537
 20
-36.424408
 30
0.0
  0
SPLINE
  5
26f
100
AcDbEntity
  8
Layer_1
 62
7
100
AcDbSpline
 70
8
 71
3
 72
8
 73
4
 74
0
 40
0
 40
0
 40
0
 40
0
 40
1
 40
1
 40
1
 40
1
 10
29.304537
 20
-36.424408
 30
0.0
 10
29.304039
 20
-36.424908
 30
0.0
 10
29.303540
 20
-36.425407
 30
0.0
 10
29.303040
 20
-36.425905
 30
0.0
  0
SPLINE
  5
270
100
AcDbEntity
  8
Layer_1
 62
7
100
AcDbSpline
 70
8
 71
3
 72
8
 73
4
 74
0
 40
0
 40
0
 40
0
 40
0
 40
1
 40
1
 40
1
 40
1
 10
29.303040
 20
-36.425905
 30
0.0
 10
29.033321
 20
-36.800402
 30
0.0
 10
28.599862
 20
-37.022220
 30
0.0
 10
28.138346
 20
-37.021923
 30
0.0
  0
SPLINE
  5
271
100
AcDbEntity
  8
Layer_1
 62
7
100
AcDbSpline
 70
8
 71
3
 72
8
 73
4
 74
0
 40
0
 40
0
 40
0
 40
0
 40
1
 40
1
 40
1
 40
1
 10
28.138346
 20
-37.021923
 30
0.0
 10
27.676830
 20
-37.021627
 30
0.0
 10
27.243656
 20
-36.799252
 30
0.0
 10
26.974418
 20
-36.424408
 30
0.0
  0
SPLINE
  5
272
100
AcDbEntity
  8
Layer_1
 62
7
100
AcDbSpline
 70
8
 71
3
 72
8
 73
4
 74
0
 40
0
 40
0
 40
0
 40
0
 40
1
 40
1
 40
1
 40
1
 10
26.974418
 20
-36.424408
 30
0.0
 10
26.455039
 20
-35.875591
 30
0.0
 10
26.450563
 20
-35.017939
 30
0.0
 10
26.964185
 20
-34.463731
 30
0.0
  0
SPLINE
  5
273
100
AcDbEntity
  8
Layer_1
 62
7
100
AcDbSpline
 70
8
 71
3
 72
8
 73
4
 74
0
 40
0
 40
0
 40
0
 40
0
 40
1
 40
1
 40
1
 40
1
 10
26.964185
 20
-34.463731
 30
0.0
 10
26.964434
 20
-34.463356
 30
0.0
 10
26.964684
 20
-34.462982
 30
0.0
 10
26.964933
 20
-34.462608
 30
0.0
  0
SPLINE
  5
274
100
AcDbEntity
  8
Layer_1
 62
7
100
AcDbSpline
 70
8
 71
3
 72
8
 73
4
 74
0
 40
0
 40
0
 40
0
 40
0
 40
1
 40
1
 40
1
 40
1
 10
26.964933
 20
-34.462608
 30
0.0
 10
27.229477
 20
-34.088616
 30
0.0
 10
27.656763
 20
-33.863500
 30
0.0
 10
28.114811
 20
-33.856794
 30
0.0
  0
LWPOLYLINE
  5
275
100
AcDbEntity
  8
Layer_1
 62
7
100
AcDbPolyline
 90
1
 70
1
 10
11.304784
 20
-33.833044
 30
0.0
  0
SPLINE
  5
276
100
AcDbEntity
  8
Layer_1
 62
7
100
AcDbSpline
 70
8
 71
3
 72
8
 73
4
 74
0
 40
0
 40
0
 40
0
 40
0
 40
1
 40
1
 40
1
 40
1
 10
23.818232
 20
-41.135003
 30
0.0
 10
23.921159
 20
-41.133596
 30
0.0
 10
24.023938
 20
-41.143273
 30
0.0
 10
24.124793
 20
-41.163869
 30
0.0
  0
SPLINE
  5
277
100
AcDbEntity
  8
Layer_1
 62
7
100
AcDbSpline
 70
8
 71
3
 72
8
 73
4
 74
0
 40
0
 40
0
 40
0
 40
0
 40
1
 40
1
 40
1
 40
1
 10
24.124793
 20
-41.163869
 30
0.0
 10
24.204998
 20
-41.163121
 30
0.0
 10
24.286057
 20
-41.162185
 30
0.0
 10
24.361931
 20
-41.161998
 30
0.0
  0
SPLINE
  5
278
100
AcDbEntity
  8
Layer_1
 62
7
100
AcDbSpline
 70
8
 71
3
 72
8
 73
4
 74
0
 40
0
 40
0
 40
0
 40
0
 40
1
 40
1
 40
1
 40
1
 10
24.361931
 20
-41.161998
 30
0.0
 10
24.904417
 20
-41.160947
 30
0.0
 10
25.401070
 20
-41.466073
 30
0.0
 10
25.645315
 20
-41.950466
 30
0.0
  0
SPLINE
  5
279
100
AcDbEntity
  8
Layer_1
 62
7
100
AcDbSpline
 70
8
 71
3
 72
8
 73
4
 74
0
 40
0
 40
0
 40
0
 40
0
 40
1
 40
1
 40
1
 40
1
 10
25.645315
 20
-41.950466
 30
0.0
 10
25.889560
 20
-42.434859
 30
0.0
 10
25.839592
 20
-43.015608
 30
0.0
 10
25.516194
 20
-43.451160
 30
0.0
  0
SPLINE
  5
27a
100
AcDbEntity
  8
Layer_1
 62
7
100
AcDbSpline
 70
8
 71
3
 72
8
 73
4
 74
0
 40
0
 40
0
 40
0
 40
0
 40
1
 40
1
 40
1
 40
1
 10
25.516194
 20
-43.451160
 30
0.0
 10
25.359048
 20
-43.846915
 30
0.0
 10
25.034169
 20
-44.152378
 30
0.0
 10
24.629493
 20
-44.284869
 30
0.0
  0
SPLINE
  5
27b
100
AcDbEntity
  8
Layer_1
 62
7
100
AcDbSpline
 70
8
 71
3
 72
8
 73
4
 74
0
 40
0
 40
0
 40
0
 40
0
 40
1
 40
1
 40
1
 40
1
 10
24.629493
 20
-44.284869
 30
0.0
 10
24.224816
 20
-44.417361
 30
0.0
 10
23.782190
 20
-44.363180
 30
0.0
 10
23.421419
 20
-44.136992
 30
0.0
  0
SPLINE
  5
27c
100
AcDbEntity
  8
Layer_1
 62
7
100
AcDbSpline
 70
8
 71
3
 72
8
 73
4
 74
0
 40
0
 40
0
 40
0
 40
0
 40
1
 40
1
 40
1
 40
1
 10
23.421419
 20
-44.136992
 30
0.0
 10
23.009000
 20
-44.033512
 30
0.0
 10
22.663759
 20
-43.752365
 30
0.0
 10
22.478898
 20
-43.369450
 30
0.0
  0
SPLINE
  5
27d
100
AcDbEntity
  8
Layer_1
 62
7
100
AcDbSpline
 70
8
 71
3
 72
8
 73
4
 74
0
 40
0
 40
0
 40
0
 40
0
 40
1
 40
1
 40
1
 40
1
 10
22.478898
 20
-43.369450
 30
0.0
 10
22.294037
 20
-42.986534
 30
0.0
 10
22.288616
 20
-42.541331
 30
0.0
 10
22.464099
 20
-42.154028
 30
0.0
  0
LWPOLYLINE
  5
27e
100
AcDbEntity
  8
Layer_1
 62
7
100
AcDbPolyline
 90
1
 70
1
 10
28.114811
 20
-33.856794
 30
0.0
  0
SPLINE
  5
27f
100
AcDbEntity
  8
Layer_1
 62
7
100
AcDbSpline
 70
8
 71
3
 72
8
 73
4
 74
0
 40
0
 40
0
 40
0
 40
0
 40
1
 40
1
 40
1
 40
1
 10
22.464474
 20
-42.153654
 30
0.0
 10
22.645508
 20
-41.555351
 30
0.0
 10
23.193202
 20
-41.143213
 30
0.0
 10
23.818240
 20
-41.134950
 30
0.0
  0
LWPOLYLINE
  5
280
100
AcDbEntity
  8
Layer_1
 62
7
100
AcDbPolyline
 90
2
 70
0
 10
22.464099
 20
-42.154028
 30
0.0
 10
22.464474
 20
-42.153654
 30
0.0
  0
SPLINE
  5
281
100
AcDbEntity
  8
Layer_1
 62
7
100
AcDbSpline
 70
8
 71
3
 72
8
 73
4
 74
0
 40
0
 40
0
 40
0
 40
0
 40
1
 40
1
 40
1
 40
1
 10
15.563367
 20
-41.186523
 30
0.0
 10
16.194789
 20
-41.189113
 30
0.0
 10
16.750234
 20
-41.604362
 30
0.0
 10
16.931383
 20
-42.209247
 30
0.0
  0
SPLINE
  5
282
100
AcDbEntity
  8
Layer_1
 62
7
100
AcDbSpline
 70
8
 71
3
 72
8
 73
4
 74
0
 40
0
 40
0
 40
0
 40
0
 40
1
 40
1
 40
1
 40
1
 10
16.931383
 20
-42.209247
 30
0.0
 10
16.931508
 20
-42.209621
 30
0.0
 10
16.931632
 20
-42.209995
 30
0.0
 10
16.931757
 20
-42.210369
 30
0.0
  0
SPLINE
  5
283
100
AcDbEntity
  8
Layer_1
 62
7
100
AcDbSpline
 70
8
 71
3
 72
8
 73
4
 74
0
 40
0
 40
0
 40
0
 40
0
 40
1
 40
1
 40
1
 40
1
 10
16.931757
 20
-42.210369
 30
0.0
 10
17.121540
 20
-42.632119
 30
0.0
 10
17.096297
 20
-43.119505
 30
0.0
 10
16.863959
 20
-43.519392
 30
0.0
  0
SPLINE
  5
284
100
AcDbEntity
  8
Layer_1
 62
7
100
AcDbSpline
 70
8
 71
3
 72
8
 73
4
 74
0
 40
0
 40
0
 40
0
 40
0
 40
1
 40
1
 40
1
 40
1
 10
16.863959
 20
-43.519392
 30
0.0
 10
16.631622
 20
-43.919279
 30
0.0
 10
16.220705
 20
-44.182586
 30
0.0
 10
15.760320
 20
-44.226583
 30
0.0
  0
SPLINE
  5
285
100
AcDbEntity
  8
Layer_1
 62
7
100
AcDbSpline
 70
8
 71
3
 72
8
 73
4
 74
0
 40
0
 40
0
 40
0
 40
0
 40
1
 40
1
 40
1
 40
1
 10
15.760320
 20
-44.226583
 30
0.0
 10
15.759946
 20
-44.226583
 30
0.0
 10
15.759572
 20
-44.226583
 30
0.0
 10
15.759197
 20
-44.226583
 30
0.0
  0
SPLINE
  5
286
100
AcDbEntity
  8
Layer_1
 62
7
100
AcDbSpline
 70
8
 71
3
 72
8
 73
4
 74
0
 40
0
 40
0
 40
0
 40
0
 40
1
 40
1
 40
1
 40
1
 10
15.759197
 20
-44.226583
 30
0.0
 10
15.024516
 20
-44.396425
 30
0.0
 10
14.283788
 20
-43.968340
 30
0.0
 10
14.064158
 20
-43.246976
 30
0.0
  0
SPLINE
  5
287
100
AcDbEntity
  8
Layer_1
 62
7
100
AcDbSpline
 70
8
 71
3
 72
8
 73
4
 74
0
 40
0
 40
0
 40
0
 40
0
 40
1
 40
1
 40
1
 40
1
 10
14.064158
 20
-43.246976
 30
0.0
 10
13.871099
 20
-42.824190
 30
0.0
 10
13.894891
 20
-42.334062
 30
0.0
 10
14.127991
 20
-41.931962
 30
0.0
  0
SPLINE
  5
288
100
AcDbEntity
  8
Layer_1
 62
7
100
AcDbSpline
 70
8
 71
3
 72
8
 73
4
 74
0
 40
0
 40
0
 40
0
 40
0
 40
1
 40
1
 40
1
 40
1
 10
14.127991
 20
-41.931962
 30
0.0
 10
14.361091
 20
-41.529862
 30
0.0
 10
14.774594
 20
-41.265653
 30
0.0
 10
15.237421
 20
-41.223087
 30
0.0
  0
SPLINE
  5
289
100
AcDbEntity
  8
Layer_1
 62
7
100
AcDbSpline
 70
8
 71
3
 72
8
 73
4
 74
0
 40
0
 40
0
 40
0
 40
0
 40
1
 40
1
 40
1
 40
1
 10
15.237421
 20
-41.223087
 30
0.0
 10
15.344309
 20
-41.198485
 30
0.0
 10
15.453667
 20
-41.186225
 30
0.0
 10
15.563350
 20
-41.186549
 30
0.0
  0
LWPOLYLINE
  5
28a
100
AcDbEntity
  8
Layer_1
 62
7
100
AcDbPolyline
 90
1
 70
1
 10
23.818240
 20
-41.134950
 30
0.0
  0
SPLINE
  5
28b
100
AcDbEntity
  8
Layer_1
 62
7
100
AcDbSpline
 70
8
 71
3
 72
8
 73
4
 74
0
 40
0
 40
0
 40
0
 40
0
 40
1
 40
1
 40
1
 40
1
 10
19.680568
 20
-21.682791
 30
0.0
 10
19.474799
 20
-21.686555
 30
0.0
 10
19.287539
 20
-21.802472
 30
0.0
 10
19.192408
 20
-21.984969
 30
0.0
  0
LWPOLYLINE
  5
28c
100
AcDbEntity
  8
Layer_1
 62
7
100
AcDbPolyline
 90
1
 70
1
 10
15.563350
 20
-41.186549
 30
0.0
  0
SPLINE
  5
28d
100
AcDbEntity
  8
Layer_1
 62
7
100
AcDbSpline
 70
8
 71
3
 72
8
 73
4
 74
0
 40
0
 40
0
 40
0
 40
0
 40
1
 40
1
 40
1
 40
1
 10
19.124080
 20
-22.116143
 30
0.0
 10
19.122971
 20
-22.118207
 30
0.0
 10
19.121875
 20
-22.120277
 30
0.0
 10
19.120792
 20
-22.122354
 30
0.0
  0
SPLINE
  5
28e
100
AcDbEntity
  8
Layer_1
 62
7
100
AcDbSpline
 70
8
 71
3
 72
8
 73
4
 74
0
 40
0
 40
0
 40
0
 40
0
 40
1
 40
1
 40
1
 40
1
 10
19.120792
 20
-22.122354
 30
0.0
 10
19.088714
 20
-22.185815
 30
0.0
 10
19.067436
 20
-22.255222
 30
0.0
 10
19.036387
 20
-22.319300
 30
0.0
  0
SPLINE
  5
28f
100
AcDbEntity
  8
Layer_1
 62
7
100
AcDbSpline
 70
8
 71
3
 72
8
 73
4
 74
0
 40
0
 40
0
 40
0
 40
0
 40
1
 40
1
 40
1
 40
1
 10
19.036387
 20
-22.319300
 30
0.0
 10
18.969688
 20
-22.176787
 30
0.0
 10
18.846308
 20
-22.068756
 30
0.0
 10
18.696235
 20
-22.021463
 30
0.0
  0
SPLINE
  5
290
100
AcDbEntity
  8
Layer_1
 62
7
100
AcDbSpline
 70
8
 71
3
 72
8
 73
4
 74
0
 40
0
 40
0
 40
0
 40
0
 40
1
 40
1
 40
1
 40
1
 10
18.696235
 20
-22.021463
 30
0.0
 10
18.546162
 20
-21.974170
 30
0.0
 10
18.383136
 20
-21.991946
 30
0.0
 10
18.246781
 20
-22.070470
 30
0.0
  0
SPLINE
  5
291
100
AcDbEntity
  8
Layer_1
 62
7
100
AcDbSpline
 70
8
 71
3
 72
8
 73
4
 74
0
 40
0
 40
0
 40
0
 40
0
 40
1
 40
1
 40
1
 40
1
 10
18.246781
 20
-22.070470
 30
0.0
 10
16.808014
 20
-22.900893
 30
0.0
 10
15.369233
 20
-23.731252
 30
0.0
 10
13.930441
 20
-24.561690
 30
0.0
  0
SPLINE
  5
292
100
AcDbEntity
  8
Layer_1
 62
7
100
AcDbSpline
 70
8
 71
3
 72
8
 73
4
 74
0
 40
0
 40
0
 40
0
 40
0
 40
1
 40
1
 40
1
 40
1
 10
13.930441
 20
-24.561690
 30
0.0
 10
13.789706
 20
-24.643066
 30
0.0
 10
13.691095
 20
-24.781388
 30
0.0
 10
13.660054
 20
-24.940965
 30
0.0
  0
SPLINE
  5
293
100
AcDbEntity
  8
Layer_1
 62
7
100
AcDbSpline
 70
8
 71
3
 72
8
 73
4
 74
0
 40
0
 40
0
 40
0
 40
0
 40
1
 40
1
 40
1
 40
1
 10
13.660054
 20
-24.940965
 30
0.0
 10
13.506321
 20
-24.888068
 30
0.0
 10
13.337214
 20
-24.904326
 30
0.0
 10
13.196374
 20
-24.985542
 30
0.0
  0
SPLINE
  5
294
100
AcDbEntity
  8
Layer_1
 62
7
100
AcDbSpline
 70
8
 71
3
 72
8
 73
4
 74
0
 40
0
 40
0
 40
0
 40
0
 40
1
 40
1
 40
1
 40
1
 10
13.196374
 20
-24.985542
 30
0.0
 10
11.754196
 20
-25.818321
 30
0.0
 10
10.311927
 20
-26.651327
 30
0.0
 10
8.869805
 20
-27.484072
 30
0.0
  0
SPLINE
  5
295
100
AcDbEntity
  8
Layer_1
 62
7
100
AcDbSpline
 70
8
 71
3
 72
8
 73
4
 74
0
 40
0
 40
0
 40
0
 40
0
 40
1
 40
1
 40
1
 40
1
 10
8.869805
 20
-27.484072
 30
0.0
 10
8.724402
 20
-27.568168
 30
0.0
 10
8.624228
 20
-27.712883
 30
0.0
 10
8.596717
 20
-27.878584
 30
0.0
  0
SPLINE
  5
296
100
AcDbEntity
  8
Layer_1
 62
7
100
AcDbSpline
 70
8
 71
3
 72
8
 73
4
 74
0
 40
0
 40
0
 40
0
 40
0
 40
1
 40
1
 40
1
 40
1
 10
8.596717
 20
-27.878584
 30
0.0
 10
8.569206
 20
-28.044286
 30
0.0
 10
8.617241
 20
-28.213608
 30
0.0
 10
8.727668
 20
-28.340178
 30
0.0
  0
SPLINE
  5
297
100
AcDbEntity
  8
Layer_1
 62
7
100
AcDbSpline
 70
8
 71
3
 72
8
 73
4
 74
0
 40
0
 40
0
 40
0
 40
0
 40
1
 40
1
 40
1
 40
1
 10
8.727668
 20
-28.340178
 30
0.0
 10
8.575441
 20
-28.327438
 30
0.0
 10
8.424976
 20
-28.297302
 30
0.0
 10
8.272394
 20
-28.289755
 30
0.0
  0
SPLINE
  5
298
100
AcDbEntity
  8
Layer_1
 62
7
100
AcDbSpline
 70
8
 71
3
 72
8
 73
4
 74
0
 40
0
 40
0
 40
0
 40
0
 40
1
 40
1
 40
1
 40
1
 10
8.272394
 20
-28.289755
 30
0.0
 10
8.062890
 20
-28.279478
 30
0.0
 10
7.865093
 20
-28.386708
 30
0.0
 10
7.759374
 20
-28.567874
 30
0.0
  0
SPLINE
  5
299
100
AcDbEntity
  8
Layer_1
 62
7
100
AcDbSpline
 70
8
 71
3
 72
8
 73
4
 74
0
 40
0
 40
0
 40
0
 40
0
 40
1
 40
1
 40
1
 40
1
 10
7.759374
 20
-28.567874
 30
0.0
 10
7.653655
 20
-28.749040
 30
0.0
 10
7.657605
 20
-28.973999
 30
0.0
 10
7.769619
 20
-29.151342
 30
0.0
  0
LWPOLYLINE
  5
29a
100
AcDbEntity
  8
Layer_1
 62
7
100
AcDbPolyline
 90
2
 70
0
 10
19.192408
 20
-21.984969
 30
0.0
 10
19.124080
 20
-22.116143
 30
0.0
  0
SPLINE
  5
29b
100
AcDbEntity
  8
Layer_1
 62
7
100
AcDbSpline
 70
8
 71
3
 72
8
 73
4
 74
0
 40
0
 40
0
 40
0
 40
0
 40
1
 40
1
 40
1
 40
1
 10
7.846351
 20
-29.272650
 30
0.0
 10
7.848269
 20
-29.275593
 30
0.0
 10
7.850215
 20
-29.278517
 30
0.0
 10
7.852188
 20
-29.281424
 30
0.0
  0
SPLINE
  5
29c
100
AcDbEntity
  8
Layer_1
 62
7
100
AcDbSpline
 70
8
 71
3
 72
8
 73
4
 74
0
 40
0
 40
0
 40
0
 40
0
 40
1
 40
1
 40
1
 40
1
 10
7.852188
 20
-29.281424
 30
0.0
 10
7.909298
 20
-29.368105
 30
0.0
 10
7.980736
 20
-29.445898
 30
0.0
 10
8.039997
 20
-29.531350
 30
0.0
  0
SPLINE
  5
29d
100
AcDbEntity
  8
Layer_1
 62
7
100
AcDbSpline
 70
8
 71
3
 72
8
 73
4
 74
0
 40
0
 40
0
 40
0
 40
0
 40
1
 40
1
 40
1
 40
1
 10
8.039997
 20
-29.531350
 30
0.0
 10
7.879708
 20
-29.510584
 30
0.0
 10
7.718237
 20
-29.559821
 30
0.0
 10
7.596808
 20
-29.666491
 30
0.0
  0
SPLINE
  5
29e
100
AcDbEntity
  8
Layer_1
 62
7
100
AcDbSpline
 70
8
 71
3
 72
8
 73
4
 74
0
 40
0
 40
0
 40
0
 40
0
 40
1
 40
1
 40
1
 40
1
 10
7.596808
 20
-29.666491
 30
0.0
 10
7.475379
 20
-29.773162
 30
0.0
 10
7.405745
 20
-29.926941
 30
0.0
 10
7.405682
 20
-30.088569
 30
0.0
  0
LWPOLYLINE
  5
29f
100
AcDbEntity
  8
Layer_1
 62
7
100
AcDbPolyline
 90
2
 70
0
 10
7.769619
 20
-29.151342
 30
0.0
 10
7.846351
 20
-29.272650
 30
0.0
  0
SPLINE
  5
2a0
100
AcDbEntity
  8
Layer_1
 62
7
100
AcDbSpline
 70
8
 71
3
 72
8
 73
4
 74
0
 40
0
 40
0
 40
0
 40
0
 40
1
 40
1
 40
1
 40
1
 10
7.405682
 20
-35.033742
 30
0.0
 10
7.405688
 20
-35.196273
 30
0.0
 10
7.476045
 20
-35.350846
 30
0.0
 10
7.598608
 20
-35.457592
 30
0.0
  0
SPLINE
  5
2a1
100
AcDbEntity
  8
Layer_1
 62
7
100
AcDbSpline
 70
8
 71
3
 72
8
 73
4
 74
0
 40
0
 40
0
 40
0
 40
0
 40
1
 40
1
 40
1
 40
1
 10
7.598608
 20
-35.457592
 30
0.0
 10
7.476044
 20
-35.564339
 30
0.0
 10
7.405687
 20
-35.718912
 30
0.0
 10
7.405682
 20
-35.881444
 30
0.0
  0
LWPOLYLINE
  5
2a2
100
AcDbEntity
  8
Layer_1
 62
7
100
AcDbPolyline
 90
2
 70
0
 10
7.405682
 20
-30.088569
 30
0.0
 10
7.405682
 20
-35.033742
 30
0.0
  0
SPLINE
  5
2a3
100
AcDbEntity
  8
Layer_1
 62
7
100
AcDbSpline
 70
8
 71
3
 72
8
 73
4
 74
0
 40
0
 40
0
 40
0
 40
0
 40
1
 40
1
 40
1
 40
1
 10
7.405682
 20
-40.796657
 30
0.0
 10
7.405773
 20
-40.964219
 30
0.0
 10
7.480615
 20
-41.123003
 30
0.0
 10
7.609802
 20
-41.229716
 30
0.0
  0
SPLINE
  5
2a4
100
AcDbEntity
  8
Layer_1
 62
7
100
AcDbSpline
 70
8
 71
3
 72
8
 73
4
 74
0
 40
0
 40
0
 40
0
 40
0
 40
1
 40
1
 40
1
 40
1
 10
7.609802
 20
-41.229716
 30
0.0
 10
7.738989
 20
-41.336429
 30
0.0
 10
7.909048
 20
-41.379943
 30
0.0
 10
8.073613
 20
-41.348393
 30
0.0
  0
SPLINE
  5
2a5
100
AcDbEntity
  8
Layer_1
 62
7
100
AcDbSpline
 70
8
 71
3
 72
8
 73
4
 74
0
 40
0
 40
0
 40
0
 40
0
 40
1
 40
1
 40
1
 40
1
 10
8.073613
 20
-41.348393
 30
0.0
 10
7.975843
 20
-41.487308
 30
0.0
 10
7.864470
 20
-41.615764
 30
0.0
 10
7.771802
 20
-41.758360
 30
0.0
  0
SPLINE
  5
2a6
100
AcDbEntity
  8
Layer_1
 62
7
100
AcDbSpline
 70
8
 71
3
 72
8
 73
4
 74
0
 40
0
 40
0
 40
0
 40
0
 40
1
 40
1
 40
1
 40
1
 10
7.771802
 20
-41.758360
 30
0.0
 10
7.656936
 20
-41.935101
 30
0.0
 10
7.650608
 20
-42.161252
 30
0.0
 10
7.755412
 20
-42.344139
 30
0.0
  0
SPLINE
  5
2a7
100
AcDbEntity
  8
Layer_1
 62
7
100
AcDbSpline
 70
8
 71
3
 72
8
 73
4
 74
0
 40
0
 40
0
 40
0
 40
0
 40
1
 40
1
 40
1
 40
1
 10
7.755412
 20
-42.344139
 30
0.0
 10
7.860216
 20
-42.527026
 30
0.0
 10
8.058533
 20
-42.635905
 30
0.0
 10
8.269096
 20
-42.626158
 30
0.0
  0
SPLINE
  5
2a8
100
AcDbEntity
  8
Layer_1
 62
7
100
AcDbSpline
 70
8
 71
3
 72
8
 73
4
 74
0
 40
0
 40
0
 40
0
 40
0
 40
1
 40
1
 40
1
 40
1
 10
8.269096
 20
-42.626158
 30
0.0
 10
8.437377
 20
-42.618376
 30
0.0
 10
8.603885
 20
-42.585244
 30
0.0
 10
8.771871
 20
-42.570985
 30
0.0
  0
SPLINE
  5
2a9
100
AcDbEntity
  8
Layer_1
 62
7
100
AcDbSpline
 70
8
 71
3
 72
8
 73
4
 74
0
 40
0
 40
0
 40
0
 40
0
 40
1
 40
1
 40
1
 40
1
 10
8.771871
 20
-42.570985
 30
0.0
 10
8.663128
 20
-42.697923
 30
0.0
 10
8.616520
 20
-42.866672
 30
0.0
 10
8.644697
 20
-43.031428
 30
0.0
  0
SPLINE
  5
2aa
100
AcDbEntity
  8
Layer_1
 62
7
100
AcDbSpline
 70
8
 71
3
 72
8
 73
4
 74
0
 40
0
 40
0
 40
0
 40
0
 40
1
 40
1
 40
1
 40
1
 10
8.644697
 20
-43.031428
 30
0.0
 10
8.672874
 20
-43.196183
 30
0.0
 10
8.772914
 20
-43.339852
 30
0.0
 10
8.917662
 20
-43.423437
 30
0.0
  0
SPLINE
  5
2ab
100
AcDbEntity
  8
Layer_1
 62
7
100
AcDbSpline
 70
8
 71
3
 72
8
 73
4
 74
0
 40
0
 40
0
 40
0
 40
0
 40
1
 40
1
 40
1
 40
1
 10
8.917662
 20
-43.423437
 30
0.0
 10
10.338670
 20
-44.243927
 30
0.0
 10
11.759586
 20
-45.064534
 30
0.0
 10
13.180654
 20
-45.885060
 30
0.0
  0
SPLINE
  5
2ac
100
AcDbEntity
  8
Layer_1
 62
7
100
AcDbSpline
 70
8
 71
3
 72
8
 73
4
 74
0
 40
0
 40
0
 40
0
 40
0
 40
1
 40
1
 40
1
 40
1
 10
13.180654
 20
-45.885060
 30
0.0
 10
13.321842
 20
-45.966483
 30
0.0
 10
13.491420
 20
-45.982614
 30
0.0
 10
13.645428
 20
-45.929272
 30
0.0
  0
SPLINE
  5
2ad
100
AcDbEntity
  8
Layer_1
 62
7
100
AcDbSpline
 70
8
 71
3
 72
8
 73
4
 74
0
 40
0
 40
0
 40
0
 40
0
 40
1
 40
1
 40
1
 40
1
 10
13.645428
 20
-45.929272
 30
0.0
 10
13.676373
 20
-46.088984
 30
0.0
 10
13.774996
 20
-46.227456
 30
0.0
 10
13.915817
 20
-46.308912
 30
0.0
  0
SPLINE
  5
2ae
100
AcDbEntity
  8
Layer_1
 62
7
100
AcDbSpline
 70
8
 71
3
 72
8
 73
4
 74
0
 40
0
 40
0
 40
0
 40
0
 40
1
 40
1
 40
1
 40
1
 10
13.915817
 20
-46.308912
 30
0.0
 10
15.338165
 20
-47.130210
 30
0.0
 10
16.760501
 20
-47.951444
 30
0.0
 10
18.182829
 20
-48.772729
 30
0.0
  0
SPLINE
  5
2af
100
AcDbEntity
  8
Layer_1
 62
7
100
AcDbSpline
 70
8
 71
3
 72
8
 73
4
 74
0
 40
0
 40
0
 40
0
 40
0
 40
1
 40
1
 40
1
 40
1
 10
18.182829
 20
-48.772729
 30
0.0
 10
18.326945
 20
-48.855915
 30
0.0
 10
18.500512
 20
-48.870972
 30
0.0
 10
18.656800
 20
-48.813845
 30
0.0
  0
SPLINE
  5
2b0
100
AcDbEntity
  8
Layer_1
 62
7
100
AcDbSpline
 70
8
 71
3
 72
8
 73
4
 74
0
 40
0
 40
0
 40
0
 40
0
 40
1
 40
1
 40
1
 40
1
 10
18.656800
 20
-48.813845
 30
0.0
 10
18.813088
 20
-48.756718
 30
0.0
 10
18.936032
 20
-48.633280
 30
0.0
 10
18.992531
 20
-48.476764
 30
0.0
  0
SPLINE
  5
2b1
100
AcDbEntity
  8
Layer_1
 62
7
100
AcDbSpline
 70
8
 71
3
 72
8
 73
4
 74
0
 40
0
 40
0
 40
0
 40
0
 40
1
 40
1
 40
1
 40
1
 10
18.992531
 20
-48.476764
 30
0.0
 10
19.062373
 20
-48.625627
 30
0.0
 10
19.116006
 20
-48.781866
 30
0.0
 10
19.191302
 20
-48.928019
 30
0.0
  0
SPLINE
  5
2b2
100
AcDbEntity
  8
Layer_1
 62
7
100
AcDbSpline
 70
8
 71
3
 72
8
 73
4
 74
0
 40
0
 40
0
 40
0
 40
0
 40
1
 40
1
 40
1
 40
1
 10
19.191302
 20
-48.928019
 30
0.0
 10
19.287767
 20
-49.115225
 30
0.0
 10
19.480785
 20
-49.232802
 30
0.0
 10
19.691383
 20
-49.232645
 30
0.0
  0
SPLINE
  5
2b3
100
AcDbEntity
  8
Layer_1
 62
7
100
AcDbSpline
 70
8
 71
3
 72
8
 73
4
 74
0
 40
0
 40
0
 40
0
 40
0
 40
1
 40
1
 40
1
 40
1
 10
19.691383
 20
-49.232645
 30
0.0
 10
19.901980
 20
-49.232487
 30
0.0
 10
20.094822
 20
-49.114621
 30
0.0
 10
20.191007
 20
-48.927271
 30
0.0
  0
SPLINE
  5
2b4
100
AcDbEntity
  8
Layer_1
 62
7
100
AcDbSpline
 70
8
 71
3
 72
8
 73
4
 74
0
 40
0
 40
0
 40
0
 40
0
 40
1
 40
1
 40
1
 40
1
 10
20.191007
 20
-48.927271
 30
0.0
 10
20.291088
 20
-48.732228
 30
0.0
 10
20.364059
 20
-48.525350
 30
0.0
 10
20.454452
 20
-48.325842
 30
0.0
  0
SPLINE
  5
2b5
100
AcDbEntity
  8
Layer_1
 62
7
100
AcDbSpline
 70
8
 71
3
 72
8
 73
4
 74
0
 40
0
 40
0
 40
0
 40
0
 40
1
 40
1
 40
1
 40
1
 10
20.454452
 20
-48.325842
 30
0.0
 10
20.457441
 20
-48.353006
 30
0.0
 10
20.442806
 20
-48.356566
 30
0.0
 10
20.449337
 20
-48.387958
 30
0.0
  0
SPLINE
  5
2b6
100
AcDbEntity
  8
Layer_1
 62
7
100
AcDbSpline
 70
8
 71
3
 72
8
 73
4
 74
0
 40
0
 40
0
 40
0
 40
0
 40
1
 40
1
 40
1
 40
1
 10
20.449337
 20
-48.387958
 30
0.0
 10
20.486075
 20
-48.564510
 30
0.0
 10
20.605292
 20
-48.712716
 30
0.0
 10
20.769872
 20
-48.786433
 30
0.0
  0
SPLINE
  5
2b7
100
AcDbEntity
  8
Layer_1
 62
7
100
AcDbSpline
 70
8
 71
3
 72
8
 73
4
 74
0
 40
0
 40
0
 40
0
 40
0
 40
1
 40
1
 40
1
 40
1
 10
20.769872
 20
-48.786433
 30
0.0
 10
20.934451
 20
-48.860150
 30
0.0
 10
21.124406
 20
-48.850425
 30
0.0
 10
21.280598
 20
-48.760288
 30
0.0
  0
SPLINE
  5
2b8
100
AcDbEntity
  8
Layer_1
 62
7
100
AcDbSpline
 70
8
 71
3
 72
8
 73
4
 74
0
 40
0
 40
0
 40
0
 40
0
 40
1
 40
1
 40
1
 40
1
 10
21.280598
 20
-48.760288
 30
0.0
 10
22.691300
 20
-47.946017
 30
0.0
 10
24.101629
 20
-47.131480
 30
0.0
 10
25.512167
 20
-46.317298
 30
0.0
  0
SPLINE
  5
2b9
100
AcDbEntity
  8
Layer_1
 62
7
100
AcDbSpline
 70
8
 71
3
 72
8
 73
4
 74
0
 40
0
 40
0
 40
0
 40
0
 40
1
 40
1
 40
1
 40
1
 10
25.512167
 20
-46.317298
 30
0.0
 10
25.727935
 20
-46.192528
 30
0.0
 10
25.835769
 20
-45.940566
 30
0.0
 10
25.777072
 20
-45.698330
 30
0.0
  0
SPLINE
  5
2ba
100
AcDbEntity
  8
Layer_1
 62
7
100
AcDbSpline
 70
8
 71
3
 72
8
 73
4
 74
0
 40
0
 40
0
 40
0
 40
0
 40
1
 40
1
 40
1
 40
1
 10
25.777072
 20
-45.698330
 30
0.0
 10
26.066072
 20
-45.811502
 30
0.0
 10
26.405888
 20
-45.806331
 30
0.0
 10
26.701872
 20
-45.696460
 30
0.0
  0
SPLINE
  5
2bb
100
AcDbEntity
  8
Layer_1
 62
7
100
AcDbSpline
 70
8
 71
3
 72
8
 73
4
 74
0
 40
0
 40
0
 40
0
 40
0
 40
1
 40
1
 40
1
 40
1
 10
26.701872
 20
-45.696460
 30
0.0
 10
26.976652
 20
-45.594501
 30
0.0
 10
27.225757
 20
-45.414500
 30
0.0
 10
27.476131
 20
-45.183453
 30
0.0
  0
LWPOLYLINE
  5
2bc
100
AcDbEntity
  8
Layer_1
 62
7
100
AcDbPolyline
 90
2
 70
0
 10
7.405682
 20
-35.881444
 30
0.0
 10
7.405682
 20
-40.796657
 30
0.0
  0
SPLINE
  5
2bd
100
AcDbEntity
  8
Layer_1
 62
7
100
AcDbSpline
 70
8
 71
3
 72
8
 73
4
 74
0
 40
0
 40
0
 40
0
 40
0
 40
1
 40
1
 40
1
 40
1
 10
30.600206
 20
-43.379531
 30
0.0
 10
30.737190
 20
-43.300342
 30
0.0
 10
30.834454
 20
-43.167084
 30
0.0
 10
30.868115
 20
-43.012479
 30
0.0
  0
SPLINE
  5
2be
100
AcDbEntity
  8
Layer_1
 62
7
100
AcDbSpline
 70
8
 71
3
 72
8
 73
4
 74
0
 40
0
 40
0
 40
0
 40
0
 40
1
 40
1
 40
1
 40
1
 10
30.868115
 20
-43.012479
 30
0.0
 10
30.901776
 20
-42.857875
 30
0.0
 10
30.868717
 20
-42.696243
 30
0.0
 10
30.777054
 20
-42.567271
 30
0.0
  0
SPLINE
  5
2bf
100
AcDbEntity
  8
Layer_1
 62
7
100
AcDbSpline
 70
8
 71
3
 72
8
 73
4
 74
0
 40
0
 40
0
 40
0
 40
0
 40
1
 40
1
 40
1
 40
1
 10
30.777054
 20
-42.567271
 30
0.0
 10
30.884839
 20
-42.573258
 30
0.0
 10
30.992778
 20
-42.594916
 30
0.0
 10
31.100424
 20
-42.597963
 30
0.0
  0
SPLINE
  5
2c0
100
AcDbEntity
  8
Layer_1
 62
7
100
AcDbSpline
 70
8
 71
3
 72
8
 73
4
 74
0
 40
0
 40
0
 40
0
 40
0
 40
1
 40
1
 40
1
 40
1
 10
31.100424
 20
-42.597963
 30
0.0
 10
31.309350
 20
-42.603959
 30
0.0
 10
31.504349
 20
-42.493533
 30
0.0
 10
31.606674
 20
-42.311282
 30
0.0
  0
SPLINE
  5
2c1
100
AcDbEntity
  8
Layer_1
 62
7
100
AcDbSpline
 70
8
 71
3
 72
8
 73
4
 74
0
 40
0
 40
0
 40
0
 40
0
 40
1
 40
1
 40
1
 40
1
 10
31.606674
 20
-42.311282
 30
0.0
 10
31.708999
 20
-42.129031
 30
0.0
 10
31.701749
 20
-41.905053
 30
0.0
 10
31.587853
 20
-41.729800
 30
0.0
  0
SPLINE
  5
2c2
100
AcDbEntity
  8
Layer_1
 62
7
100
AcDbSpline
 70
8
 71
3
 72
8
 73
4
 74
0
 40
0
 40
0
 40
0
 40
0
 40
1
 40
1
 40
1
 40
1
 10
31.587853
 20
-41.729800
 30
0.0
 10
31.496918
 20
-41.589938
 30
0.0
 10
31.386694
 20
-41.464833
 30
0.0
 10
31.290792
 20
-41.328604
 30
0.0
  0
SPLINE
  5
2c3
100
AcDbEntity
  8
Layer_1
 62
7
100
AcDbSpline
 70
8
 71
3
 72
8
 73
4
 74
0
 40
0
 40
0
 40
0
 40
0
 40
1
 40
1
 40
1
 40
1
 10
31.290792
 20
-41.328604
 30
0.0
 10
31.462526
 20
-41.388109
 30
0.0
 10
31.652434
 20
-41.360905
 30
0.0
 10
31.800556
 20
-41.255580
 30
0.0
  0
SPLINE
  5
2c4
100
AcDbEntity
  8
Layer_1
 62
7
100
AcDbSpline
 70
8
 71
3
 72
8
 73
4
 74
0
 40
0
 40
0
 40
0
 40
0
 40
1
 40
1
 40
1
 40
1
 10
31.800556
 20
-41.255580
 30
0.0
 10
31.948678
 20
-41.150255
 30
0.0
 10
32.036732
 20
-40.979809
 30
0.0
 10
32.036916
 20
-40.798058
 30
0.0
  0
LWPOLYLINE
  5
2c5
100
AcDbEntity
  8
Layer_1
 62
7
100
AcDbPolyline
 90
2
 70
0
 10
27.476131
 20
-45.183453
 30
0.0
 10
30.600206
 20
-43.379531
 30
0.0
  0
SPLINE
  5
2c6
100
AcDbEntity
  8
Layer_1
 62
7
100
AcDbSpline
 70
8
 71
3
 72
8
 73
4
 74
0
 40
0
 40
0
 40
0
 40
0
 40
1
 40
1
 40
1
 40
1
 10
32.036916
 20
-35.863474
 30
0.0
 10
32.036911
 20
-35.700942
 30
0.0
 10
31.966553
 20
-35.546370
 30
0.0
 10
31.843990
 20
-35.439623
 30
0.0
  0
SPLINE
  5
2c7
100
AcDbEntity
  8
Layer_1
 62
7
100
AcDbSpline
 70
8
 71
3
 72
8
 73
4
 74
0
 40
0
 40
0
 40
0
 40
0
 40
1
 40
1
 40
1
 40
1
 10
31.843990
 20
-35.439623
 30
0.0
 10
31.966553
 20
-35.332877
 30
0.0
 10
32.036911
 20
-35.178304
 30
0.0
 10
32.036916
 20
-35.015773
 30
0.0
  0
LWPOLYLINE
  5
2c8
100
AcDbEntity
  8
Layer_1
 62
7
100
AcDbPolyline
 90
2
 70
0
 10
32.036916
 20
-40.798058
 30
0.0
 10
32.036916
 20
-35.863474
 30
0.0
  0
SPLINE
  5
2c9
100
AcDbEntity
  8
Layer_1
 62
7
100
AcDbSpline
 70
8
 71
3
 72
8
 73
4
 74
0
 40
0
 40
0
 40
0
 40
0
 40
1
 40
1
 40
1
 40
1
 10
32.036916
 20
-30.080892
 30
0.0
 10
32.036801
 20
-29.904774
 30
0.0
 10
31.954147
 20
-29.738891
 30
0.0
 10
31.813615
 20
-29.632738
 30
0.0
  0
SPLINE
  5
2ca
100
AcDbEntity
  8
Layer_1
 62
7
100
AcDbSpline
 70
8
 71
3
 72
8
 73
4
 74
0
 40
0
 40
0
 40
0
 40
0
 40
1
 40
1
 40
1
 40
1
 10
31.813615
 20
-29.632738
 30
0.0
 10
31.673084
 20
-29.526586
 30
0.0
 10
31.490922
 20
-29.492437
 30
0.0
 10
31.321484
 20
-29.540482
 30
0.0
  0
SPLINE
  5
2cb
100
AcDbEntity
  8
Layer_1
 62
7
100
AcDbSpline
 70
8
 71
3
 72
8
 73
4
 74
0
 40
0
 40
0
 40
0
 40
0
 40
1
 40
1
 40
1
 40
1
 10
31.321484
 20
-29.540482
 30
0.0
 10
31.412792
 20
-29.409528
 30
0.0
 10
31.518372
 20
-29.289173
 30
0.0
 10
31.605027
 20
-29.154996
 30
0.0
  0
SPLINE
  5
2cc
100
AcDbEntity
  8
Layer_1
 62
7
100
AcDbSpline
 70
8
 71
3
 72
8
 73
4
 74
0
 40
0
 40
0
 40
0
 40
0
 40
1
 40
1
 40
1
 40
1
 10
31.605027
 20
-29.154996
 30
0.0
 10
31.718660
 20
-28.978810
 30
0.0
 10
31.724797
 20
-28.754026
 30
0.0
 10
31.620945
 20
-28.571902
 30
0.0
  0
SPLINE
  5
2cd
100
AcDbEntity
  8
Layer_1
 62
7
100
AcDbSpline
 70
8
 71
3
 72
8
 73
4
 74
0
 40
0
 40
0
 40
0
 40
0
 40
1
 40
1
 40
1
 40
1
 10
31.620945
 20
-28.571902
 30
0.0
 10
31.517094
 20
-28.389779
 30
0.0
 10
31.320517
 20
-28.280588
 30
0.0
 10
31.111020
 20
-28.288659
 30
0.0
  0
LWPOLYLINE
  5
2ce
100
AcDbEntity
  8
Layer_1
 62
7
100
AcDbPolyline
 90
2
 70
0
 10
32.036916
 20
-35.015773
 30
0.0
 10
32.036916
 20
-30.080892
 30
0.0
  0
SPLINE
  5
2cf
100
AcDbEntity
  8
Layer_1
 62
7
100
AcDbSpline
 70
8
 71
3
 72
8
 73
4
 74
0
 40
0
 40
0
 40
0
 40
0
 40
1
 40
1
 40
1
 40
1
 10
31.026251
 20
-28.291951
 30
0.0
 10
31.024055
 20
-28.292063
 30
0.0
 10
31.021860
 20
-28.292188
 30
0.0
 10
31.019665
 20
-28.292325
 30
0.0
  0
SPLINE
  5
2d0
100
AcDbEntity
  8
Layer_1
 62
7
100
AcDbSpline
 70
8
 71
3
 72
8
 73
4
 74
0
 40
0
 40
0
 40
0
 40
0
 40
1
 40
1
 40
1
 40
1
 10
31.019665
 20
-28.292325
 30
0.0
 10
30.976082
 20
-28.294552
 30
0.0
 10
30.932803
 20
-28.304635
 30
0.0
 10
30.889221
 20
-28.307310
 30
0.0
  0
SPLINE
  5
2d1
100
AcDbEntity
  8
Layer_1
 62
7
100
AcDbSpline
 70
8
 71
3
 72
8
 73
4
 74
0
 40
0
 40
0
 40
0
 40
0
 40
1
 40
1
 40
1
 40
1
 10
30.889221
 20
-28.307310
 30
0.0
 10
31.039588
 20
-28.039050
 30
0.0
 10
30.946460
 20
-27.699752
 30
0.0
 10
30.680218
 20
-27.545840
 30
0.0
  0
SPLINE
  5
2d2
100
AcDbEntity
  8
Layer_1
 62
7
100
AcDbSpline
 70
8
 71
3
 72
8
 73
4
 74
0
 40
0
 40
0
 40
0
 40
0
 40
1
 40
1
 40
1
 40
1
 10
30.680218
 20
-27.545840
 30
0.0
 10
29.202136
 20
-26.692520
 30
0.0
 10
27.724016
 20
-25.838934
 30
0.0
 10
26.245859
 20
-24.985559
 30
0.0
  0
SPLINE
  5
2d3
100
AcDbEntity
  8
Layer_1
 62
7
100
AcDbSpline
 70
8
 71
3
 72
8
 73
4
 74
0
 40
0
 40
0
 40
0
 40
0
 40
1
 40
1
 40
1
 40
1
 10
26.245859
 20
-24.985559
 30
0.0
 10
26.105118
 20
-24.904452
 30
0.0
 10
25.936170
 20
-24.888197
 30
0.0
 10
25.782546
 20
-24.940982
 30
0.0
  0
SPLINE
  5
2d4
100
AcDbEntity
  8
Layer_1
 62
7
100
AcDbSpline
 70
8
 71
3
 72
8
 73
4
 74
0
 40
0
 40
0
 40
0
 40
0
 40
1
 40
1
 40
1
 40
1
 10
25.782546
 20
-24.940982
 30
0.0
 10
25.751167
 20
-24.781139
 30
0.0
 10
25.651988
 20
-24.642770
 30
0.0
 10
25.510696
 20
-24.561709
 30
0.0
  0
SPLINE
  5
2d5
100
AcDbEntity
  8
Layer_1
 62
7
100
AcDbSpline
 70
8
 71
3
 72
8
 73
4
 74
0
 40
0
 40
0
 40
0
 40
0
 40
1
 40
1
 40
1
 40
1
 10
25.510696
 20
-24.561709
 30
0.0
 10
24.029359
 20
-23.713189
 30
0.0
 10
22.554006
 20
-22.843067
 30
0.0
 10
21.058432
 20
-21.995582
 30
0.0
  0
SPLINE
  5
2d6
100
AcDbEntity
  8
Layer_1
 62
7
100
AcDbSpline
 70
8
 71
3
 72
8
 73
4
 74
0
 40
0
 40
0
 40
0
 40
0
 40
1
 40
1
 40
1
 40
1
 10
21.058432
 20
-21.995582
 30
0.0
 10
20.927701
 20
-21.921632
 30
0.0
 10
20.772812
 20
-21.903078
 30
0.0
 10
20.628315
 20
-21.944060
 30
0.0
  0
SPLINE
  5
2d7
100
AcDbEntity
  8
Layer_1
 62
7
100
AcDbSpline
 70
8
 71
3
 72
8
 73
4
 74
0
 40
0
 40
0
 40
0
 40
0
 40
1
 40
1
 40
1
 40
1
 10
20.628315
 20
-21.944060
 30
0.0
 10
20.483817
 20
-21.985041
 30
0.0
 10
20.361731
 20
-22.082148
 30
0.0
 10
20.289289
 20
-22.213720
 30
0.0
  0
SPLINE
  5
2d8
100
AcDbEntity
  8
Layer_1
 62
7
100
AcDbSpline
 70
8
 71
3
 72
8
 73
4
 74
0
 40
0
 40
0
 40
0
 40
0
 40
1
 40
1
 40
1
 40
1
 10
20.289289
 20
-22.213720
 30
0.0
 10
20.253277
 20
-22.140091
 30
0.0
 10
20.228353
 20
-22.061628
 30
0.0
 10
20.190999
 20
-21.988640
 30
0.0
  0
SPLINE
  5
2d9
100
AcDbEntity
  8
Layer_1
 62
7
100
AcDbSpline
 70
8
 71
3
 72
8
 73
4
 74
0
 40
0
 40
0
 40
0
 40
0
 40
1
 40
1
 40
1
 40
1
 10
20.190999
 20
-21.988640
 30
0.0
 10
20.093192
 20
-21.797606
 30
0.0
 10
19.895141
 20
-21.678939
 30
0.0
 10
19.680560
 20
-21.682799
 30
0.0
  0
LWPOLYLINE
  5
2da
100
AcDbEntity
  8
Layer_1
 62
7
100
AcDbPolyline
 90
2
 70
0
 10
31.111020
 20
-28.288659
 30
0.0
 10
31.026251
 20
-28.291951
 30
0.0
  0
SPLINE
  5
2db
100
AcDbEntity
  8
Layer_1
 62
7
100
AcDbSpline
 70
8
 71
3
 72
8
 73
4
 74
0
 40
0
 40
0
 40
0
 40
0
 40
1
 40
1
 40
1
 40
1
 10
18.390745
 20
-23.920798
 30
0.0
 10
18.221925
 20
-24.428516
 30
0.0
 10
18.080388
 20
-24.945427
 30
0.0
 10
17.969817
 20
-25.472607
 30
0.0
  0
SPLINE
  5
2dc
100
AcDbEntity
  8
Layer_1
 62
7
100
AcDbSpline
 70
8
 71
3
 72
8
 73
4
 74
0
 40
0
 40
0
 40
0
 40
0
 40
1
 40
1
 40
1
 40
1
 10
17.969817
 20
-25.472607
 30
0.0
 10
17.863955
 20
-25.375597
 30
0.0
 10
17.724981
 20
-25.322778
 30
0.0
 10
17.581410
 20
-25.324988
 30
0.0
  0
SPLINE
  5
2dd
100
AcDbEntity
  8
Layer_1
 62
7
100
AcDbSpline
 70
8
 71
3
 72
8
 73
4
 74
0
 40
0
 40
0
 40
0
 40
0
 40
1
 40
1
 40
1
 40
1
 10
17.581410
 20
-25.324988
 30
0.0
 10
17.852173
 20
-24.857487
 30
0.0
 10
18.121361
 20
-24.390066
 30
0.0
 10
18.390745
 20
-23.920798
 30
0.0
  0
LWPOLYLINE
  5
2de
100
AcDbEntity
  8
Layer_1
 62
7
100
AcDbPolyline
 90
1
 70
1
 10
19.680560
 20
-21.682799
 30
0.0
  0
SPLINE
  5
2df
100
AcDbEntity
  8
Layer_1
 62
7
100
AcDbSpline
 70
8
 71
3
 72
8
 73
4
 74
0
 40
0
 40
0
 40
0
 40
0
 40
1
 40
1
 40
1
 40
1
 10
21.010949
 20
-24.021647
 30
0.0
 10
21.309610
 20
-24.543669
 30
0.0
 10
21.607417
 20
-25.062411
 30
0.0
 10
21.908708
 20
-25.580761
 30
0.0
  0
SPLINE
  5
2e0
100
AcDbEntity
  8
Layer_1
 62
7
100
AcDbSpline
 70
8
 71
3
 72
8
 73
4
 74
0
 40
0
 40
0
 40
0
 40
0
 40
1
 40
1
 40
1
 40
1
 10
21.908708
 20
-25.580761
 30
0.0
 10
21.741069
 20
-25.557696
 30
0.0
 10
21.571959
 20
-25.611381
 30
0.0
 10
21.448320
 20
-25.726916
 30
0.0
  0
SPLINE
  5
2e1
100
AcDbEntity
  8
Layer_1
 62
7
100
AcDbSpline
 70
8
 71
3
 72
8
 73
4
 74
0
 40
0
 40
0
 40
0
 40
0
 40
1
 40
1
 40
1
 40
1
 10
21.448320
 20
-25.726916
 30
0.0
 10
21.337264
 20
-25.149442
 30
0.0
 10
21.192573
 20
-24.580943
 30
0.0
 10
21.010949
 20
-24.021647
 30
0.0
  0
LWPOLYLINE
  5
2e2
100
AcDbEntity
  8
Layer_1
 62
7
100
AcDbPolyline
 90
1
 70
1
 10
18.390745
 20
-23.920798
 30
0.0
  0
SPLINE
  5
2e3
100
AcDbEntity
  8
Layer_1
 62
7
100
AcDbSpline
 70
8
 71
3
 72
8
 73
4
 74
0
 40
0
 40
0
 40
0
 40
0
 40
1
 40
1
 40
1
 40
1
 10
15.471653
 20
-28.076733
 30
0.0
 10
15.532194
 20
-28.097481
 30
0.0
 10
15.595834
 20
-28.107738
 30
0.0
 10
15.659829
 20
-28.107061
 30
0.0
  0
SPLINE
  5
2e4
100
AcDbEntity
  8
Layer_1
 62
7
100
AcDbSpline
 70
8
 71
3
 72
8
 73
4
 74
0
 40
0
 40
0
 40
0
 40
0
 40
1
 40
1
 40
1
 40
1
 10
15.659829
 20
-28.107061
 30
0.0
 10
15.658519
 20
-28.109231
 30
0.0
 10
15.657434
 20
-28.111476
 30
0.0
 10
15.656180
 20
-28.113646
 30
0.0
  0
SPLINE
  5
2e5
100
AcDbEntity
  8
Layer_1
 62
7
100
AcDbSpline
 70
8
 71
3
 72
8
 73
4
 74
0
 40
0
 40
0
 40
0
 40
0
 40
1
 40
1
 40
1
 40
1
 10
15.656180
 20
-28.113646
 30
0.0
 10
15.625174
 20
-28.167525
 30
0.0
 10
15.603319
 20
-28.226174
 30
0.0
 10
15.591507
 20
-28.287205
 30
0.0
  0
SPLINE
  5
2e6
100
AcDbEntity
  8
Layer_1
 62
7
100
AcDbSpline
 70
8
 71
3
 72
8
 73
4
 74
0
 40
0
 40
0
 40
0
 40
0
 40
1
 40
1
 40
1
 40
1
 10
15.591507
 20
-28.287205
 30
0.0
 10
15.532494
 20
-28.266860
 30
0.0
 10
15.470504
 20
-28.256488
 30
0.0
 10
15.408082
 20
-28.256513
 30
0.0
  0
LWPOLYLINE
  5
2e7
100
AcDbEntity
  8
Layer_1
 62
7
100
AcDbPolyline
 90
1
 70
1
 10
21.010949
 20
-24.021647
 30
0.0
  0
SPLINE
  5
2e8
100
AcDbEntity
  8
Layer_1
 62
7
100
AcDbSpline
 70
8
 71
3
 72
8
 73
4
 74
0
 40
0
 40
0
 40
0
 40
0
 40
1
 40
1
 40
1
 40
1
 10
15.403704
 20
-28.256513
 30
0.0
 10
15.436511
 20
-28.200935
 30
0.0
 10
15.459501
 20
-28.140122
 30
0.0
 10
15.471666
 20
-28.076741
 30
0.0
  0
LWPOLYLINE
  5
2e9
100
AcDbEntity
  8
Layer_1
 62
7
100
AcDbPolyline
 90
2
 70
0
 10
15.408082
 20
-28.256513
 30
0.0
 10
15.403704
 20
-28.256513
 30
0.0
  0
SPLINE
  5
2ea
100
AcDbEntity
  8
Layer_1
 62
7
100
AcDbSpline
 70
8
 71
3
 72
8
 73
4
 74
0
 40
0
 40
0
 40
0
 40
0
 40
1
 40
1
 40
1
 40
1
 10
23.923464
 20
-28.163330
 30
0.0
 10
23.935971
 20
-28.226781
 30
0.0
 10
23.959333
 20
-28.287597
 30
0.0
 10
23.992523
 20
-28.343102
 30
0.0
  0
LWPOLYLINE
  5
2eb
100
AcDbEntity
  8
Layer_1
 62
7
100
AcDbPolyline
 90
1
 70
1
 10
15.471666
 20
-28.076741
 30
0.0
  0
SPLINE
  5
2ec
100
AcDbEntity
  8
Layer_1
 62
7
100
AcDbSpline
 70
8
 71
3
 72
8
 73
4
 74
0
 40
0
 40
0
 40
0
 40
0
 40
1
 40
1
 40
1
 40
1
 10
23.984123
 20
-28.343102
 30
0.0
 10
23.896316
 20
-28.343053
 30
0.0
 10
23.809719
 20
-28.363576
 30
0.0
 10
23.731272
 20
-28.403026
 30
0.0
  0
SPLINE
  5
2ed
100
AcDbEntity
  8
Layer_1
 62
7
100
AcDbSpline
 70
8
 71
3
 72
8
 73
4
 74
0
 40
0
 40
0
 40
0
 40
0
 40
1
 40
1
 40
1
 40
1
 10
23.731272
 20
-28.403026
 30
0.0
 10
23.738235
 20
-28.332806
 30
0.0
 10
23.731914
 20
-28.261903
 30
0.0
 10
23.712639
 20
-28.194023
 30
0.0
  0
SPLINE
  5
2ee
100
AcDbEntity
  8
Layer_1
 62
7
100
AcDbSpline
 70
8
 71
3
 72
8
 73
4
 74
0
 40
0
 40
0
 40
0
 40
0
 40
1
 40
1
 40
1
 40
1
 10
23.712639
 20
-28.194023
 30
0.0
 10
23.784230
 20
-28.197326
 30
0.0
 10
23.855791
 20
-28.186908
 30
0.0
 10
23.923468
 20
-28.163330
 30
0.0
  0
LWPOLYLINE
  5
2ef
100
AcDbEntity
  8
Layer_1
 62
7
100
AcDbPolyline
 90
2
 70
0
 10
23.992523
 20
-28.343102
 30
0.0
 10
23.984123
 20
-28.343102
 30
0.0
  0
LWPOLYLINE
  5
2f0
100
AcDbEntity
  8
Layer_1
 62
7
100
AcDbPolyline
 90
1
 70
1
 10
23.923468
 20
-28.163330
 30
0.0
  0
SPLINE
  5
2f1
100
AcDbEntity
  8
Layer_1
 62
7
100
AcDbSpline
 70
8
 71
3
 72
8
 73
4
 74
0
 40
0
 40
0
 40
0
 40
0
 40
1
 40
1
 40
1
 40
1
 10
11.870378
 20
-28.532739
 30
0.0
 10
11.796062
 20
-28.658540
 30
0.0
 10
11.773652
 20
-28.808335
 30
0.0
 10
11.807897
 20
-28.950378
 30
0.0
  0
SPLINE
  5
2f2
100
AcDbEntity
  8
Layer_1
 62
7
100
AcDbSpline
 70
8
 71
3
 72
8
 73
4
 74
0
 40
0
 40
0
 40
0
 40
0
 40
1
 40
1
 40
1
 40
1
 10
11.807897
 20
-28.950378
 30
0.0
 10
11.271469
 20
-28.779053
 30
0.0
 10
10.727237
 20
-28.638869
 30
0.0
 10
10.174974
 20
-28.532739
 30
0.0
  0
LWPOLYLINE
  5
2f3
100
AcDbEntity
  8
Layer_1
 62
7
100
AcDbPolyline
 90
2
 70
0
 10
10.174974
 20
-28.532739
 30
0.0
 10
11.870378
 20
-28.532739
 30
0.0
  0
SPLINE
  5
2f4
100
AcDbEntity
  8
Layer_1
 62
7
100
AcDbSpline
 70
8
 71
3
 72
8
 73
4
 74
0
 40
0
 40
0
 40
0
 40
0
 40
1
 40
1
 40
1
 40
1
 10
28.885080
 20
-28.599969
 30
0.0
 10
28.361933
 20
-28.713338
 30
0.0
 10
27.846117
 20
-28.854936
 30
0.0
 10
27.336927
 20
-29.027840
 30
0.0
  0
SPLINE
  5
2f5
100
AcDbEntity
  8
Layer_1
 62
7
100
AcDbSpline
 70
8
 71
3
 72
8
 73
4
 74
0
 40
0
 40
0
 40
0
 40
0
 40
1
 40
1
 40
1
 40
1
 10
27.336927
 20
-29.027840
 30
0.0
 10
27.369326
 20
-28.883082
 30
0.0
 10
27.343190
 20
-28.731385
 30
0.0
 10
27.264215
 20
-28.605816
 30
0.0
  0
SPLINE
  5
2f6
100
AcDbEntity
  8
Layer_1
 62
7
100
AcDbSpline
 70
8
 71
3
 72
8
 73
4
 74
0
 40
0
 40
0
 40
0
 40
0
 40
1
 40
1
 40
1
 40
1
 10
27.264215
 20
-28.605816
 30
0.0
 10
27.804273
 20
-28.608023
 30
0.0
 10
28.342718
 20
-28.604319
 30
0.0
 10
28.885080
 20
-28.599979
 30
0.0
  0
LWPOLYLINE
  5
2f7
100
AcDbEntity
  8
Layer_1
 62
7
100
AcDbPolyline
 90
1
 70
1
 10
10.174974
 20
-28.532739
 30
0.0
  0
SPLINE
  5
2f8
100
AcDbEntity
  8
Layer_1
 62
7
100
AcDbSpline
 70
8
 71
3
 72
8
 73
4
 74
0
 40
0
 40
0
 40
0
 40
0
 40
1
 40
1
 40
1
 40
1
 10
30.537003
 20
-30.581839
 30
0.0
 10
30.282968
 20
-31.021943
 30
0.0
 10
30.028829
 20
-31.462026
 30
0.0
 10
29.774802
 20
-31.901989
 30
0.0
  0
SPLINE
  5
2f9
100
AcDbEntity
  8
Layer_1
 62
7
100
AcDbSpline
 70
8
 71
3
 72
8
 73
4
 74
0
 40
0
 40
0
 40
0
 40
0
 40
1
 40
1
 40
1
 40
1
 10
29.774802
 20
-31.901989
 30
0.0
 10
29.774677
 20
-31.902114
 30
0.0
 10
29.774552
 20
-31.902238
 30
0.0
 10
29.774427
 20
-31.902363
 30
0.0
  0
SPLINE
  5
2fa
100
AcDbEntity
  8
Layer_1
 62
7
100
AcDbSpline
 70
8
 71
3
 72
8
 73
4
 74
0
 40
0
 40
0
 40
0
 40
0
 40
1
 40
1
 40
1
 40
1
 10
29.774427
 20
-31.902363
 30
0.0
 10
29.739118
 20
-31.963641
 30
0.0
 10
29.703773
 20
-32.024877
 30
0.0
 10
29.668464
 20
-32.086155
 30
0.0
  0
SPLINE
  5
2fb
100
AcDbEntity
  8
Layer_1
 62
7
100
AcDbSpline
 70
8
 71
3
 72
8
 73
4
 74
0
 40
0
 40
0
 40
0
 40
0
 40
1
 40
1
 40
1
 40
1
 10
29.668464
 20
-32.086155
 30
0.0
 10
29.597528
 20
-31.959739
 30
0.0
 10
29.480495
 20
-31.865615
 30
0.0
 10
29.341807
 20
-31.823440
 30
0.0
  0
SPLINE
  5
2fc
100
AcDbEntity
  8
Layer_1
 62
7
100
AcDbSpline
 70
8
 71
3
 72
8
 73
4
 74
0
 40
0
 40
0
 40
0
 40
0
 40
1
 40
1
 40
1
 40
1
 10
29.341807
 20
-31.823440
 30
0.0
 10
29.764529
 20
-31.433459
 30
0.0
 10
30.164852
 20
-31.020414
 30
0.0
 10
30.536994
 20
-30.581848
 30
0.0
  0
LWPOLYLINE
  5
2fd
100
AcDbEntity
  8
Layer_1
 62
7
100
AcDbPolyline
 90
1
 70
1
 10
28.885080
 20
-28.599979
 30
0.0
  0
SPLINE
  5
2fe
100
AcDbEntity
  8
Layer_1
 62
7
100
AcDbSpline
 70
8
 71
3
 72
8
 73
4
 74
0
 40
0
 40
0
 40
0
 40
0
 40
1
 40
1
 40
1
 40
1
 10
9.011575
 20
-30.775496
 30
0.0
 10
9.369682
 20
-31.181714
 30
0.0
 10
9.750409
 20
-31.568393
 30
0.0
 10
10.154513
 20
-31.933048
 30
0.0
  0
SPLINE
  5
2ff
100
AcDbEntity
  8
Layer_1
 62
7
100
AcDbSpline
 70
8
 71
3
 72
8
 73
4
 74
0
 40
0
 40
0
 40
0
 40
0
 40
1
 40
1
 40
1
 40
1
 10
10.154513
 20
-31.933048
 30
0.0
 10
10.016572
 20
-31.977190
 30
0.0
 10
9.900993
 20
-32.072872
 30
0.0
 10
9.831874
 20
-32.200146
 30
0.0
  0
SPLINE
  5
300
100
AcDbEntity
  8
Layer_1
 62
7
100
AcDbSpline
 70
8
 71
3
 72
8
 73
4
 74
0
 40
0
 40
0
 40
0
 40
0
 40
1
 40
1
 40
1
 40
1
 10
9.831874
 20
-32.200146
 30
0.0
 10
9.557766
 20
-31.725682
 30
0.0
 10
9.286398
 20
-31.248972
 30
0.0
 10
9.011575
 20
-30.775496
 30
0.0
  0
LWPOLYLINE
  5
301
100
AcDbEntity
  8
Layer_1
 62
7
100
AcDbPolyline
 90
1
 70
1
 10
30.536994
 20
-30.581848
 30
0.0
  0
SPLINE
  5
302
100
AcDbEntity
  8
Layer_1
 62
7
100
AcDbSpline
 70
8
 71
3
 72
8
 73
4
 74
0
 40
0
 40
0
 40
0
 40
0
 40
1
 40
1
 40
1
 40
1
 10
17.934375
 20
-31.193500
 30
0.0
 10
18.116740
 20
-32.114567
 30
0.0
 10
18.394240
 20
-33.004093
 30
0.0
 10
18.768557
 20
-33.850244
 30
0.0
  0
SPLINE
  5
303
100
AcDbEntity
  8
Layer_1
 62
7
100
AcDbSpline
 70
8
 71
3
 72
8
 73
4
 74
0
 40
0
 40
0
 40
0
 40
0
 40
1
 40
1
 40
1
 40
1
 10
18.768557
 20
-33.850244
 30
0.0
 10
18.269733
 20
-33.187881
 30
0.0
 10
17.724637
 20
-32.565022
 30
0.0
 10
17.114808
 20
-32.007221
 30
0.0
  0
SPLINE
  5
304
100
AcDbEntity
  8
Layer_1
 62
7
100
AcDbSpline
 70
8
 71
3
 72
8
 73
4
 74
0
 40
0
 40
0
 40
0
 40
0
 40
1
 40
1
 40
1
 40
1
 10
17.114808
 20
-32.007221
 30
0.0
 10
17.396639
 20
-31.916371
 30
0.0
 10
17.559657
 20
-31.622458
 30
0.0
 10
17.487504
 20
-31.335272
 30
0.0
  0
SPLINE
  5
305
100
AcDbEntity
  8
Layer_1
 62
7
100
AcDbSpline
 70
8
 71
3
 72
8
 73
4
 74
0
 40
0
 40
0
 40
0
 40
0
 40
1
 40
1
 40
1
 40
1
 10
17.487504
 20
-31.335272
 30
0.0
 10
17.650000
 20
-31.355355
 30
0.0
 10
17.813176
 20
-31.303586
 30
0.0
 10
17.934375
 20
-31.193500
 30
0.0
  0
LWPOLYLINE
  5
306
100
AcDbEntity
  8
Layer_1
 62
7
100
AcDbPolyline
 90
1
 70
1
 10
9.011575
 20
-30.775496
 30
0.0
  0
SPLINE
  5
307
100
AcDbEntity
  8
Layer_1
 62
7
100
AcDbSpline
 70
8
 71
3
 72
8
 73
4
 74
0
 40
0
 40
0
 40
0
 40
0
 40
1
 40
1
 40
1
 40
1
 10
21.398261
 20
-31.440869
 30
0.0
 10
21.568844
 20
-31.597799
 30
0.0
 10
21.818264
 20
-31.633928
 30
0.0
 10
22.026364
 20
-31.531851
 30
0.0
  0
SPLINE
  5
308
100
AcDbEntity
  8
Layer_1
 62
7
100
AcDbSpline
 70
8
 71
3
 72
8
 73
4
 74
0
 40
0
 40
0
 40
0
 40
0
 40
1
 40
1
 40
1
 40
1
 10
22.026364
 20
-31.531851
 30
0.0
 10
22.081393
 20
-31.708291
 30
0.0
 10
22.219643
 20
-31.846404
 30
0.0
 10
22.396137
 20
-31.901259
 30
0.0
  0
SPLINE
  5
309
100
AcDbEntity
  8
Layer_1
 62
7
100
AcDbSpline
 70
8
 71
3
 72
8
 73
4
 74
0
 40
0
 40
0
 40
0
 40
0
 40
1
 40
1
 40
1
 40
1
 10
22.396137
 20
-31.901259
 30
0.0
 10
21.726441
 20
-32.501505
 30
0.0
 10
21.129810
 20
-33.165044
 30
0.0
 10
20.607559
 20
-33.882762
 30
0.0
  0
SPLINE
  5
30a
100
AcDbEntity
  8
Layer_1
 62
7
100
AcDbSpline
 70
8
 71
3
 72
8
 73
4
 74
0
 40
0
 40
0
 40
0
 40
0
 40
1
 40
1
 40
1
 40
1
 10
20.607559
 20
-33.882762
 30
0.0
 10
20.945846
 20
-33.091608
 30
0.0
 10
21.216789
 20
-32.277649
 30
0.0
 10
21.398261
 20
-31.440869
 30
0.0
  0
LWPOLYLINE
  5
30b
100
AcDbEntity
  8
Layer_1
 62
7
100
AcDbPolyline
 90
1
 70
1
 10
17.934375
 20
-31.193500
 30
0.0
  0
SPLINE
  5
30c
100
AcDbEntity
  8
Layer_1
 62
7
100
AcDbSpline
 70
8
 71
3
 72
8
 73
4
 74
0
 40
0
 40
0
 40
0
 40
0
 40
1
 40
1
 40
1
 40
1
 10
15.071186
 20
-34.829121
 30
0.0
 10
16.011595
 20
-35.148887
 30
0.0
 10
16.975298
 20
-35.354254
 30
0.0
 10
17.949721
 20
-35.436763
 30
0.0
  0
SPLINE
  5
30d
100
AcDbEntity
  8
Layer_1
 62
7
100
AcDbSpline
 70
8
 71
3
 72
8
 73
4
 74
0
 40
0
 40
0
 40
0
 40
0
 40
1
 40
1
 40
1
 40
1
 10
17.949721
 20
-35.436763
 30
0.0
 10
17.056906
 20
-35.539337
 30
0.0
 10
16.176315
 20
-35.712566
 30
0.0
 10
15.326959
 20
-35.986673
 30
0.0
  0
SPLINE
  5
30e
100
AcDbEntity
  8
Layer_1
 62
7
100
AcDbSpline
 70
8
 71
3
 72
8
 73
4
 74
0
 40
0
 40
0
 40
0
 40
0
 40
1
 40
1
 40
1
 40
1
 10
15.326959
 20
-35.986673
 30
0.0
 10
15.380592
 20
-35.719919
 30
0.0
 10
15.235461
 20
-35.453050
 30
0.0
 10
14.982396
 20
-35.353088
 30
0.0
  0
SPLINE
  5
30f
100
AcDbEntity
  8
Layer_1
 62
7
100
AcDbSpline
 70
8
 71
3
 72
8
 73
4
 74
0
 40
0
 40
0
 40
0
 40
0
 40
1
 40
1
 40
1
 40
1
 10
14.982396
 20
-35.353088
 30
0.0
 10
15.052600
 20
-35.266332
 30
0.0
 10
15.125396
 20
-35.130232
 30
0.0
 10
15.123802
 20
-34.984411
 30
0.0
  0
SPLINE
  5
310
100
AcDbEntity
  8
Layer_1
 62
7
100
AcDbSpline
 70
8
 71
3
 72
8
 73
4
 74
0
 40
0
 40
0
 40
0
 40
0
 40
1
 40
1
 40
1
 40
1
 10
15.123802
 20
-34.984411
 30
0.0
 10
15.123054
 20
-34.913121
 30
0.0
 10
15.090378
 20
-34.883052
 30
0.0
 10
15.071186
 20
-34.829121
 30
0.0
  0
LWPOLYLINE
  5
311
100
AcDbEntity
  8
Layer_1
 62
7
100
AcDbPolyline
 90
1
 70
1
 10
21.398261
 20
-31.440869
 30
0.0
  0
SPLINE
  5
312
100
AcDbEntity
  8
Layer_1
 62
7
100
AcDbSpline
 70
8
 71
3
 72
8
 73
4
 74
0
 40
0
 40
0
 40
0
 40
0
 40
1
 40
1
 40
1
 40
1
 10
24.111273
 20
-34.897083
 30
0.0
 10
24.069696
 20
-35.081404
 30
0.0
 10
24.123510
 20
-35.274282
 30
0.0
 10
24.254507
 20
-35.410454
 30
0.0
  0
SPLINE
  5
313
100
AcDbEntity
  8
Layer_1
 62
7
100
AcDbSpline
 70
8
 71
3
 72
8
 73
4
 74
0
 40
0
 40
0
 40
0
 40
0
 40
1
 40
1
 40
1
 40
1
 10
24.254507
 20
-35.410454
 30
0.0
 10
24.069298
 20
-35.542165
 30
0.0
 10
23.981627
 20
-35.772446
 30
0.0
 10
24.032350
 20
-35.993980
 30
0.0
  0
SPLINE
  5
314
100
AcDbEntity
  8
Layer_1
 62
7
100
AcDbSpline
 70
8
 71
3
 72
8
 73
4
 74
0
 40
0
 40
0
 40
0
 40
0
 40
1
 40
1
 40
1
 40
1
 10
24.032350
 20
-35.993980
 30
0.0
 10
23.245993
 20
-35.739784
 30
0.0
 10
22.438700
 20
-35.562824
 30
0.0
 10
21.617495
 20
-35.453570
 30
0.0
  0
SPLINE
  5
315
100
AcDbEntity
  8
Layer_1
 62
7
100
AcDbSpline
 70
8
 71
3
 72
8
 73
4
 74
0
 40
0
 40
0
 40
0
 40
0
 40
1
 40
1
 40
1
 40
1
 10
21.617495
 20
-35.453570
 30
0.0
 10
22.465884
 20
-35.345917
 30
0.0
 10
23.299694
 20
-35.163412
 30
0.0
 10
24.111273
 20
-34.897083
 30
0.0
  0
LWPOLYLINE
  5
316
100
AcDbEntity
  8
Layer_1
 62
7
100
AcDbPolyline
 90
1
 70
1
 10
15.071186
 20
-34.829121
 30
0.0
  0
SPLINE
  5
317
100
AcDbEntity
  8
Layer_1
 62
7
100
AcDbSpline
 70
8
 71
3
 72
8
 73
4
 74
0
 40
0
 40
0
 40
0
 40
0
 40
1
 40
1
 40
1
 40
1
 10
19.431373
 20
-35.021681
 30
0.0
 10
19.588764
 20
-35.110148
 30
0.0
 10
19.779071
 20
-35.117624
 30
0.0
 10
19.942917
 20
-35.041777
 30
0.0
  0
SPLINE
  5
318
100
AcDbEntity
  8
Layer_1
 62
7
100
AcDbSpline
 70
8
 71
3
 72
8
 73
4
 74
0
 40
0
 40
0
 40
0
 40
0
 40
1
 40
1
 40
1
 40
1
 10
19.942917
 20
-35.041777
 30
0.0
 10
19.952123
 20
-35.190408
 30
0.0
 10
20.019932
 20
-35.329312
 30
0.0
 10
20.131458
 20
-35.427993
 30
0.0
  0
SPLINE
  5
319
100
AcDbEntity
  8
Layer_1
 62
7
100
AcDbSpline
 70
8
 71
3
 72
8
 73
4
 74
0
 40
0
 40
0
 40
0
 40
0
 40
1
 40
1
 40
1
 40
1
 10
20.131458
 20
-35.427993
 30
0.0
 10
19.999044
 20
-35.519042
 30
0.0
 10
19.911933
 20
-35.662411
 30
0.0
 10
19.892128
 20
-35.821882
 30
0.0
  0
SPLINE
  5
31a
100
AcDbEntity
  8
Layer_1
 62
7
100
AcDbSpline
 70
8
 71
3
 72
8
 73
4
 74
0
 40
0
 40
0
 40
0
 40
0
 40
1
 40
1
 40
1
 40
1
 10
19.892128
 20
-35.821882
 30
0.0
 10
19.754505
 20
-35.769769
 30
0.0
 10
19.601933
 20
-35.773705
 30
0.0
 10
19.467181
 20
-35.832845
 30
0.0
  0
SPLINE
  5
31b
100
AcDbEntity
  8
Layer_1
 62
7
100
AcDbSpline
 70
8
 71
3
 72
8
 73
4
 74
0
 40
0
 40
0
 40
0
 40
0
 40
1
 40
1
 40
1
 40
1
 10
19.467181
 20
-35.832845
 30
0.0
 10
19.444425
 20
-35.655614
 30
0.0
 10
19.338760
 20
-35.499760
 30
0.0
 10
19.182543
 20
-35.413013
 30
0.0
  0
SPLINE
  5
31c
100
AcDbEntity
  8
Layer_1
 62
7
100
AcDbSpline
 70
8
 71
3
 72
8
 73
4
 74
0
 40
0
 40
0
 40
0
 40
0
 40
1
 40
1
 40
1
 40
1
 10
19.182543
 20
-35.413013
 30
0.0
 10
19.317938
 20
-35.324458
 30
0.0
 10
19.408611
 20
-35.181857
 30
0.0
 10
19.431373
 20
-35.021683
 30
0.0
  0
LWPOLYLINE
  5
31d
100
AcDbEntity
  8
Layer_1
 62
7
100
AcDbPolyline
 90
1
 70
1
 10
24.111273
 20
-34.897083
 30
0.0
  0
SPLINE
  5
31e
100
AcDbEntity
  8
Layer_1
 62
7
100
AcDbSpline
 70
8
 71
3
 72
8
 73
4
 74
0
 40
0
 40
0
 40
0
 40
0
 40
1
 40
1
 40
1
 40
1
 10
11.322296
 20
-35.266856
 30
0.0
 10
11.371225
 20
-35.315897
 30
0.0
 10
11.442491
 20
-35.350733
 30
0.0
 10
11.501336
 20
-35.394012
 30
0.0
  0
SPLINE
  5
31f
100
AcDbEntity
  8
Layer_1
 62
7
100
AcDbSpline
 70
8
 71
3
 72
8
 73
4
 74
0
 40
0
 40
0
 40
0
 40
0
 40
1
 40
1
 40
1
 40
1
 10
11.501336
 20
-35.394012
 30
0.0
 10
11.415700
 20
-35.444451
 30
0.0
 10
11.344969
 20
-35.516695
 30
0.0
 10
11.296352
 20
-35.603379
 30
0.0
  0
SPLINE
  5
320
100
AcDbEntity
  8
Layer_1
 62
7
100
AcDbSpline
 70
8
 71
3
 72
8
 73
4
 74
0
 40
0
 40
0
 40
0
 40
0
 40
1
 40
1
 40
1
 40
1
 10
11.296352
 20
-35.603379
 30
0.0
 10
11.265523
 20
-35.548255
 30
0.0
 10
11.225624
 20
-35.498722
 30
0.0
 10
11.178331
 20
-35.456859
 30
0.0
  0
SPLINE
  5
321
100
AcDbEntity
  8
Layer_1
 62
7
100
AcDbSpline
 70
8
 71
3
 72
8
 73
4
 74
0
 40
0
 40
0
 40
0
 40
0
 40
1
 40
1
 40
1
 40
1
 10
11.178331
 20
-35.456859
 30
0.0
 10
11.239352
 20
-35.404546
 30
0.0
 10
11.288444
 20
-35.339755
 30
0.0
 10
11.322296
 20
-35.266856
 30
0.0
  0
LWPOLYLINE
  5
322
100
AcDbEntity
  8
Layer_1
 62
7
100
AcDbPolyline
 90
1
 70
1
 10
19.431373
 20
-35.021683
 30
0.0
  0
SPLINE
  5
323
100
AcDbEntity
  8
Layer_1
 62
7
100
AcDbSpline
 70
8
 71
3
 72
8
 73
4
 74
0
 40
0
 40
0
 40
0
 40
0
 40
1
 40
1
 40
1
 40
1
 10
28.135667
 20
-35.290607
 30
0.0
 10
28.167477
 20
-35.348213
 30
0.0
 10
28.209156
 20
-35.399785
 30
0.0
 10
28.258804
 20
-35.442974
 30
0.0
  0
SPLINE
  5
324
100
AcDbEntity
  8
Layer_1
 62
7
100
AcDbSpline
 70
8
 71
3
 72
8
 73
4
 74
0
 40
0
 40
0
 40
0
 40
0
 40
1
 40
1
 40
1
 40
1
 10
28.258804
 20
-35.442974
 30
0.0
 10
28.211217
 20
-35.484419
 30
0.0
 10
28.170948
 20
-35.533581
 30
0.0
 10
28.139687
 20
-35.588398
 30
0.0
  0
SPLINE
  5
325
100
AcDbEntity
  8
Layer_1
 62
7
100
AcDbSpline
 70
8
 71
3
 72
8
 73
4
 74
0
 40
0
 40
0
 40
0
 40
0
 40
1
 40
1
 40
1
 40
1
 10
28.139687
 20
-35.588398
 30
0.0
 10
28.139126
 20
-35.587463
 30
0.0
 10
28.138752
 20
-35.586714
 30
0.0
 10
28.138190
 20
-35.585835
 30
0.0
  0
SPLINE
  5
326
100
AcDbEntity
  8
Layer_1
 62
7
100
AcDbSpline
 70
8
 71
3
 72
8
 73
4
 74
0
 40
0
 40
0
 40
0
 40
0
 40
1
 40
1
 40
1
 40
1
 10
28.138190
 20
-35.585835
 30
0.0
 10
28.106001
 20
-35.530083
 30
0.0
 10
28.064474
 20
-35.480274
 30
0.0
 10
28.015420
 20
-35.438583
 30
0.0
  0
SPLINE
  5
327
100
AcDbEntity
  8
Layer_1
 62
7
100
AcDbSpline
 70
8
 71
3
 72
8
 73
4
 74
0
 40
0
 40
0
 40
0
 40
0
 40
1
 40
1
 40
1
 40
1
 10
28.015420
 20
-35.438583
 30
0.0
 10
28.061777
 20
-35.398031
 30
0.0
 10
28.101155
 20
-35.350136
 30
0.0
 10
28.131978
 20
-35.296813
 30
0.0
  0
SPLINE
  5
328
100
AcDbEntity
  8
Layer_1
 62
7
100
AcDbSpline
 70
8
 71
3
 72
8
 73
4
 74
0
 40
0
 40
0
 40
0
 40
0
 40
1
 40
1
 40
1
 40
1
 10
28.131978
 20
-35.296813
 30
0.0
 10
28.133100
 20
-35.294736
 30
0.0
 10
28.134428
 20
-35.292678
 30
0.0
 10
28.135626
 20
-35.290602
 30
0.0
  0
LWPOLYLINE
  5
329
100
AcDbEntity
  8
Layer_1
 62
7
100
AcDbPolyline
 90
1
 70
1
 10
11.322296
 20
-35.266856
 30
0.0
  0
SPLINE
  5
32a
100
AcDbEntity
  8
Layer_1
 62
7
100
AcDbSpline
 70
8
 71
3
 72
8
 73
4
 74
0
 40
0
 40
0
 40
0
 40
0
 40
1
 40
1
 40
1
 40
1
 10
18.745537
 20
-37.093070
 30
0.0
 10
18.411325
 20
-37.884088
 30
0.0
 10
18.140190
 20
-38.698331
 30
0.0
 10
17.962875
 20
-39.537523
 30
0.0
  0
SPLINE
  5
32b
100
AcDbEntity
  8
Layer_1
 62
7
100
AcDbSpline
 70
8
 71
3
 72
8
 73
4
 74
0
 40
0
 40
0
 40
0
 40
0
 40
1
 40
1
 40
1
 40
1
 10
17.962875
 20
-39.537523
 30
0.0
 10
17.816910
 20
-39.407051
 30
0.0
 10
17.613573
 20
-39.361926
 30
0.0
 10
17.426119
 20
-39.418406
 30
0.0
  0
SPLINE
  5
32c
100
AcDbEntity
  8
Layer_1
 62
7
100
AcDbSpline
 70
8
 71
3
 72
8
 73
4
 74
0
 40
0
 40
0
 40
0
 40
0
 40
1
 40
1
 40
1
 40
1
 10
17.426119
 20
-39.418406
 30
0.0
 10
17.393285
 20
-39.206835
 30
0.0
 10
17.243109
 20
-39.032289
 30
0.0
 10
17.038807
 20
-38.968247
 30
0.0
  0
SPLINE
  5
32d
100
AcDbEntity
  8
Layer_1
 62
7
100
AcDbSpline
 70
8
 71
3
 72
8
 73
4
 74
0
 40
0
 40
0
 40
0
 40
0
 40
1
 40
1
 40
1
 40
1
 10
17.038807
 20
-38.968247
 30
0.0
 10
17.669372
 20
-38.399191
 30
0.0
 10
18.236540
 20
-37.770027
 30
0.0
 10
18.745537
 20
-37.093070
 30
0.0
  0
LWPOLYLINE
  5
32e
100
AcDbEntity
  8
Layer_1
 62
7
100
AcDbPolyline
 90
1
 70
1
 10
28.135626
 20
-35.290602
 30
0.0
  0
SPLINE
  5
32f
100
AcDbEntity
  8
Layer_1
 62
7
100
AcDbSpline
 70
8
 71
3
 72
8
 73
4
 74
0
 40
0
 40
0
 40
0
 40
0
 40
1
 40
1
 40
1
 40
1
 10
20.657252
 20
-37.135090
 30
0.0
 10
21.184431
 20
-37.826615
 30
0.0
 10
21.772894
 20
-38.468742
 30
0.0
 10
22.427196
 20
-39.047537
 30
0.0
  0
SPLINE
  5
330
100
AcDbEntity
  8
Layer_1
 62
7
100
AcDbSpline
 70
8
 71
3
 72
8
 73
4
 74
0
 40
0
 40
0
 40
0
 40
0
 40
1
 40
1
 40
1
 40
1
 10
22.427196
 20
-39.047537
 30
0.0
 10
22.270890
 20
-39.098229
 30
0.0
 10
22.144593
 20
-39.214779
 30
0.0
 10
22.081538
 20
-39.366520
 30
0.0
  0
SPLINE
  5
331
100
AcDbEntity
  8
Layer_1
 62
7
100
AcDbSpline
 70
8
 71
3
 72
8
 73
4
 74
0
 40
0
 40
0
 40
0
 40
0
 40
1
 40
1
 40
1
 40
1
 10
22.081538
 20
-39.366520
 30
0.0
 10
21.865640
 20
-39.221870
 30
0.0
 10
21.578730
 20
-39.244080
 30
0.0
 10
21.387665
 20
-39.420232
 30
0.0
  0
SPLINE
  5
332
100
AcDbEntity
  8
Layer_1
 62
7
100
AcDbSpline
 70
8
 71
3
 72
8
 73
4
 74
0
 40
0
 40
0
 40
0
 40
0
 40
1
 40
1
 40
1
 40
1
 10
21.387665
 20
-39.420232
 30
0.0
 10
21.215378
 20
-38.637682
 30
0.0
 10
20.965624
 20
-37.876328
 30
0.0
 10
20.657252
 20
-37.135090
 30
0.0
  0
LWPOLYLINE
  5
333
100
AcDbEntity
  8
Layer_1
 62
7
100
AcDbPolyline
 90
1
 70
1
 10
18.745537
 20
-37.093070
 30
0.0
  0
SPLINE
  5
334
100
AcDbEntity
  8
Layer_1
 62
7
100
AcDbSpline
 70
8
 71
3
 72
8
 73
4
 74
0
 40
0
 40
0
 40
0
 40
0
 40
1
 40
1
 40
1
 40
1
 10
9.832970
 20
-38.689089
 30
0.0
 10
9.903813
 20
-38.828832
 30
0.0
 10
10.029765
 20
-38.932666
 30
0.0
 10
10.180455
 20
-38.975554
 30
0.0
  0
SPLINE
  5
335
100
AcDbEntity
  8
Layer_1
 62
7
100
AcDbSpline
 70
8
 71
3
 72
8
 73
4
 74
0
 40
0
 40
0
 40
0
 40
0
 40
1
 40
1
 40
1
 40
1
 10
10.180455
 20
-38.975554
 30
0.0
 10
9.744834
 20
-39.367109
 30
0.0
 10
9.331494
 20
-39.781379
 30
0.0
 10
8.946902
 20
-40.224088
 30
0.0
  0
SPLINE
  5
336
100
AcDbEntity
  8
Layer_1
 62
7
100
AcDbSpline
 70
8
 71
3
 72
8
 73
4
 74
0
 40
0
 40
0
 40
0
 40
0
 40
1
 40
1
 40
1
 40
1
 10
8.946902
 20
-40.224088
 30
0.0
 10
9.242214
 20
-39.712410
 30
0.0
 10
9.537636
 20
-39.200782
 30
0.0
 10
9.832970
 20
-38.689089
 30
0.0
  0
LWPOLYLINE
  5
337
100
AcDbEntity
  8
Layer_1
 62
7
100
AcDbPolyline
 90
1
 70
1
 10
20.657252
 20
-37.135090
 30
0.0
  0
SPLINE
  5
338
100
AcDbEntity
  8
Layer_1
 62
7
100
AcDbSpline
 70
8
 71
3
 72
8
 73
4
 74
0
 40
0
 40
0
 40
0
 40
0
 40
1
 40
1
 40
1
 40
1
 10
29.713782
 20
-38.871783
 30
0.0
 10
30.003487
 20
-39.373606
 30
0.0
 10
30.293295
 20
-39.875356
 30
0.0
 10
30.583041
 20
-40.377186
 30
0.0
  0
SPLINE
  5
339
100
AcDbEntity
  8
Layer_1
 62
7
100
AcDbSpline
 70
8
 71
3
 72
8
 73
4
 74
0
 40
0
 40
0
 40
0
 40
0
 40
1
 40
1
 40
1
 40
1
 10
30.583041
 20
-40.377186
 30
0.0
 10
30.212354
 20
-39.936697
 30
0.0
 10
29.812577
 20
-39.522115
 30
0.0
 10
29.391508
 20
-39.130845
 30
0.0
  0
SPLINE
  5
33a
100
AcDbEntity
  8
Layer_1
 62
7
100
AcDbSpline
 70
8
 71
3
 72
8
 73
4
 74
0
 40
0
 40
0
 40
0
 40
0
 40
1
 40
1
 40
1
 40
1
 10
29.391508
 20
-39.130845
 30
0.0
 10
29.527947
 20
-39.088575
 30
0.0
 10
29.643175
 20
-38.995948
 30
0.0
 10
29.713782
 20
-38.871783
 30
0.0
  0
LWPOLYLINE
  5
33b
100
AcDbEntity
  8
Layer_1
 62
7
100
AcDbPolyline
 90
1
 70
1
 10
9.832970
 20
-38.689089
 30
0.0
  0
SPLINE
  5
33c
100
AcDbEntity
  8
Layer_1
 62
7
100
AcDbSpline
 70
8
 71
3
 72
8
 73
4
 74
0
 40
0
 40
0
 40
0
 40
0
 40
1
 40
1
 40
1
 40
1
 10
27.347523
 20
-41.888434
 30
0.0
 10
27.886126
 20
-42.070009
 30
0.0
 10
28.430103
 20
-42.217385
 30
0.0
 10
28.980812
 20
-42.329093
 30
0.0
  0
SPLINE
  5
33d
100
AcDbEntity
  8
Layer_1
 62
7
100
AcDbSpline
 70
8
 71
3
 72
8
 73
4
 74
0
 40
0
 40
0
 40
0
 40
0
 40
1
 40
1
 40
1
 40
1
 10
28.980812
 20
-42.329093
 30
0.0
 10
28.409562
 20
-42.327035
 30
0.0
 10
27.838815
 20
-42.325183
 30
0.0
 10
27.268600
 20
-42.326530
 30
0.0
  0
SPLINE
  5
33e
100
AcDbEntity
  8
Layer_1
 62
7
100
AcDbSpline
 70
8
 71
3
 72
8
 73
4
 74
0
 40
0
 40
0
 40
0
 40
0
 40
1
 40
1
 40
1
 40
1
 10
27.268600
 20
-42.326530
 30
0.0
 10
27.354077
 20
-42.197580
 30
0.0
 10
27.382627
 20
-42.039101
 30
0.0
 10
27.347523
 20
-41.888428
 30
0.0
  0
LWPOLYLINE
  5
33f
100
AcDbEntity
  8
Layer_1
 62
7
100
AcDbPolyline
 90
1
 70
1
 10
29.713782
 20
-38.871783
 30
0.0
  0
SPLINE
  5
340
100
AcDbEntity
  8
Layer_1
 62
7
100
AcDbSpline
 70
8
 71
3
 72
8
 73
4
 74
0
 40
0
 40
0
 40
0
 40
0
 40
1
 40
1
 40
1
 40
1
 10
11.824705
 20
-41.962242
 30
0.0
 10
11.791946
 20
-42.102721
 30
0.0
 10
11.814447
 20
-42.250417
 30
0.0
 10
11.887552
 20
-42.374767
 30
0.0
  0
LWPOLYLINE
  5
341
100
AcDbEntity
  8
Layer_1
 62
7
100
AcDbPolyline
 90
1
 70
1
 10
27.347523
 20
-41.888428
 30
0.0
  0
SPLINE
  5
342
100
AcDbEntity
  8
Layer_1
 62
7
100
AcDbSpline
 70
8
 71
3
 72
8
 73
4
 74
0
 40
0
 40
0
 40
0
 40
0
 40
1
 40
1
 40
1
 40
1
 10
10.221743
 20
-42.374767
 30
0.0
 10
10.763375
 20
-42.268932
 30
0.0
 10
11.297727
 20
-42.131528
 30
0.0
 10
11.824705
 20
-41.962242
 30
0.0
  0
LWPOLYLINE
  5
343
100
AcDbEntity
  8
Layer_1
 62
7
100
AcDbPolyline
 90
2
 70
0
 10
11.887552
 20
-42.374767
 30
0.0
 10
10.221743
 20
-42.374767
 30
0.0
  0
SPLINE
  5
344
100
AcDbEntity
  8
Layer_1
 62
7
100
AcDbSpline
 70
8
 71
3
 72
8
 73
4
 74
0
 40
0
 40
0
 40
0
 40
0
 40
1
 40
1
 40
1
 40
1
 10
23.836867
 20
-42.568788
 30
0.0
 10
23.898241
 20
-42.589702
 30
0.0
 10
23.962770
 20
-42.599839
 30
0.0
 10
24.027600
 20
-42.598751
 30
0.0
  0
SPLINE
  5
345
100
AcDbEntity
  8
Layer_1
 62
7
100
AcDbSpline
 70
8
 71
3
 72
8
 73
4
 74
0
 40
0
 40
0
 40
0
 40
0
 40
1
 40
1
 40
1
 40
1
 10
24.027600
 20
-42.598751
 30
0.0
 10
24.130265
 20
-42.597067
 30
0.0
 10
24.253861
 20
-42.596431
 30
0.0
 10
24.365220
 20
-42.596188
 30
0.0
  0
SPLINE
  5
346
100
AcDbEntity
  8
Layer_1
 62
7
100
AcDbSpline
 70
8
 71
3
 72
8
 73
4
 74
0
 40
0
 40
0
 40
0
 40
0
 40
1
 40
1
 40
1
 40
1
 10
24.365220
 20
-42.596188
 30
0.0
 10
24.281126
 20
-42.691507
 30
0.0
 10
24.219033
 20
-42.799895
 30
0.0
 10
24.183256
 20
-42.922480
 30
0.0
  0
SPLINE
  5
347
100
AcDbEntity
  8
Layer_1
 62
7
100
AcDbSpline
 70
8
 71
3
 72
8
 73
4
 74
0
 40
0
 40
0
 40
0
 40
0
 40
1
 40
1
 40
1
 40
1
 10
24.183256
 20
-42.922480
 30
0.0
 10
24.075969
 20
-42.808888
 30
0.0
 10
23.926243
 20
-42.745079
 30
0.0
 10
23.770000
 20
-42.746362
 30
0.0
  0
SPLINE
  5
348
100
AcDbEntity
  8
Layer_1
 62
7
100
AcDbSpline
 70
8
 71
3
 72
8
 73
4
 74
0
 40
0
 40
0
 40
0
 40
0
 40
1
 40
1
 40
1
 40
1
 10
23.770000
 20
-42.746362
 30
0.0
 10
23.770561
 20
-42.745240
 30
0.0
 10
23.771122
 20
-42.744155
 30
0.0
 10
23.771870
 20
-42.743069
 30
0.0
  0
SPLINE
  5
349
100
AcDbEntity
  8
Layer_1
 62
7
100
AcDbSpline
 70
8
 71
3
 72
8
 73
4
 74
0
 40
0
 40
0
 40
0
 40
0
 40
1
 40
1
 40
1
 40
1
 10
23.771870
 20
-42.743069
 30
0.0
 10
23.803081
 20
-42.688988
 30
0.0
 10
23.825061
 20
-42.630085
 30
0.0
 10
23.836910
 20
-42.568779
 30
0.0
  0
LWPOLYLINE
  5
34a
100
AcDbEntity
  8
Layer_1
 62
7
100
AcDbPolyline
 90
1
 70
1
 10
11.824705
 20
-41.962242
 30
0.0
  0
SPLINE
  5
34b
100
AcDbEntity
  8
Layer_1
 62
7
100
AcDbSpline
 70
8
 71
3
 72
8
 73
4
 74
0
 40
0
 40
0
 40
0
 40
0
 40
1
 40
1
 40
1
 40
1
 10
15.557521
 20
-42.620675
 30
0.0
 10
15.569505
 20
-42.683482
 30
0.0
 10
15.592118
 20
-42.743783
 30
0.0
 10
15.624386
 20
-42.798984
 30
0.0
  0
SPLINE
  5
34c
100
AcDbEntity
  8
Layer_1
 62
7
100
AcDbSpline
 70
8
 71
3
 72
8
 73
4
 74
0
 40
0
 40
0
 40
0
 40
0
 40
1
 40
1
 40
1
 40
1
 10
15.624386
 20
-42.798984
 30
0.0
 10
15.560371
 20
-42.798424
 30
0.0
 10
15.496731
 20
-42.808804
 30
0.0
 10
15.436211
 20
-42.829676
 30
0.0
  0
SPLINE
  5
34d
100
AcDbEntity
  8
Layer_1
 62
7
100
AcDbSpline
 70
8
 71
3
 72
8
 73
4
 74
0
 40
0
 40
0
 40
0
 40
0
 40
1
 40
1
 40
1
 40
1
 10
15.436211
 20
-42.829676
 30
0.0
 10
15.424038
 20
-42.766697
 30
0.0
 10
15.401175
 20
-42.706267
 30
0.0
 10
15.368612
 20
-42.651002
 30
0.0
  0
SPLINE
  5
34e
100
AcDbEntity
  8
Layer_1
 62
7
100
AcDbSpline
 70
8
 71
3
 72
8
 73
4
 74
0
 40
0
 40
0
 40
0
 40
0
 40
1
 40
1
 40
1
 40
1
 10
15.368612
 20
-42.651002
 30
0.0
 10
15.370932
 20
-42.651000
 30
0.0
 10
15.373233
 20
-42.651002
 30
0.0
 10
15.375552
 20
-42.651002
 30
0.0
  0
SPLINE
  5
34f
100
AcDbEntity
  8
Layer_1
 62
7
100
AcDbSpline
 70
8
 71
3
 72
8
 73
4
 74
0
 40
0
 40
0
 40
0
 40
0
 40
1
 40
1
 40
1
 40
1
 10
15.375552
 20
-42.651002
 30
0.0
 10
15.437464
 20
-42.650983
 30
0.0
 10
15.498947
 20
-42.640736
 30
0.0
 10
15.557519
 20
-42.620675
 30
0.0
  0
LWPOLYLINE
  5
350
100
AcDbEntity
  8
Layer_1
 62
7
100
AcDbPolyline
 90
1
 70
1
 10
23.836910
 20
-42.568779
 30
0.0
  0
SPLINE
  5
351
100
AcDbEntity
  8
Layer_1
 62
7
100
AcDbSpline
 70
8
 71
3
 72
8
 73
4
 74
0
 40
0
 40
0
 40
0
 40
0
 40
1
 40
1
 40
1
 40
1
 10
17.979317
 20
-45.449513
 30
0.0
 10
18.098352
 20
-46.013385
 30
0.0
 10
18.248288
 20
-46.568303
 30
0.0
 10
18.434957
 20
-47.112398
 30
0.0
  0
SPLINE
  5
352
100
AcDbEntity
  8
Layer_1
 62
7
100
AcDbSpline
 70
8
 71
3
 72
8
 73
4
 74
0
 40
0
 40
0
 40
0
 40
0
 40
1
 40
1
 40
1
 40
1
 10
18.434957
 20
-47.112398
 30
0.0
 10
18.144409
 20
-46.609176
 30
0.0
 10
17.854049
 20
-46.105837
 30
0.0
 10
17.563505
 20
-45.602611
 30
0.0
  0
SPLINE
  5
353
100
AcDbEntity
  8
Layer_1
 62
7
100
AcDbSpline
 70
8
 71
3
 72
8
 73
4
 74
0
 40
0
 40
0
 40
0
 40
0
 40
1
 40
1
 40
1
 40
1
 10
17.563505
 20
-45.602611
 30
0.0
 10
17.717225
 20
-45.610667
 30
0.0
 10
17.867523
 20
-45.555329
 30
0.0
 10
17.979317
 20
-45.449513
 30
0.0
  0
LWPOLYLINE
  5
354
100
AcDbEntity
  8
Layer_1
 62
7
100
AcDbPolyline
 90
1
 70
1
 10
15.557519
 20
-42.620675
 30
0.0
  0
SPLINE
  5
355
100
AcDbEntity
  8
Layer_1
 62
7
100
AcDbSpline
 70
8
 71
3
 72
8
 73
4
 74
0
 40
0
 40
0
 40
0
 40
0
 40
1
 40
1
 40
1
 40
1
 10
21.398626
 20
-45.470341
 30
0.0
 10
21.503674
 20
-45.569566
 30
0.0
 10
21.642901
 20
-45.624524
 30
0.0
 10
21.787401
 20
-45.623804
 30
0.0
  0
SPLINE
  5
356
100
AcDbEntity
  8
Layer_1
 62
7
100
AcDbSpline
 70
8
 71
3
 72
8
 73
4
 74
0
 40
0
 40
0
 40
0
 40
0
 40
1
 40
1
 40
1
 40
1
 10
21.787401
 20
-45.623804
 30
0.0
 10
21.732759
 20
-45.718352
 30
0.0
 10
21.677984
 20
-45.812793
 30
0.0
 10
21.623342
 20
-45.907345
 30
0.0
  0
SPLINE
  5
357
100
AcDbEntity
  8
Layer_1
 62
7
100
AcDbSpline
 70
8
 71
3
 72
8
 73
4
 74
0
 40
0
 40
0
 40
0
 40
0
 40
1
 40
1
 40
1
 40
1
 10
21.623342
 20
-45.907345
 30
0.0
 10
21.615871
 20
-45.920338
 30
0.0
 10
21.608923
 20
-45.933625
 30
0.0
 10
21.602514
 20
-45.947174
 30
0.0
  0
SPLINE
  5
358
100
AcDbEntity
  8
Layer_1
 62
7
100
AcDbSpline
 70
8
 71
3
 72
8
 73
4
 74
0
 40
0
 40
0
 40
0
 40
0
 40
1
 40
1
 40
1
 40
1
 10
21.602514
 20
-45.947174
 30
0.0
 10
21.493209
 20
-46.176692
 30
0.0
 10
21.219984
 20
-46.611589
 30
0.0
 10
20.975872
 20
-47.013744
 30
0.0
  0
SPLINE
  5
359
100
AcDbEntity
  8
Layer_1
 62
7
100
AcDbSpline
 70
8
 71
3
 72
8
 73
4
 74
0
 40
0
 40
0
 40
0
 40
0
 40
1
 40
1
 40
1
 40
1
 10
20.975872
 20
-47.013744
 30
0.0
 10
21.145409
 20
-46.506950
 30
0.0
 10
21.287482
 20
-45.993023
 30
0.0
 10
21.398626
 20
-45.470341
 30
0.0
  0
LWPOLYLINE
  5
35a
100
AcDbEntity
  8
Layer_1
 62
7
100
AcDbPolyline
 90
1
 70
1
 10
17.979317
 20
-45.449513
 30
0.0
  0
SPLINE
  5
35b
100
AcDbEntity
  8
Layer_1
 62
7
100
AcDbSpline
 70
8
 71
3
 72
8
 73
4
 74
0
 40
0
 40
0
 40
0
 40
0
 40
1
 40
1
 40
1
 40
1
 10
19.688241
 20
-23.117675
 30
0.0
 10
18.246985
 20
-26.399767
 30
0.0
 10
18.213200
 20
-30.488271
 30
0.0
 10
19.698106
 20
-33.681433
 30
0.0
  0
SPLINE
  5
35c
100
AcDbEntity
  8
Layer_1
 62
7
100
AcDbSpline
 70
8
 71
3
 72
8
 73
4
 74
0
 40
0
 40
0
 40
0
 40
0
 40
1
 40
1
 40
1
 40
1
 10
19.698106
 20
-33.681433
 30
0.0
 10
21.170799
 20
-30.362081
 30
0.0
 10
21.135989
 20
-26.436571
 30
0.0
 10
19.688241
 20
-23.117675
 30
0.0
  0
LWPOLYLINE
  5
35d
100
AcDbEntity
  8
Layer_1
 62
7
100
AcDbPolyline
 90
1
 70
1
 10
21.398626
 20
-45.470341
 30
0.0
  0
SPLINE
  5
35e
100
AcDbEntity
  8
Layer_1
 62
7
100
AcDbSpline
 70
8
 71
3
 72
8
 73
4
 74
0
 40
0
 40
0
 40
0
 40
0
 40
1
 40
1
 40
1
 40
1
 10
21.729668
 20
-23.437754
 30
0.0
 10
22.393900
 20
-24.601503
 30
0.0
 10
23.067662
 20
-25.761997
 30
0.0
 10
23.738943
 20
-26.927950
 30
0.0
  0
SPLINE
  5
35f
100
AcDbEntity
  8
Layer_1
 62
7
100
AcDbSpline
 70
8
 71
3
 72
8
 73
4
 74
0
 40
0
 40
0
 40
0
 40
0
 40
1
 40
1
 40
1
 40
1
 10
23.738943
 20
-26.927950
 30
0.0
 10
24.075876
 20
-26.344813
 30
0.0
 10
24.412669
 20
-25.761620
 30
0.0
 10
24.749608
 20
-25.178468
 30
0.0
  0
SPLINE
  5
360
100
AcDbEntity
  8
Layer_1
 62
7
100
AcDbSpline
 70
8
 71
3
 72
8
 73
4
 74
0
 40
0
 40
0
 40
0
 40
0
 40
1
 40
1
 40
1
 40
1
 10
24.749608
 20
-25.178468
 30
0.0
 10
23.740583
 20
-24.598313
 30
0.0
 10
22.735589
 20
-24.016976
 30
0.0
 10
21.729668
 20
-23.437754
 30
0.0
  0
LWPOLYLINE
  5
361
100
AcDbEntity
  8
Layer_1
 62
7
100
AcDbPolyline
 90
1
 70
1
 10
19.688241
 20
-23.117675
 30
0.0
  0
SPLINE
  5
362
100
AcDbEntity
  8
Layer_1
 62
7
100
AcDbSpline
 70
8
 71
3
 72
8
 73
4
 74
0
 40
0
 40
0
 40
0
 40
0
 40
1
 40
1
 40
1
 40
1
 10
17.567525
 20
-23.518140
 30
0.0
 10
16.609233
 20
-24.071225
 30
0.0
 10
15.650927
 20
-24.624278
 30
0.0
 10
14.692643
 20
-25.177371
 30
0.0
  0
SPLINE
  5
363
100
AcDbEntity
  8
Layer_1
 62
7
100
AcDbSpline
 70
8
 71
3
 72
8
 73
4
 74
0
 40
0
 40
0
 40
0
 40
0
 40
1
 40
1
 40
1
 40
1
 10
14.692643
 20
-25.177371
 30
0.0
 10
15.012787
 20
-25.731649
 30
0.0
 10
15.333050
 20
-26.285932
 30
0.0
 10
15.653253
 20
-26.840256
 30
0.0
  0
SPLINE
  5
364
100
AcDbEntity
  8
Layer_1
 62
7
100
AcDbSpline
 70
8
 71
3
 72
8
 73
4
 74
0
 40
0
 40
0
 40
0
 40
0
 40
1
 40
1
 40
1
 40
1
 10
15.653253
 20
-26.840256
 30
0.0
 10
16.292648
 20
-25.731868
 30
0.0
 10
16.931523
 20
-24.625503
 30
0.0
 10
17.567525
 20
-23.518140
 30
0.0
  0
LWPOLYLINE
  5
365
100
AcDbEntity
  8
Layer_1
 62
7
100
AcDbPolyline
 90
1
 70
1
 10
21.729668
 20
-23.437754
 30
0.0
  0
SPLINE
  5
366
100
AcDbEntity
  8
Layer_1
 62
7
100
AcDbSpline
 70
8
 71
3
 72
8
 73
4
 74
0
 40
0
 40
0
 40
0
 40
0
 40
1
 40
1
 40
1
 40
1
 10
13.348376
 20
-25.953458
 30
0.0
 10
12.387306
 20
-26.508440
 30
0.0
 10
11.426202
 20
-27.063504
 30
0.0
 10
10.465092
 20
-27.618535
 30
0.0
  0
LWPOLYLINE
  5
367
100
AcDbEntity
  8
Layer_1
 62
7
100
AcDbPolyline
 90
1
 70
1
 10
17.567525
 20
-23.518140
 30
0.0
  0
SPLINE
  5
368
100
AcDbEntity
  8
Layer_1
 62
7
100
AcDbSpline
 70
8
 71
3
 72
8
 73
4
 74
0
 40
0
 40
0
 40
0
 40
0
 40
1
 40
1
 40
1
 40
1
 10
14.309716
 20
-27.618535
 30
0.0
 10
13.989257
 20
-27.063494
 30
0.0
 10
13.668822
 20
-26.508438
 30
0.0
 10
13.348376
 20
-25.953458
 30
0.0
  0
LWPOLYLINE
  5
369
100
AcDbEntity
  8
Layer_1
 62
7
100
AcDbPolyline
 90
2
 70
0
 10
10.465092
 20
-27.618535
 30
0.0
 10
14.309716
 20
-27.618535
 30
0.0
  0
SPLINE
  5
36a
100
AcDbEntity
  8
Layer_1
 62
7
100
AcDbSpline
 70
8
 71
3
 72
8
 73
4
 74
0
 40
0
 40
0
 40
0
 40
0
 40
1
 40
1
 40
1
 40
1
 10
26.093874
 20
-25.953458
 30
0.0
 10
25.757843
 20
-26.535594
 30
0.0
 10
25.421813
 20
-27.117807
 30
0.0
 10
25.085766
 20
-27.700018
 30
0.0
  0
SPLINE
  5
36b
100
AcDbEntity
  8
Layer_1
 62
7
100
AcDbSpline
 70
8
 71
3
 72
8
 73
4
 74
0
 40
0
 40
0
 40
0
 40
0
 40
1
 40
1
 40
1
 40
1
 10
25.085766
 20
-27.700018
 30
0.0
 10
26.426892
 20
-27.700579
 30
0.0
 10
27.761123
 20
-27.699082
 30
0.0
 10
29.092986
 20
-27.685033
 30
0.0
  0
SPLINE
  5
36c
100
AcDbEntity
  8
Layer_1
 62
7
100
AcDbSpline
 70
8
 71
3
 72
8
 73
4
 74
0
 40
0
 40
0
 40
0
 40
0
 40
1
 40
1
 40
1
 40
1
 10
29.092986
 20
-27.685033
 30
0.0
 10
28.093276
 20
-27.107821
 30
0.0
 10
27.093559
 20
-26.530614
 30
0.0
 10
26.093874
 20
-25.953454
 30
0.0
  0
LWPOLYLINE
  5
36d
100
AcDbEntity
  8
Layer_1
 62
7
100
AcDbPolyline
 90
1
 70
1
 10
13.348376
 20
-25.953458
 30
0.0
  0
SPLINE
  5
36e
100
AcDbEntity
  8
Layer_1
 62
7
100
AcDbSpline
 70
8
 71
3
 72
8
 73
4
 74
0
 40
0
 40
0
 40
0
 40
0
 40
1
 40
1
 40
1
 40
1
 10
22.289444
 20
-27.512207
 30
0.0
 10
22.327120
 20
-28.138973
 30
0.0
 10
22.360937
 20
-28.764601
 30
0.0
 10
22.320868
 20
-29.391402
 30
0.0
  0
SPLINE
  5
36f
100
AcDbEntity
  8
Layer_1
 62
7
100
AcDbSpline
 70
8
 71
3
 72
8
 73
4
 74
0
 40
0
 40
0
 40
0
 40
0
 40
1
 40
1
 40
1
 40
1
 10
22.320868
 20
-29.391402
 30
0.0
 10
22.537889
 20
-29.032740
 30
0.0
 10
22.711510
 20
-28.696407
 30
0.0
 10
22.789297
 20
-28.386583
 30
0.0
  0
SPLINE
  5
370
100
AcDbEntity
  8
Layer_1
 62
7
100
AcDbSpline
 70
8
 71
3
 72
8
 73
4
 74
0
 40
0
 40
0
 40
0
 40
0
 40
1
 40
1
 40
1
 40
1
 10
22.789297
 20
-28.386583
 30
0.0
 10
22.633079
 20
-28.131630
 30
0.0
 10
22.461626
 20
-27.823763
 30
0.0
 10
22.289444
 20
-27.512207
 30
0.0
  0
LWPOLYLINE
  5
371
100
AcDbEntity
  8
Layer_1
 62
7
100
AcDbPolyline
 90
1
 70
1
 10
26.093874
 20
-25.953454
 30
0.0
  0
SPLINE
  5
372
100
AcDbEntity
  8
Layer_1
 62
7
100
AcDbSpline
 70
8
 71
3
 72
8
 73
4
 74
0
 40
0
 40
0
 40
0
 40
0
 40
1
 40
1
 40
1
 40
1
 10
17.055250
 20
-27.518418
 30
0.0
 10
16.886620
 20
-27.810658
 30
0.0
 10
16.717832
 20
-28.102773
 30
0.0
 10
16.549186
 20
-28.394987
 30
0.0
  0
SPLINE
  5
373
100
AcDbEntity
  8
Layer_1
 62
7
100
AcDbSpline
 70
8
 71
3
 72
8
 73
4
 74
0
 40
0
 40
0
 40
0
 40
0
 40
1
 40
1
 40
1
 40
1
 10
16.549186
 20
-28.394987
 30
0.0
 10
16.709118
 20
-28.664162
 30
0.0
 10
16.878340
 20
-28.962965
 30
0.0
 10
17.049037
 20
-29.266804
 30
0.0
  0
SPLINE
  5
374
100
AcDbEntity
  8
Layer_1
 62
7
100
AcDbSpline
 70
8
 71
3
 72
8
 73
4
 74
0
 40
0
 40
0
 40
0
 40
0
 40
1
 40
1
 40
1
 40
1
 10
17.049037
 20
-29.266804
 30
0.0
 10
17.016573
 20
-28.684249
 30
0.0
 10
17.020060
 20
-28.100910
 30
0.0
 10
17.055248
 20
-27.518418
 30
0.0
  0
LWPOLYLINE
  5
375
100
AcDbEntity
  8
Layer_1
 62
7
100
AcDbPolyline
 90
1
 70
1
 10
22.289444
 20
-27.512207
 30
0.0
  0
SPLINE
  5
376
100
AcDbEntity
  8
Layer_1
 62
7
100
AcDbSpline
 70
8
 71
3
 72
8
 73
4
 74
0
 40
0
 40
0
 40
0
 40
0
 40
1
 40
1
 40
1
 40
1
 10
14.078789
 20
-29.170707
 30
0.0
 10
14.668771
 20
-29.462735
 30
0.0
 10
15.234194
 20
-29.801083
 30
0.0
 10
15.781138
 20
-30.167489
 30
0.0
  0
SPLINE
  5
377
100
AcDbEntity
  8
Layer_1
 62
7
100
AcDbSpline
 70
8
 71
3
 72
8
 73
4
 74
0
 40
0
 40
0
 40
0
 40
0
 40
1
 40
1
 40
1
 40
1
 10
15.781138
 20
-30.167489
 30
0.0
 10
15.588600
 20
-29.835367
 30
0.0
 10
15.395579
 20
-29.504703
 30
0.0
 10
15.204918
 20
-29.170707
 30
0.0
  0
LWPOLYLINE
  5
378
100
AcDbEntity
  8
Layer_1
 62
7
100
AcDbPolyline
 90
1
 70
1
 10
17.055248
 20
-27.518418
 30
0.0
  0
SPLINE
  5
379
100
AcDbEntity
  8
Layer_1
 62
7
100
AcDbSpline
 70
8
 71
3
 72
8
 73
4
 74
0
 40
0
 40
0
 40
0
 40
0
 40
1
 40
1
 40
1
 40
1
 10
24.187274
 20
-29.257304
 30
0.0
 10
24.025393
 20
-29.537447
 30
0.0
 10
23.863532
 20
-29.817581
 30
0.0
 10
23.701673
 20
-30.097699
 30
0.0
  0
SPLINE
  5
37a
100
AcDbEntity
  8
Layer_1
 62
7
100
AcDbSpline
 70
8
 71
3
 72
8
 73
4
 74
0
 40
0
 40
0
 40
0
 40
0
 40
1
 40
1
 40
1
 40
1
 10
23.701673
 20
-30.097699
 30
0.0
 10
24.167964
 20
-29.791055
 30
0.0
 10
24.650153
 20
-29.510560
 30
0.0
 10
25.147516
 20
-29.257304
 30
0.0
  0
LWPOLYLINE
  5
37b
100
AcDbEntity
  8
Layer_1
 62
7
100
AcDbPolyline
 90
2
 70
0
 10
15.204918
 20
-29.170707
 30
0.0
 10
14.078789
 20
-29.170707
 30
0.0
  0
SPLINE
  5
37c
100
AcDbEntity
  8
Layer_1
 62
7
100
AcDbSpline
 70
8
 71
3
 72
8
 73
4
 74
0
 40
0
 40
0
 40
0
 40
0
 40
1
 40
1
 40
1
 40
1
 10
30.375135
 20
-29.285805
 30
0.0
 10
26.796474
 20
-29.681173
 30
0.0
 10
23.265378
 20
-31.694150
 30
0.0
 10
21.237124
 20
-34.575905
 30
0.0
  0
SPLINE
  5
37d
100
AcDbEntity
  8
Layer_1
 62
7
100
AcDbSpline
 70
8
 71
3
 72
8
 73
4
 74
0
 40
0
 40
0
 40
0
 40
0
 40
1
 40
1
 40
1
 40
1
 10
21.237124
 20
-34.575905
 30
0.0
 10
24.823794
 20
-34.198636
 30
0.0
 10
28.222857
 20
-32.202786
 30
0.0
 10
30.375135
 20
-29.285805
 30
0.0
  0
LWPOLYLINE
  5
37e
100
AcDbEntity
  8
Layer_1
 62
7
100
AcDbPolyline
 90
2
 70
0
 10
25.147516
 20
-29.257304
 30
0.0
 10
24.187274
 20
-29.257304
 30
0.0
  0
SPLINE
  5
37f
100
AcDbEntity
  8
Layer_1
 62
7
100
AcDbSpline
 70
8
 71
3
 72
8
 73
4
 74
0
 40
0
 40
0
 40
0
 40
0
 40
1
 40
1
 40
1
 40
1
 10
8.999883
 20
-29.289098
 30
0.0
 10
11.143005
 20
-32.193640
 30
0.0
 10
14.653627
 20
-34.271494
 30
0.0
 10
18.138626
 20
-34.534621
 30
0.0
  0
SPLINE
  5
380
100
AcDbEntity
  8
Layer_1
 62
7
100
AcDbSpline
 70
8
 71
3
 72
8
 73
4
 74
0
 40
0
 40
0
 40
0
 40
0
 40
1
 40
1
 40
1
 40
1
 10
18.138626
 20
-34.534621
 30
0.0
 10
16.002017
 20
-31.618646
 30
0.0
 10
12.576288
 20
-29.690714
 30
0.0
 10
8.999883
 20
-29.289094
 30
0.0
  0
LWPOLYLINE
  5
381
100
AcDbEntity
  8
Layer_1
 62
7
100
AcDbPolyline
 90
1
 70
1
 10
30.375135
 20
-29.285805
 30
0.0
  0
SPLINE
  5
382
100
AcDbEntity
  8
Layer_1
 62
7
100
AcDbSpline
 70
8
 71
3
 72
8
 73
4
 74
0
 40
0
 40
0
 40
0
 40
0
 40
1
 40
1
 40
1
 40
1
 10
31.122722
 20
-31.395564
 30
0.0
 10
30.937332
 20
-31.716749
 30
0.0
 10
30.752026
 20
-32.037943
 30
0.0
 10
30.566599
 20
-32.359094
 30
0.0
  0
SPLINE
  5
383
100
AcDbEntity
  8
Layer_1
 62
7
100
AcDbSpline
 70
8
 71
3
 72
8
 73
4
 74
0
 40
0
 40
0
 40
0
 40
0
 40
1
 40
1
 40
1
 40
1
 10
30.566599
 20
-32.359094
 30
0.0
 10
30.123485
 20
-33.128076
 30
0.0
 10
29.680407
 20
-33.897104
 30
0.0
 10
29.237314
 20
-34.666160
 30
0.0
  0
SPLINE
  5
384
100
AcDbEntity
  8
Layer_1
 62
7
100
AcDbSpline
 70
8
 71
3
 72
8
 73
4
 74
0
 40
0
 40
0
 40
0
 40
0
 40
1
 40
1
 40
1
 40
1
 10
29.237314
 20
-34.666160
 30
0.0
 10
29.865816
 20
-34.665411
 30
0.0
 10
30.494265
 20
-34.664663
 30
0.0
 10
31.122722
 20
-34.663971
 30
0.0
  0
LWPOLYLINE
  5
385
100
AcDbEntity
  8
Layer_1
 62
7
100
AcDbPolyline
 90
1
 70
1
 10
8.999883
 20
-29.289094
 30
0.0
  0
LWPOLYLINE
  5
386
100
AcDbEntity
  8
Layer_1
 62
7
100
AcDbPolyline
 90
2
 70
0
 10
31.122722
 20
-34.663971
 30
0.0
 10
31.122722
 20
-31.395564
 30
0.0
  0
SPLINE
  5
387
100
AcDbEntity
  8
Layer_1
 62
7
100
AcDbSpline
 70
8
 71
3
 72
8
 73
4
 74
0
 40
0
 40
0
 40
0
 40
0
 40
1
 40
1
 40
1
 40
1
 10
8.319895
 20
-34.681143
 30
0.0
 10
8.947779
 20
-34.680395
 30
0.0
 10
9.575643
 20
-34.679646
 30
0.0
 10
10.203475
 20
-34.678954
 30
0.0
  0
SPLINE
  5
388
100
AcDbEntity
  8
Layer_1
 62
7
100
AcDbSpline
 70
8
 71
3
 72
8
 73
4
 74
0
 40
0
 40
0
 40
0
 40
0
 40
1
 40
1
 40
1
 40
1
 10
10.203475
 20
-34.678954
 30
0.0
 10
9.582548
 20
-33.585327
 30
0.0
 10
8.951934
 20
-32.495711
 30
0.0
 10
8.319895
 20
-31.406530
 30
0.0
  0
LWPOLYLINE
  5
389
100
AcDbEntity
  8
Layer_1
 62
7
100
AcDbPolyline
 90
2
 70
0
 10
8.319895
 20
-31.406527
 30
0.0
 10
8.319895
 20
-34.681143
 30
0.0
  0
SPLINE
  5
38a
100
AcDbEntity
  8
Layer_1
 62
7
100
AcDbSpline
 70
8
 71
3
 72
8
 73
4
 74
0
 40
0
 40
0
 40
0
 40
0
 40
1
 40
1
 40
1
 40
1
 10
27.999378
 20
-33.698246
 30
0.0
 10
27.465875
 20
-34.057507
 30
0.0
 10
26.906954
 20
-34.377020
 30
0.0
 10
26.332108
 20
-34.665797
 30
0.0
  0
SPLINE
  5
38b
100
AcDbEntity
  8
Layer_1
 62
7
100
AcDbSpline
 70
8
 71
3
 72
8
 73
4
 74
0
 40
0
 40
0
 40
0
 40
0
 40
1
 40
1
 40
1
 40
1
 10
26.332108
 20
-34.665797
 30
0.0
 10
26.701971
 20
-34.665236
 30
0.0
 10
27.071937
 20
-34.664487
 30
0.0
 10
27.441794
 20
-34.663926
 30
0.0
  0
SPLINE
  5
38c
100
AcDbEntity
  8
Layer_1
 62
7
100
AcDbSpline
 70
8
 71
3
 72
8
 73
4
 74
0
 40
0
 40
0
 40
0
 40
0
 40
1
 40
1
 40
1
 40
1
 10
27.441794
 20
-34.663926
 30
0.0
 10
27.627674
 20
-34.342015
 30
0.0
 10
27.813520
 20
-34.020095
 30
0.0
 10
27.999378
 20
-33.698203
 30
0.0
  0
LWPOLYLINE
  5
38d
100
AcDbEntity
  8
Layer_1
 62
7
100
AcDbPolyline
 90
1
 70
1
 10
8.319895
 20
-31.406530
 30
0.0
  0
SPLINE
  5
38e
100
AcDbEntity
  8
Layer_1
 62
7
100
AcDbSpline
 70
8
 71
3
 72
8
 73
4
 74
0
 40
0
 40
0
 40
0
 40
0
 40
1
 40
1
 40
1
 40
1
 10
11.471374
 20
-33.751227
 30
0.0
 10
11.607296
 20
-34.013938
 30
0.0
 10
11.722668
 20
-34.270145
 30
0.0
 10
11.837493
 20
-34.449851
 30
0.0
  0
SPLINE
  5
38f
100
AcDbEntity
  8
Layer_1
 62
7
100
AcDbSpline
 70
8
 71
3
 72
8
 73
4
 74
0
 40
0
 40
0
 40
0
 40
0
 40
1
 40
1
 40
1
 40
1
 10
11.837493
 20
-34.449851
 30
0.0
 10
11.926642
 20
-34.589371
 30
0.0
 10
12.011069
 20
-34.670655
 30
0.0
 10
12.087055
 20
-34.706354
 30
0.0
  0
SPLINE
  5
390
100
AcDbEntity
  8
Layer_1
 62
7
100
AcDbSpline
 70
8
 71
3
 72
8
 73
4
 74
0
 40
0
 40
0
 40
0
 40
0
 40
1
 40
1
 40
1
 40
1
 10
12.087055
 20
-34.706354
 30
0.0
 10
12.163039
 20
-34.742054
 30
0.0
 10
12.250790
 20
-34.759456
 30
0.0
 10
12.445136
 20
-34.695391
 30
0.0
  0
SPLINE
  5
391
100
AcDbEntity
  8
Layer_1
 62
7
100
AcDbSpline
 70
8
 71
3
 72
8
 73
4
 74
0
 40
0
 40
0
 40
0
 40
0
 40
1
 40
1
 40
1
 40
1
 10
12.445136
 20
-34.695391
 30
0.0
 10
12.463262
 20
-34.689512
 30
0.0
 10
12.481836
 20
-34.685114
 30
0.0
 10
12.500674
 20
-34.682239
 30
0.0
  0
SPLINE
  5
392
100
AcDbEntity
  8
Layer_1
 62
7
100
AcDbSpline
 70
8
 71
3
 72
8
 73
4
 74
0
 40
0
 40
0
 40
0
 40
0
 40
1
 40
1
 40
1
 40
1
 10
12.500674
 20
-34.682239
 30
0.0
 10
12.655083
 20
-34.657973
 30
0.0
 10
12.837111
 20
-34.662695
 30
0.0
 10
13.040719
 20
-34.667254
 30
0.0
  0
SPLINE
  5
393
100
AcDbEntity
  8
Layer_1
 62
7
100
AcDbSpline
 70
8
 71
3
 72
8
 73
4
 74
0
 40
0
 40
0
 40
0
 40
0
 40
1
 40
1
 40
1
 40
1
 10
13.040719
 20
-34.667254
 30
0.0
 10
12.498663
 20
-34.395090
 30
0.0
 10
11.976480
 20
-34.086787
 30
0.0
 10
11.471374
 20
-33.751225
 30
0.0
  0
LWPOLYLINE
  5
394
100
AcDbEntity
  8
Layer_1
 62
7
100
AcDbPolyline
 90
1
 70
1
 10
27.999378
 20
-33.698203
 30
0.0
  0
SPLINE
  5
395
100
AcDbEntity
  8
Layer_1
 62
7
100
AcDbSpline
 70
8
 71
3
 72
8
 73
4
 74
0
 40
0
 40
0
 40
0
 40
0
 40
1
 40
1
 40
1
 40
1
 10
31.122722
 20
-36.216140
 30
0.0
 10
30.494276
 20
-36.216888
 30
0.0
 10
29.865980
 20
-36.217637
 30
0.0
 10
29.237681
 20
-36.218329
 30
0.0
  0
SPLINE
  5
396
100
AcDbEntity
  8
Layer_1
 62
7
100
AcDbSpline
 70
8
 71
3
 72
8
 73
4
 74
0
 40
0
 40
0
 40
0
 40
0
 40
1
 40
1
 40
1
 40
1
 10
29.237681
 20
-36.218329
 30
0.0
 10
29.866107
 20
-37.306705
 30
0.0
 10
30.494368
 20
-38.395102
 30
0.0
 10
31.122722
 20
-39.483444
 30
0.0
  0
LWPOLYLINE
  5
397
100
AcDbEntity
  8
Layer_1
 62
7
100
AcDbPolyline
 90
1
 70
1
 10
11.471374
 20
-33.751225
 30
0.0
  0
SPLINE
  5
398
100
AcDbEntity
  8
Layer_1
 62
7
100
AcDbSpline
 70
8
 71
3
 72
8
 73
4
 74
0
 40
0
 40
0
 40
0
 40
0
 40
1
 40
1
 40
1
 40
1
 10
27.448005
 20
-36.219059
 30
0.0
 10
27.056026
 20
-36.219208
 30
0.0
 10
26.664159
 20
-36.219620
 30
0.0
 10
26.272183
 20
-36.219807
 30
0.0
  0
SPLINE
  5
399
100
AcDbEntity
  8
Layer_1
 62
7
100
AcDbSpline
 70
8
 71
3
 72
8
 73
4
 74
0
 40
0
 40
0
 40
0
 40
0
 40
1
 40
1
 40
1
 40
1
 10
26.272183
 20
-36.219807
 30
0.0
 10
26.887890
 20
-36.525272
 30
0.0
 10
27.480549
 20
-36.873449
 30
0.0
 10
28.048705
 20
-37.260072
 30
0.0
  0
SPLINE
  5
39a
100
AcDbEntity
  8
Layer_1
 62
7
100
AcDbSpline
 70
8
 71
3
 72
8
 73
4
 74
0
 40
0
 40
0
 40
0
 40
0
 40
1
 40
1
 40
1
 40
1
 10
28.048705
 20
-37.260072
 30
0.0
 10
27.848435
 20
-36.913100
 30
0.0
 10
27.648269
 20
-36.566074
 30
0.0
 10
27.448005
 20
-36.219079
 30
0.0
  0
LWPOLYLINE
  5
39b
100
AcDbEntity
  8
Layer_1
 62
7
100
AcDbPolyline
 90
2
 70
0
 10
31.122722
 20
-39.483444
 30
0.0
 10
31.122722
 20
-36.216140
 30
0.0
  0
SPLINE
  5
39c
100
AcDbEntity
  8
Layer_1
 62
7
100
AcDbSpline
 70
8
 71
3
 72
8
 73
4
 74
0
 40
0
 40
0
 40
0
 40
0
 40
1
 40
1
 40
1
 40
1
 10
13.085663
 20
-36.229292
 30
0.0
 10
12.720995
 20
-36.229479
 30
0.0
 10
12.356288
 20
-36.230040
 30
0.0
 10
11.991688
 20
-36.230414
 30
0.0
  0
SPLINE
  5
39d
100
AcDbEntity
  8
Layer_1
 62
7
100
AcDbSpline
 70
8
 71
3
 72
8
 73
4
 74
0
 40
0
 40
0
 40
0
 40
0
 40
1
 40
1
 40
1
 40
1
 10
11.991688
 20
-36.230414
 30
0.0
 10
11.810444
 20
-36.549845
 30
0.0
 10
11.657106
 20
-36.829508
 30
0.0
 10
11.457856
 20
-37.169464
 30
0.0
  0
SPLINE
  5
39e
100
AcDbEntity
  8
Layer_1
 62
7
100
AcDbSpline
 70
8
 71
3
 72
8
 73
4
 74
0
 40
0
 40
0
 40
0
 40
0
 40
1
 40
1
 40
1
 40
1
 10
11.457856
 20
-37.169464
 30
0.0
 10
11.980377
 20
-36.822324
 30
0.0
 10
12.523885
 20
-36.508641
 30
0.0
 10
13.085663
 20
-36.229318
 30
0.0
  0
LWPOLYLINE
  5
39f
100
AcDbEntity
  8
Layer_1
 62
7
100
AcDbPolyline
 90
1
 70
1
 10
27.448005
 20
-36.219079
 30
0.0
  0
SPLINE
  5
3a0
100
AcDbEntity
  8
Layer_1
 62
7
100
AcDbSpline
 70
8
 71
3
 72
8
 73
4
 74
0
 40
0
 40
0
 40
0
 40
0
 40
1
 40
1
 40
1
 40
1
 10
10.195801
 20
-36.231163
 30
0.0
 10
9.570442
 20
-36.231911
 30
0.0
 10
8.945112
 20
-36.232659
 30
0.0
 10
8.319895
 20
-36.233351
 30
0.0
  0
LWPOLYLINE
  5
3a1
100
AcDbEntity
  8
Layer_1
 62
7
100
AcDbPolyline
 90
1
 70
1
 10
13.085663
 20
-36.229318
 30
0.0
  0
SPLINE
  5
3a2
100
AcDbEntity
  8
Layer_1
 62
7
100
AcDbSpline
 70
8
 71
3
 72
8
 73
4
 74
0
 40
0
 40
0
 40
0
 40
0
 40
1
 40
1
 40
1
 40
1
 10
8.319895
 20
-39.481659
 30
0.0
 10
8.945235
 20
-38.398168
 30
0.0
 10
9.570504
 20
-37.314623
 30
0.0
 10
10.195801
 20
-36.231159
 30
0.0
  0
LWPOLYLINE
  5
3a3
100
AcDbEntity
  8
Layer_1
 62
7
100
AcDbPolyline
 90
2
 70
0
 10
8.319895
 20
-36.233351
 30
0.0
 10
8.319895
 20
-39.481659
 30
0.0
  0
SPLINE
  5
3a4
100
AcDbEntity
  8
Layer_1
 62
7
100
AcDbSpline
 70
8
 71
3
 72
8
 73
4
 74
0
 40
0
 40
0
 40
0
 40
0
 40
1
 40
1
 40
1
 40
1
 10
21.195836
 20
-36.326528
 30
0.0
 10
23.315777
 20
-39.260399
 30
0.0
 10
26.868516
 20
-41.264215
 30
0.0
 10
30.362713
 20
-41.610053
 30
0.0
  0
SPLINE
  5
3a5
100
AcDbEntity
  8
Layer_1
 62
7
100
AcDbSpline
 70
8
 71
3
 72
8
 73
4
 74
0
 40
0
 40
0
 40
0
 40
0
 40
1
 40
1
 40
1
 40
1
 10
30.362713
 20
-41.610053
 30
0.0
 10
28.196959
 20
-38.687905
 30
0.0
 10
24.799603
 20
-36.719298
 30
0.0
 10
21.195836
 20
-36.326528
 30
0.0
  0
LWPOLYLINE
  5
3a6
100
AcDbEntity
  8
Layer_1
 62
7
100
AcDbPolyline
 90
1
 70
1
 10
10.195801
 20
-36.231159
 30
0.0
  0
SPLINE
  5
3a7
100
AcDbEntity
  8
Layer_1
 62
7
100
AcDbSpline
 70
8
 71
3
 72
8
 73
4
 74
0
 40
0
 40
0
 40
0
 40
0
 40
1
 40
1
 40
1
 40
1
 10
18.171146
 20
-36.327651
 30
0.0
 10
14.544975
 20
-36.709818
 30
0.0
 10
11.167086
 20
-38.703530
 30
0.0
 10
9.002075
 20
-41.627253
 30
0.0
  0
SPLINE
  5
3a8
100
AcDbEntity
  8
Layer_1
 62
7
100
AcDbSpline
 70
8
 71
3
 72
8
 73
4
 74
0
 40
0
 40
0
 40
0
 40
0
 40
1
 40
1
 40
1
 40
1
 10
9.002075
 20
-41.627253
 30
0.0
 10
12.592013
 20
-41.228557
 30
0.0
 10
16.071288
 20
-39.250171
 30
0.0
 10
18.171146
 20
-36.327651
 30
0.0
  0
LWPOLYLINE
  5
3a9
100
AcDbEntity
  8
Layer_1
 62
7
100
AcDbPolyline
 90
1
 70
1
 10
21.195836
 20
-36.326528
 30
0.0
  0
SPLINE
  5
3aa
100
AcDbEntity
  8
Layer_1
 62
7
100
AcDbSpline
 70
8
 71
3
 72
8
 73
4
 74
0
 40
0
 40
0
 40
0
 40
0
 40
1
 40
1
 40
1
 40
1
 10
19.689702
 20
-37.206412
 30
0.0
 10
18.209353
 20
-40.511949
 30
0.0
 10
18.241117
 20
-44.483150
 30
0.0
 10
19.689702
 20
-47.795016
 30
0.0
  0
SPLINE
  5
3ab
100
AcDbEntity
  8
Layer_1
 62
7
100
AcDbSpline
 70
8
 71
3
 72
8
 73
4
 74
0
 40
0
 40
0
 40
0
 40
0
 40
1
 40
1
 40
1
 40
1
 10
19.689702
 20
-47.795016
 30
0.0
 10
21.142457
 20
-44.466390
 30
0.0
 10
21.163052
 20
-40.518238
 30
0.0
 10
19.689702
 20
-37.206412
 30
0.0
  0
LWPOLYLINE
  5
3ac
100
AcDbEntity
  8
Layer_1
 62
7
100
AcDbPolyline
 90
1
 70
1
 10
18.171146
 20
-36.327651
 30
0.0
  0
SPLINE
  5
3ad
100
AcDbEntity
  8
Layer_1
 62
7
100
AcDbSpline
 70
8
 71
3
 72
8
 73
4
 74
0
 40
0
 40
0
 40
0
 40
0
 40
1
 40
1
 40
1
 40
1
 10
15.712811
 20
-40.801834
 30
0.0
 10
15.186163
 20
-41.149481
 30
0.0
 10
14.635408
 20
-41.457755
 30
0.0
 10
14.069654
 20
-41.737229
 30
0.0
  0
SPLINE
  5
3ae
100
AcDbEntity
  8
Layer_1
 62
7
100
AcDbSpline
 70
8
 71
3
 72
8
 73
4
 74
0
 40
0
 40
0
 40
0
 40
0
 40
1
 40
1
 40
1
 40
1
 10
14.069654
 20
-41.737229
 30
0.0
 10
14.437025
 20
-41.737087
 30
0.0
 10
14.804310
 20
-41.737059
 30
0.0
 10
15.171668
 20
-41.736855
 30
0.0
  0
SPLINE
  5
3af
100
AcDbEntity
  8
Layer_1
 62
7
100
AcDbSpline
 70
8
 71
3
 72
8
 73
4
 74
0
 40
0
 40
0
 40
0
 40
0
 40
1
 40
1
 40
1
 40
1
 10
15.171668
 20
-41.736855
 30
0.0
 10
15.352050
 20
-41.425140
 30
0.0
 10
15.532426
 20
-41.113485
 30
0.0
 10
15.712811
 20
-40.801824
 30
0.0
  0
LWPOLYLINE
  5
3b0
100
AcDbEntity
  8
Layer_1
 62
7
100
AcDbPolyline
 90
1
 70
1
 10
19.689702
 20
-37.206412
 30
0.0
  0
SPLINE
  5
3b1
100
AcDbEntity
  8
Layer_1
 62
7
100
AcDbSpline
 70
8
 71
3
 72
8
 73
4
 74
0
 40
0
 40
0
 40
0
 40
0
 40
1
 40
1
 40
1
 40
1
 10
23.734558
 20
-40.841661
 30
0.0
 10
23.896649
 20
-41.122173
 30
0.0
 10
24.058799
 20
-41.402651
 30
0.0
 10
24.220890
 20
-41.683152
 30
0.0
  0
SPLINE
  5
3b2
100
AcDbEntity
  8
Layer_1
 62
7
100
AcDbSpline
 70
8
 71
3
 72
8
 73
4
 74
0
 40
0
 40
0
 40
0
 40
0
 40
1
 40
1
 40
1
 40
1
 10
24.220890
 20
-41.683152
 30
0.0
 10
24.548436
 20
-41.680645
 30
0.0
 10
24.828845
 20
-41.673854
 30
0.0
 10
25.180402
 20
-41.676211
 30
0.0
  0
SPLINE
  5
3b3
100
AcDbEntity
  8
Layer_1
 62
7
100
AcDbSpline
 70
8
 71
3
 72
8
 73
4
 74
0
 40
0
 40
0
 40
0
 40
0
 40
1
 40
1
 40
1
 40
1
 10
25.180402
 20
-41.676211
 30
0.0
 10
24.683217
 20
-41.424889
 30
0.0
 10
24.201047
 20
-41.146476
 30
0.0
 10
23.734558
 20
-40.841663
 30
0.0
  0
LWPOLYLINE
  5
3b4
100
AcDbEntity
  8
Layer_1
 62
7
100
AcDbPolyline
 90
1
 70
1
 10
15.712811
 20
-40.801824
 30
0.0
  0
SPLINE
  5
3b5
100
AcDbEntity
  8
Layer_1
 62
7
100
AcDbSpline
 70
8
 71
3
 72
8
 73
4
 74
0
 40
0
 40
0
 40
0
 40
0
 40
1
 40
1
 40
1
 40
1
 10
22.324522
 20
-41.501553
 30
0.0
 10
22.366175
 20
-42.142467
 30
0.0
 10
22.361292
 20
-42.785203
 30
0.0
 10
22.321603
 20
-43.426423
 30
0.0
  0
SPLINE
  5
3b6
100
AcDbEntity
  8
Layer_1
 62
7
100
AcDbSpline
 70
8
 71
3
 72
8
 73
4
 74
0
 40
0
 40
0
 40
0
 40
0
 40
1
 40
1
 40
1
 40
1
 10
22.321603
 20
-43.426423
 30
0.0
 10
22.507229
 20
-43.105017
 30
0.0
 10
22.692845
 20
-42.783581
 30
0.0
 10
22.878455
 20
-42.462161
 30
0.0
  0
SPLINE
  5
3b7
100
AcDbEntity
  8
Layer_1
 62
7
100
AcDbSpline
 70
8
 71
3
 72
8
 73
4
 74
0
 40
0
 40
0
 40
0
 40
0
 40
1
 40
1
 40
1
 40
1
 10
22.878455
 20
-42.462161
 30
0.0
 10
22.691421
 20
-42.142555
 30
0.0
 10
22.508933
 20
-41.821927
 30
0.0
 10
22.324527
 20
-41.501553
 30
0.0
  0
LWPOLYLINE
  5
3b8
100
AcDbEntity
  8
Layer_1
 62
7
100
AcDbPolyline
 90
1
 70
1
 10
23.734558
 20
-40.841663
 30
0.0
  0
SPLINE
  5
3b9
100
AcDbEntity
  8
Layer_1
 62
7
100
AcDbSpline
 70
8
 71
3
 72
8
 73
4
 74
0
 40
0
 40
0
 40
0
 40
0
 40
1
 40
1
 40
1
 40
1
 10
17.055250
 20
-41.582670
 30
0.0
 10
16.875804
 20
-41.892991
 30
0.0
 10
16.696473
 20
-42.203372
 30
0.0
 10
16.517031
 20
-42.513682
 30
0.0
  0
SPLINE
  5
3ba
100
AcDbEntity
  8
Layer_1
 62
7
100
AcDbSpline
 70
8
 71
3
 72
8
 73
4
 74
0
 40
0
 40
0
 40
0
 40
0
 40
1
 40
1
 40
1
 40
1
 10
16.517031
 20
-42.513682
 30
0.0
 10
16.701534
 20
-42.827575
 30
0.0
 10
16.865911
 20
-43.098230
 30
0.0
 10
17.058904
 20
-43.437386
 30
0.0
  0
SPLINE
  5
3bb
100
AcDbEntity
  8
Layer_1
 62
7
100
AcDbSpline
 70
8
 71
3
 72
8
 73
4
 74
0
 40
0
 40
0
 40
0
 40
0
 40
1
 40
1
 40
1
 40
1
 10
17.058904
 20
-43.437386
 30
0.0
 10
17.019609
 20
-42.819632
 30
0.0
 10
17.018330
 20
-42.200738
 30
0.0
 10
17.055255
 20
-41.582670
 30
0.0
  0
LWPOLYLINE
  5
3bc
100
AcDbEntity
  8
Layer_1
 62
7
100
AcDbPolyline
 90
1
 70
1
 10
22.324527
 20
-41.501553
 30
0.0
  0
SPLINE
  5
3bd
100
AcDbEntity
  8
Layer_1
 62
7
100
AcDbSpline
 70
8
 71
3
 72
8
 73
4
 74
0
 40
0
 40
0
 40
0
 40
0
 40
1
 40
1
 40
1
 40
1
 10
25.139112
 20
-43.183072
 30
0.0
 10
25.074637
 20
-43.190406
 30
0.0
 10
25.077243
 20
-43.194428
 30
0.0
 10
25.063111
 20
-43.200246
 30
0.0
  0
SPLINE
  5
3be
100
AcDbEntity
  8
Layer_1
 62
7
100
AcDbSpline
 70
8
 71
3
 72
8
 73
4
 74
0
 40
0
 40
0
 40
0
 40
0
 40
1
 40
1
 40
1
 40
1
 10
25.063111
 20
-43.200246
 30
0.0
 10
25.083334
 20
-43.276960
 30
0.0
 10
25.194564
 20
-43.523451
 30
0.0
 10
25.470521
 20
-43.856121
 30
0.0
  0
SPLINE
  5
3bf
100
AcDbEntity
  8
Layer_1
 62
7
100
AcDbSpline
 70
8
 71
3
 72
8
 73
4
 74
0
 40
0
 40
0
 40
0
 40
0
 40
1
 40
1
 40
1
 40
1
 10
25.470521
 20
-43.856121
 30
0.0
 10
25.497029
 20
-43.888056
 30
0.0
 10
25.517686
 20
-43.924423
 30
0.0
 10
25.531540
 20
-43.963546
 30
0.0
  0
SPLINE
  5
3c0
100
AcDbEntity
  8
Layer_1
 62
7
100
AcDbSpline
 70
8
 71
3
 72
8
 73
4
 74
0
 40
0
 40
0
 40
0
 40
0
 40
1
 40
1
 40
1
 40
1
 10
25.531540
 20
-43.963546
 30
0.0
 10
25.720112
 20
-44.496072
 30
0.0
 10
25.953456
 20
-44.786692
 30
0.0
 10
26.106663
 20
-44.849977
 30
0.0
  0
SPLINE
  5
3c1
100
AcDbEntity
  8
Layer_1
 62
7
100
AcDbSpline
 70
8
 71
3
 72
8
 73
4
 74
0
 40
0
 40
0
 40
0
 40
0
 40
1
 40
1
 40
1
 40
1
 10
26.106663
 20
-44.849977
 30
0.0
 10
26.183266
 20
-44.881620
 30
0.0
 10
26.252614
 20
-44.888128
 30
0.0
 10
26.383993
 20
-44.839388
 30
0.0
  0
SPLINE
  5
3c2
100
AcDbEntity
  8
Layer_1
 62
7
100
AcDbSpline
 70
8
 71
3
 72
8
 73
4
 74
0
 40
0
 40
0
 40
0
 40
0
 40
1
 40
1
 40
1
 40
1
 10
26.383993
 20
-44.839388
 30
0.0
 10
26.515371
 20
-44.790637
 30
0.0
 10
26.698503
 20
-44.673545
 30
0.0
 10
26.915634
 20
-44.463404
 30
0.0
  0
SPLINE
  5
3c3
100
AcDbEntity
  8
Layer_1
 62
7
100
AcDbSpline
 70
8
 71
3
 72
8
 73
4
 74
0
 40
0
 40
0
 40
0
 40
0
 40
1
 40
1
 40
1
 40
1
 10
26.915634
 20
-44.463404
 30
0.0
 10
26.936438
 20
-44.443341
 30
0.0
 10
26.959632
 20
-44.425914
 30
0.0
 10
26.984693
 20
-44.411516
 30
0.0
  0
LWPOLYLINE
  5
3c4
100
AcDbEntity
  8
Layer_1
 62
7
100
AcDbPolyline
 90
1
 70
1
 10
17.055255
 20
-41.582670
 30
0.0
  0
SPLINE
  5
3c5
100
AcDbEntity
  8
Layer_1
 62
7
100
AcDbSpline
 70
8
 71
3
 72
8
 73
4
 74
0
 40
0
 40
0
 40
0
 40
0
 40
1
 40
1
 40
1
 40
1
 10
29.007850
 20
-43.243371
 30
0.0
 10
27.965769
 20
-43.239461
 30
0.0
 10
26.924025
 20
-43.235739
 30
0.0
 10
25.879756
 20
-43.238994
 30
0.0
  0
SPLINE
  5
3c6
100
AcDbEntity
  8
Layer_1
 62
7
100
AcDbSpline
 70
8
 71
3
 72
8
 73
4
 74
0
 40
0
 40
0
 40
0
 40
0
 40
1
 40
1
 40
1
 40
1
 10
25.879756
 20
-43.238994
 30
0.0
 10
25.858941
 20
-43.239130
 30
0.0
 10
25.838154
 20
-43.237421
 30
0.0
 10
25.817641
 20
-43.233887
 30
0.0
  0
SPLINE
  5
3c7
100
AcDbEntity
  8
Layer_1
 62
7
100
AcDbSpline
 70
8
 71
3
 72
8
 73
4
 74
0
 40
0
 40
0
 40
0
 40
0
 40
1
 40
1
 40
1
 40
1
 10
25.817641
 20
-43.233887
 30
0.0
 10
25.507963
 20
-43.179461
 30
0.0
 10
25.273530
 20
-43.167825
 30
0.0
 10
25.139112
 20
-43.183096
 30
0.0
  0
LWPOLYLINE
  5
3c8
100
AcDbEntity
  8
Layer_1
 62
7
100
AcDbPolyline
 90
2
 70
0
 10
26.984693
 20
-44.411516
 30
0.0
 10
29.007850
 20
-43.243371
 30
0.0
  0
SPLINE
  5
3c9
100
AcDbEntity
  8
Layer_1
 62
7
100
AcDbSpline
 70
8
 71
3
 72
8
 73
4
 74
0
 40
0
 40
0
 40
0
 40
0
 40
1
 40
1
 40
1
 40
1
 10
10.512958
 20
-43.289036
 30
0.0
 10
11.452855
 20
-43.831776
 30
0.0
 10
12.392761
 20
-44.374491
 30
0.0
 10
13.332665
 20
-44.917208
 30
0.0
  0
SPLINE
  5
3ca
100
AcDbEntity
  8
Layer_1
 62
7
100
AcDbSpline
 70
8
 71
3
 72
8
 73
4
 74
0
 40
0
 40
0
 40
0
 40
0
 40
1
 40
1
 40
1
 40
1
 10
13.332665
 20
-44.917208
 30
0.0
 10
13.646429
 20
-44.374502
 30
0.0
 10
13.960138
 20
-43.831748
 30
0.0
 10
14.273907
 20
-43.289036
 30
0.0
  0
LWPOLYLINE
  5
3cb
100
AcDbEntity
  8
Layer_1
 62
7
100
AcDbPolyline
 90
1
 70
1
 10
25.139112
 20
-43.183096
 30
0.0
  0
SPLINE
  5
3cc
100
AcDbEntity
  8
Layer_1
 62
7
100
AcDbSpline
 70
8
 71
3
 72
8
 73
4
 74
0
 40
0
 40
0
 40
0
 40
0
 40
1
 40
1
 40
1
 40
1
 10
23.774751
 20
-44.012506
 30
0.0
 10
23.321552
 20
-44.796652
 30
0.0
 10
22.868329
 20
-45.580689
 30
0.0
 10
22.415139
 20
-46.364878
 30
0.0
  0
LWPOLYLINE
  5
3cd
100
AcDbEntity
  8
Layer_1
 62
7
100
AcDbPolyline
 90
2
 70
0
 10
14.273907
 20
-43.289036
 30
0.0
 10
10.512958
 20
-43.289036
 30
0.0
  0
SPLINE
  5
3ce
100
AcDbEntity
  8
Layer_1
 62
7
100
AcDbSpline
 70
8
 71
3
 72
8
 73
4
 74
0
 40
0
 40
0
 40
0
 40
0
 40
1
 40
1
 40
1
 40
1
 10
22.428291
 20
-46.340397
 30
0.0
 10
22.280852
 20
-46.649991
 30
0.0
 10
22.031335
 20
-47.036644
 30
0.0
 10
21.808591
 20
-47.399660
 30
0.0
  0
SPLINE
  5
3cf
100
AcDbEntity
  8
Layer_1
 62
7
100
AcDbSpline
 70
8
 71
3
 72
8
 73
4
 74
0
 40
0
 40
0
 40
0
 40
0
 40
1
 40
1
 40
1
 40
1
 10
21.808591
 20
-47.399660
 30
0.0
 10
22.789002
 20
-46.833637
 30
0.0
 10
23.769465
 20
-46.267702
 30
0.0
 10
24.749971
 20
-45.701698
 30
0.0
  0
SPLINE
  5
3d0
100
AcDbEntity
  8
Layer_1
 62
7
100
AcDbSpline
 70
8
 71
3
 72
8
 73
4
 74
0
 40
0
 40
0
 40
0
 40
0
 40
1
 40
1
 40
1
 40
1
 10
24.749971
 20
-45.701698
 30
0.0
 10
24.424822
 20
-45.138621
 30
0.0
 10
24.099858
 20
-44.575532
 30
0.0
 10
23.774748
 20
-44.012506
 30
0.0
  0
LWPOLYLINE
  5
3d1
100
AcDbEntity
  8
Layer_1
 62
7
100
AcDbPolyline
 90
2
 70
0
 10
22.415139
 20
-46.364878
 30
0.0
 10
22.428291
 20
-46.340397
 30
0.0
  0
SPLINE
  5
3d2
100
AcDbEntity
  8
Layer_1
 62
7
100
AcDbSpline
 70
8
 71
3
 72
8
 73
4
 74
0
 40
0
 40
0
 40
0
 40
0
 40
1
 40
1
 40
1
 40
1
 10
15.620001
 20
-44.065122
 30
0.0
 10
15.306148
 20
-44.607975
 30
0.0
 10
14.992240
 20
-45.150810
 30
0.0
 10
14.678393
 20
-45.693659
 30
0.0
  0
SPLINE
  5
3d3
100
AcDbEntity
  8
Layer_1
 62
7
100
AcDbSpline
 70
8
 71
3
 72
8
 73
4
 74
0
 40
0
 40
0
 40
0
 40
0
 40
1
 40
1
 40
1
 40
1
 10
14.678393
 20
-45.693659
 30
0.0
 10
15.619386
 20
-46.237004
 30
0.0
 10
16.560394
 20
-46.780319
 30
0.0
 10
17.501389
 20
-47.323659
 30
0.0
  0
SPLINE
  5
3d4
100
AcDbEntity
  8
Layer_1
 62
7
100
AcDbSpline
 70
8
 71
3
 72
8
 73
4
 74
0
 40
0
 40
0
 40
0
 40
0
 40
1
 40
1
 40
1
 40
1
 10
17.501389
 20
-47.323659
 30
0.0
 10
16.874256
 20
-46.237476
 30
0.0
 10
16.247137
 20
-45.151289
 30
0.0
 10
15.620001
 20
-44.065122
 30
0.0
  0
LWPOLYLINE
  5
3d5
100
AcDbEntity
  8
Layer_1
 62
7
100
AcDbPolyline
 90
1
 70
1
 10
23.774748
 20
-44.012506
 30
0.0
  0
SPLINE
  5
3d6
100
AcDbEntity
  8
Layer_1
 62
7
100
AcDbSpline
 70
8
 71
3
 72
8
 73
4
 74
0
 40
0
 40
0
 40
0
 40
0
 40
1
 40
1
 40
1
 40
1
 10
19.622556
 20
-22.375901
 30
0.0
 10
17.752022
 20
-26.076472
 30
0.0
 10
17.717358
 20
-30.960973
 30
0.0
 10
19.707042
 20
-34.531987
 30
0.0
  0
SPLINE
  5
3d7
100
AcDbEntity
  8
Layer_1
 62
7
100
AcDbSpline
 70
8
 71
3
 72
8
 73
4
 74
0
 40
0
 40
0
 40
0
 40
0
 40
1
 40
1
 40
1
 40
1
 10
19.707042
 20
-34.531987
 30
0.0
 10
21.681751
 20
-30.742355
 30
0.0
 10
21.625014
 20
-26.024153
 30
0.0
 10
19.690748
 20
-22.244607
 30
0.0
  0
LWPOLYLINE
  5
3d8
100
AcDbEntity
  8
Layer_1
 62
7
100
AcDbPolyline
 90
1
 70
1
 10
15.620001
 20
-44.065122
 30
0.0
  0
SPLINE
  5
3d9
100
AcDbEntity
  8
Layer_1
 62
7
100
AcDbSpline
 70
8
 71
3
 72
8
 73
4
 74
0
 40
0
 40
0
 40
0
 40
0
 40
1
 40
1
 40
1
 40
1
 10
14.211570
 20
-25.048554
 30
0.0
 10
14.692197
 20
-25.880796
 30
0.0
 10
15.172826
 20
-26.713037
 30
0.0
 10
15.653458
 20
-27.545273
 30
0.0
  0
SPLINE
  5
3da
100
AcDbEntity
  8
Layer_1
 62
7
100
AcDbSpline
 70
8
 71
3
 72
8
 73
4
 74
0
 40
0
 40
0
 40
0
 40
0
 40
1
 40
1
 40
1
 40
1
 10
15.653458
 20
-27.545273
 30
0.0
 10
16.609122
 20
-25.881436
 30
0.0
 10
17.582126
 20
-24.227359
 30
0.0
 10
18.527905
 20
-22.557257
 30
0.0
  0
SPLINE
  5
3db
100
AcDbEntity
  8
Layer_1
 62
7
100
AcDbSpline
 70
8
 71
3
 72
8
 73
4
 74
0
 40
0
 40
0
 40
0
 40
0
 40
1
 40
1
 40
1
 40
1
 10
18.527905
 20
-22.557257
 30
0.0
 10
17.089126
 20
-23.387688
 30
0.0
 10
15.650349
 20
-24.218123
 30
0.0
 10
14.211570
 20
-25.048554
 30
0.0
  0
LWPOLYLINE
  5
3dc
100
AcDbEntity
  8
Layer_1
 62
7
100
AcDbPolyline
 90
2
 70
0
 10
19.690748
 20
-22.244607
 30
0.0
 10
19.622556
 20
-22.375901
 30
0.0
  0
SPLINE
  5
3dd
100
AcDbEntity
  8
Layer_1
 62
7
100
AcDbSpline
 70
8
 71
3
 72
8
 73
4
 74
0
 40
0
 40
0
 40
0
 40
0
 40
1
 40
1
 40
1
 40
1
 10
16.142951
 20
-28.394454
 30
0.0
 10
16.590856
 20
-29.123941
 30
0.0
 10
17.214402
 20
-30.342164
 30
0.0
 10
17.556687
 20
-30.777778
 30
0.0
  0
SPLINE
  5
3de
100
AcDbEntity
  8
Layer_1
 62
7
100
AcDbSpline
 70
8
 71
3
 72
8
 73
4
 74
0
 40
0
 40
0
 40
0
 40
0
 40
1
 40
1
 40
1
 40
1
 10
17.556687
 20
-30.777778
 30
0.0
 10
17.296298
 20
-29.160773
 30
0.0
 10
17.304748
 20
-27.499682
 30
0.0
 10
17.590317
 20
-25.886712
 30
0.0
  0
SPLINE
  5
3df
100
AcDbEntity
  8
Layer_1
 62
7
100
AcDbSpline
 70
8
 71
3
 72
8
 73
4
 74
0
 40
0
 40
0
 40
0
 40
0
 40
1
 40
1
 40
1
 40
1
 10
17.590317
 20
-25.886712
 30
0.0
 10
17.107855
 20
-26.722629
 30
0.0
 10
16.625396
 20
-27.558541
 30
0.0
 10
16.142934
 20
-28.394454
 30
0.0
  0
LWPOLYLINE
  5
3e0
100
AcDbEntity
  8
Layer_1
 62
7
100
AcDbPolyline
 90
1
 70
1
 10
14.211570
 20
-25.048554
 30
0.0
  0
SPLINE
  5
3e1
100
AcDbEntity
  8
Layer_1
 62
7
100
AcDbSpline
 70
8
 71
3
 72
8
 73
4
 74
0
 40
0
 40
0
 40
0
 40
0
 40
1
 40
1
 40
1
 40
1
 10
12.722761
 20
-28.954320
 30
0.0
 10
14.256864
 20
-29.550098
 30
0.0
 10
15.690457
 20
-30.404338
 30
0.0
 10
16.942858
 20
-31.472306
 30
0.0
  0
SPLINE
  5
3e2
100
AcDbEntity
  8
Layer_1
 62
7
100
AcDbSpline
 70
8
 71
3
 72
8
 73
4
 74
0
 40
0
 40
0
 40
0
 40
0
 40
1
 40
1
 40
1
 40
1
 10
16.942858
 20
-31.472306
 30
0.0
 10
16.430507
 20
-30.588031
 30
0.0
 10
15.912982
 20
-29.706836
 30
0.0
 10
15.407902
 20
-28.818397
 30
0.0
  0
SPLINE
  5
3e3
100
AcDbEntity
  8
Layer_1
 62
7
100
AcDbSpline
 70
8
 71
3
 72
8
 73
4
 74
0
 40
0
 40
0
 40
0
 40
0
 40
1
 40
1
 40
1
 40
1
 10
15.407902
 20
-28.818397
 30
0.0
 10
14.389833
 20
-28.818397
 30
0.0
 10
13.371761
 20
-28.818397
 30
0.0
 10
12.353686
 20
-28.818397
 30
0.0
  0
SPLINE
  5
3e4
100
AcDbEntity
  8
Layer_1
 62
7
100
AcDbSpline
 70
8
 71
3
 72
8
 73
4
 74
0
 40
0
 40
0
 40
0
 40
0
 40
1
 40
1
 40
1
 40
1
 10
12.353686
 20
-28.818397
 30
0.0
 10
12.476713
 20
-28.863704
 30
0.0
 10
12.599736
 20
-28.909013
 30
0.0
 10
12.722761
 20
-28.954320
 30
0.0
  0
LWPOLYLINE
  5
3e5
100
AcDbEntity
  8
Layer_1
 62
7
100
AcDbPolyline
 90
1
 70
1
 10
16.142934
 20
-28.394454
 30
0.0
  0
SPLINE
  5
3e6
100
AcDbEntity
  8
Layer_1
 62
7
100
AcDbSpline
 70
8
 71
3
 72
8
 73
4
 74
0
 40
0
 40
0
 40
0
 40
0
 40
1
 40
1
 40
1
 40
1
 10
9.150880
 20
-27.970646
 30
0.0
 10
11.073921
 20
-27.970646
 30
0.0
 10
12.996957
 20
-27.970646
 30
0.0
 10
14.920002
 20
-27.970646
 30
0.0
  0
SPLINE
  5
3e7
100
AcDbEntity
  8
Layer_1
 62
7
100
AcDbSpline
 70
8
 71
3
 72
8
 73
4
 74
0
 40
0
 40
0
 40
0
 40
0
 40
1
 40
1
 40
1
 40
1
 10
14.920002
 20
-27.970646
 30
0.0
 10
14.439113
 20
-27.137884
 30
0.0
 10
13.958222
 20
-26.305128
 30
0.0
 10
13.477330
 20
-25.472365
 30
0.0
  0
SPLINE
  5
3e8
100
AcDbEntity
  8
Layer_1
 62
7
100
AcDbSpline
 70
8
 71
3
 72
8
 73
4
 74
0
 40
0
 40
0
 40
0
 40
0
 40
1
 40
1
 40
1
 40
1
 10
13.477330
 20
-25.472365
 30
0.0
 10
12.035180
 20
-26.305128
 30
0.0
 10
10.593032
 20
-27.137884
 30
0.0
 10
9.150880
 20
-27.970646
 30
0.0
  0
LWPOLYLINE
  5
3e9
100
AcDbEntity
  8
Layer_1
 62
7
100
AcDbPolyline
 90
1
 70
1
 10
12.722761
 20
-28.954320
 30
0.0
  0
SPLINE
  5
3ea
100
AcDbEntity
  8
Layer_1
 62
7
100
AcDbSpline
 70
8
 71
3
 72
8
 73
4
 74
0
 40
0
 40
0
 40
0
 40
0
 40
1
 40
1
 40
1
 40
1
 10
8.321250
 20
-28.972304
 30
0.0
 10
10.617380
 20
-32.457302
 30
0.0
 10
14.810588
 20
-34.942569
 30
0.0
 10
18.875078
 20
-34.942477
 30
0.0
  0
SPLINE
  5
3eb
100
AcDbEntity
  8
Layer_1
 62
7
100
AcDbSpline
 70
8
 71
3
 72
8
 73
4
 74
0
 40
0
 40
0
 40
0
 40
0
 40
1
 40
1
 40
1
 40
1
 10
18.875078
 20
-34.942477
 30
0.0
 10
16.582091
 20
-31.362874
 30
0.0
 10
12.455197
 20
-29.059355
 30
0.0
 10
8.244646
 20
-28.851106
 30
0.0
  0
LWPOLYLINE
  5
3ec
100
AcDbEntity
  8
Layer_1
 62
7
100
AcDbPolyline
 90
1
 70
1
 10
9.150880
 20
-27.970646
 30
0.0
  0
SPLINE
  5
3ed
100
AcDbEntity
  8
Layer_1
 62
7
100
AcDbSpline
 70
8
 71
3
 72
8
 73
4
 74
0
 40
0
 40
0
 40
0
 40
0
 40
1
 40
1
 40
1
 40
1
 10
20.929953
 20
-22.754358
 30
0.0
 10
21.846697
 20
-24.392060
 30
0.0
 10
22.808507
 20
-26.003490
 30
0.0
 10
23.738662
 20
-27.632851
 30
0.0
  0
SPLINE
  5
3ee
100
AcDbEntity
  8
Layer_1
 62
7
100
AcDbSpline
 70
8
 71
3
 72
8
 73
4
 74
0
 40
0
 40
0
 40
0
 40
0
 40
1
 40
1
 40
1
 40
1
 10
23.738662
 20
-27.632851
 30
0.0
 10
24.236233
 20
-26.771681
 30
0.0
 10
24.733801
 20
-25.910510
 30
0.0
 10
25.231372
 20
-25.049340
 30
0.0
  0
SPLINE
  5
3ef
100
AcDbEntity
  8
Layer_1
 62
7
100
AcDbSpline
 70
8
 71
3
 72
8
 73
4
 74
0
 40
0
 40
0
 40
0
 40
0
 40
1
 40
1
 40
1
 40
1
 10
25.231372
 20
-25.049340
 30
0.0
 10
23.745855
 20
-24.198426
 30
0.0
 10
22.271204
 20
-23.328792
 30
0.0
 10
20.781330
 20
-22.484538
 30
0.0
  0
SPLINE
  5
3f0
100
AcDbEntity
  8
Layer_1
 62
7
100
AcDbSpline
 70
8
 71
3
 72
8
 73
4
 74
0
 40
0
 40
0
 40
0
 40
0
 40
1
 40
1
 40
1
 40
1
 10
20.781330
 20
-22.484538
 30
0.0
 10
20.830871
 20
-22.574476
 30
0.0
 10
20.880415
 20
-22.664418
 30
0.0
 10
20.929953
 20
-22.754358
 30
0.0
  0
LWPOLYLINE
  5
3f1
100
AcDbEntity
  8
Layer_1
 62
7
100
AcDbPolyline
 90
2
 70
0
 10
8.244646
 20
-28.851106
 30
0.0
 10
8.321250
 20
-28.972304
 30
0.0
  0
SPLINE
  5
3f2
100
AcDbEntity
  8
Layer_1
 62
7
100
AcDbSpline
 70
8
 71
3
 72
8
 73
4
 74
0
 40
0
 40
0
 40
0
 40
0
 40
1
 40
1
 40
1
 40
1
 10
21.872183
 20
-26.395047
 30
0.0
 10
22.082703
 20
-27.931545
 30
0.0
 10
22.054999
 20
-29.501444
 30
0.0
 10
21.779074
 20
-31.028045
 30
0.0
  0
SPLINE
  5
3f3
100
AcDbEntity
  8
Layer_1
 62
7
100
AcDbSpline
 70
8
 71
3
 72
8
 73
4
 74
0
 40
0
 40
0
 40
0
 40
0
 40
1
 40
1
 40
1
 40
1
 10
21.779074
 20
-31.028045
 30
0.0
 10
22.198892
 20
-30.133781
 30
0.0
 10
23.011040
 20
-29.240972
 30
0.0
 10
23.172345
 20
-28.347613
 30
0.0
  0
SPLINE
  5
3f4
100
AcDbEntity
  8
Layer_1
 62
7
100
AcDbSpline
 70
8
 71
3
 72
8
 73
4
 74
0
 40
0
 40
0
 40
0
 40
0
 40
1
 40
1
 40
1
 40
1
 10
23.172345
 20
-28.347613
 30
0.0
 10
22.759931
 20
-27.708401
 30
0.0
 10
22.076150
 20
-26.301504
 30
0.0
 10
21.831794
 20
-26.137705
 30
0.0
  0
LWPOLYLINE
  5
3f5
100
AcDbEntity
  8
Layer_1
 62
7
100
AcDbPolyline
 90
1
 70
1
 10
20.929953
 20
-22.754358
 30
0.0
  0
SPLINE
  5
3f6
100
AcDbEntity
  8
Layer_1
 62
7
100
AcDbSpline
 70
8
 71
3
 72
8
 73
4
 74
0
 40
0
 40
0
 40
0
 40
0
 40
1
 40
1
 40
1
 40
1
 10
24.474463
 20
-28.054312
 30
0.0
 10
26.449416
 20
-28.044902
 30
0.0
 10
28.424955
 20
-28.093307
 30
0.0
 10
30.399431
 20
-28.032413
 30
0.0
  0
SPLINE
  5
3f7
100
AcDbEntity
  8
Layer_1
 62
7
100
AcDbSpline
 70
8
 71
3
 72
8
 73
4
 74
0
 40
0
 40
0
 40
0
 40
0
 40
1
 40
1
 40
1
 40
1
 10
30.399431
 20
-28.032413
 30
0.0
 10
28.921309
 20
-27.179070
 30
0.0
 10
27.443190
 20
-26.325714
 30
0.0
 10
25.965072
 20
-25.472362
 30
0.0
  0
SPLINE
  5
3f8
100
AcDbEntity
  8
Layer_1
 62
7
100
AcDbSpline
 70
8
 71
3
 72
8
 73
4
 74
0
 40
0
 40
0
 40
0
 40
0
 40
1
 40
1
 40
1
 40
1
 10
25.965072
 20
-25.472362
 30
0.0
 10
25.468201
 20
-26.333012
 30
0.0
 10
24.971334
 20
-27.193666
 30
0.0
 10
24.474463
 20
-28.054312
 30
0.0
  0
LWPOLYLINE
  5
3f9
100
AcDbEntity
  8
Layer_1
 62
7
100
AcDbPolyline
 90
3
 70
0
 10
21.831794
 20
-26.137705
 30
0.0
 10
21.855576
 20
-26.289297
 30
0.0
 10
21.872183
 20
-26.395047
 30
0.0
  0
SPLINE
  5
3fa
100
AcDbEntity
  8
Layer_1
 62
7
100
AcDbSpline
 70
8
 71
3
 72
8
 73
4
 74
0
 40
0
 40
0
 40
0
 40
0
 40
1
 40
1
 40
1
 40
1
 10
22.562632
 20
-31.365023
 30
0.0
 10
23.821587
 20
-30.317923
 30
0.0
 10
25.256167
 20
-29.481722
 30
0.0
 10
26.788993
 20
-28.904981
 30
0.0
  0
SPLINE
  5
3fb
100
AcDbEntity
  8
Layer_1
 62
7
100
AcDbSpline
 70
8
 71
3
 72
8
 73
4
 74
0
 40
0
 40
0
 40
0
 40
0
 40
1
 40
1
 40
1
 40
1
 10
26.788993
 20
-28.904981
 30
0.0
 10
25.854059
 20
-28.904981
 30
0.0
 10
24.919128
 20
-28.904981
 30
0.0
 10
23.984192
 20
-28.904981
 30
0.0
  0
SPLINE
  5
3fc
100
AcDbEntity
  8
Layer_1
 62
7
100
AcDbSpline
 70
8
 71
3
 72
8
 73
4
 74
0
 40
0
 40
0
 40
0
 40
0
 40
1
 40
1
 40
1
 40
1
 10
23.984192
 20
-28.904981
 30
0.0
 10
23.510338
 20
-29.724996
 30
0.0
 10
23.036487
 20
-30.545009
 30
0.0
 10
22.562632
 20
-31.365023
 30
0.0
  0
LWPOLYLINE
  5
3fd
100
AcDbEntity
  8
Layer_1
 62
7
100
AcDbPolyline
 90
1
 70
1
 10
24.474463
 20
-28.054312
 30
0.0
  0
SPLINE
  5
3fe
100
AcDbEntity
  8
Layer_1
 62
7
100
AcDbSpline
 70
8
 71
3
 72
8
 73
4
 74
0
 40
0
 40
0
 40
0
 40
0
 40
1
 40
1
 40
1
 40
1
 10
31.048191
 20
-28.853452
 30
0.0
 10
26.865368
 20
-29.066751
 30
0.0
 10
22.622436
 20
-31.484804
 30
0.0
 10
20.503684
 20
-35.007450
 30
0.0
  0
SPLINE
  5
3ff
100
AcDbEntity
  8
Layer_1
 62
7
100
AcDbSpline
 70
8
 71
3
 72
8
 73
4
 74
0
 40
0
 40
0
 40
0
 40
0
 40
1
 40
1
 40
1
 40
1
 10
20.503684
 20
-35.007450
 30
0.0
 10
24.741896
 20
-34.834422
 30
0.0
 10
28.826062
 20
-32.422093
 30
0.0
 10
31.132830
 20
-28.850274
 30
0.0
  0
LWPOLYLINE
  5
400
100
AcDbEntity
  8
Layer_1
 62
7
100
AcDbPolyline
 90
1
 70
1
 10
22.562632
 20
-31.365023
 30
0.0
  0
SPLINE
  5
401
100
AcDbEntity
  8
Layer_1
 62
7
100
AcDbSpline
 70
8
 71
3
 72
8
 73
4
 74
0
 40
0
 40
0
 40
0
 40
0
 40
1
 40
1
 40
1
 40
1
 10
30.261567
 20
-32.182928
 30
0.0
 10
29.716818
 20
-33.128289
 30
0.0
 10
29.172072
 20
-34.073648
 30
0.0
 10
28.627320
 20
-35.019008
 30
0.0
  0
SPLINE
  5
402
100
AcDbEntity
  8
Layer_1
 62
7
100
AcDbSpline
 70
8
 71
3
 72
8
 73
4
 74
0
 40
0
 40
0
 40
0
 40
0
 40
1
 40
1
 40
1
 40
1
 10
28.627320
 20
-35.019008
 30
0.0
 10
29.576591
 20
-35.017698
 30
0.0
 10
30.525863
 20
-35.016987
 30
0.0
 10
31.475130
 20
-35.015809
 30
0.0
  0
SPLINE
  5
403
100
AcDbEntity
  8
Layer_1
 62
7
100
AcDbSpline
 70
8
 71
3
 72
8
 73
4
 74
0
 40
0
 40
0
 40
0
 40
0
 40
1
 40
1
 40
1
 40
1
 10
31.475130
 20
-35.015809
 30
0.0
 10
31.475130
 20
-33.370876
 30
0.0
 10
31.475130
 20
-31.725944
 30
0.0
 10
31.475130
 20
-30.081011
 30
0.0
  0
SPLINE
  5
404
100
AcDbEntity
  8
Layer_1
 62
7
100
AcDbSpline
 70
8
 71
3
 72
8
 73
4
 74
0
 40
0
 40
0
 40
0
 40
0
 40
1
 40
1
 40
1
 40
1
 10
31.475130
 20
-30.081011
 30
0.0
 10
31.070607
 20
-30.781624
 30
0.0
 10
30.666090
 20
-31.482238
 30
0.0
 10
30.261567
 20
-32.182853
 30
0.0
  0
LWPOLYLINE
  5
405
100
AcDbEntity
  8
Layer_1
 62
7
100
AcDbPolyline
 90
2
 70
0
 10
31.132830
 20
-28.850274
 30
0.0
 10
31.048191
 20
-28.853452
 30
0.0
  0
SPLINE
  5
406
100
AcDbEntity
  8
Layer_1
 62
7
100
AcDbSpline
 70
8
 71
3
 72
8
 73
4
 74
0
 40
0
 40
0
 40
0
 40
0
 40
1
 40
1
 40
1
 40
1
 10
28.908814
 20
-32.591099
 30
0.0
 10
27.639626
 20
-33.628314
 30
0.0
 10
26.197913
 20
-34.455370
 30
0.0
 10
24.658968
 20
-35.020654
 30
0.0
  0
SPLINE
  5
407
100
AcDbEntity
  8
Layer_1
 62
7
100
AcDbSpline
 70
8
 71
3
 72
8
 73
4
 74
0
 40
0
 40
0
 40
0
 40
0
 40
1
 40
1
 40
1
 40
1
 10
24.658968
 20
-35.020654
 30
0.0
 10
25.654371
 20
-35.018970
 30
0.0
 10
26.649772
 20
-35.017455
 30
0.0
 10
27.645175
 20
-35.015977
 30
0.0
  0
SPLINE
  5
408
100
AcDbEntity
  8
Layer_1
 62
7
100
AcDbSpline
 70
8
 71
3
 72
8
 73
4
 74
0
 40
0
 40
0
 40
0
 40
0
 40
1
 40
1
 40
1
 40
1
 10
27.645175
 20
-35.015977
 30
0.0
 10
28.156300
 20
-34.130825
 30
0.0
 10
28.667426
 20
-33.245674
 30
0.0
 10
29.178554
 20
-32.360524
 30
0.0
  0
SPLINE
  5
409
100
AcDbEntity
  8
Layer_1
 62
7
100
AcDbSpline
 70
8
 71
3
 72
8
 73
4
 74
0
 40
0
 40
0
 40
0
 40
0
 40
1
 40
1
 40
1
 40
1
 10
29.178554
 20
-32.360524
 30
0.0
 10
29.088644
 20
-32.437387
 30
0.0
 10
28.998724
 20
-32.514250
 30
0.0
 10
28.908814
 20
-32.591114
 30
0.0
  0
LWPOLYLINE
  5
40a
100
AcDbEntity
  8
Layer_1
 62
7
100
AcDbPolyline
 90
1
 70
1
 10
30.261567
 20
-32.182853
 30
0.0
  0
SPLINE
  5
40b
100
AcDbEntity
  8
Layer_1
 62
7
100
AcDbSpline
 70
8
 71
3
 72
8
 73
4
 74
0
 40
0
 40
0
 40
0
 40
0
 40
1
 40
1
 40
1
 40
1
 10
28.627320
 20
-35.866624
 30
0.0
 10
29.576591
 20
-37.510511
 30
0.0
 10
30.525863
 20
-39.154400
 30
0.0
 10
31.475130
 20
-40.798287
 30
0.0
  0
SPLINE
  5
40c
100
AcDbEntity
  8
Layer_1
 62
7
100
AcDbSpline
 70
8
 71
3
 72
8
 73
4
 74
0
 40
0
 40
0
 40
0
 40
0
 40
1
 40
1
 40
1
 40
1
 10
31.475130
 20
-40.798287
 30
0.0
 10
31.475130
 20
-39.153360
 30
0.0
 10
31.475130
 20
-37.508429
 30
0.0
 10
31.475130
 20
-35.863496
 30
0.0
  0
SPLINE
  5
40d
100
AcDbEntity
  8
Layer_1
 62
7
100
AcDbSpline
 70
8
 71
3
 72
8
 73
4
 74
0
 40
0
 40
0
 40
0
 40
0
 40
1
 40
1
 40
1
 40
1
 10
31.475130
 20
-35.863496
 30
0.0
 10
30.525863
 20
-35.864806
 30
0.0
 10
29.576591
 20
-35.865442
 30
0.0
 10
28.627320
 20
-35.866695
 30
0.0
  0
LWPOLYLINE
  5
40e
100
AcDbEntity
  8
Layer_1
 62
7
100
AcDbPolyline
 90
1
 70
1
 10
28.908814
 20
-32.591114
 30
0.0
  0
SPLINE
  5
40f
100
AcDbEntity
  8
Layer_1
 62
7
100
AcDbSpline
 70
8
 71
3
 72
8
 73
4
 74
0
 40
0
 40
0
 40
0
 40
0
 40
1
 40
1
 40
1
 40
1
 10
24.580022
 20
-35.868121
 30
0.0
 10
26.279455
 20
-36.478832
 30
0.0
 10
27.862469
 20
-37.410155
 30
0.0
 10
29.225571
 20
-38.594064
 30
0.0
  0
SPLINE
  5
410
100
AcDbEntity
  8
Layer_1
 62
7
100
AcDbSpline
 70
8
 71
3
 72
8
 73
4
 74
0
 40
0
 40
0
 40
0
 40
0
 40
1
 40
1
 40
1
 40
1
 10
29.225571
 20
-38.594064
 30
0.0
 10
28.700887
 20
-37.684936
 30
0.0
 10
28.176212
 20
-36.775807
 30
0.0
 10
27.651532
 20
-35.866676
 30
0.0
  0
SPLINE
  5
411
100
AcDbEntity
  8
Layer_1
 62
7
100
AcDbSpline
 70
8
 71
3
 72
8
 73
4
 74
0
 40
0
 40
0
 40
0
 40
0
 40
1
 40
1
 40
1
 40
1
 10
27.651532
 20
-35.866676
 30
0.0
 10
26.627697
 20
-35.867051
 30
0.0
 10
25.603860
 20
-35.867612
 30
0.0
 10
24.580022
 20
-35.868173
 30
0.0
  0
LWPOLYLINE
  5
412
100
AcDbEntity
  8
Layer_1
 62
7
100
AcDbPolyline
 90
1
 70
1
 10
28.627320
 20
-35.866695
 30
0.0
  0
SPLINE
  5
413
100
AcDbEntity
  8
Layer_1
 62
7
100
AcDbSpline
 70
8
 71
3
 72
8
 73
4
 74
0
 40
0
 40
0
 40
0
 40
0
 40
1
 40
1
 40
1
 40
1
 10
20.514746
 20
-35.995576
 30
0.0
 10
22.782620
 20
-39.548117
 30
0.0
 10
27.052155
 20
-41.921059
 30
0.0
 10
31.116668
 20
-42.036142
 30
0.0
  0
SPLINE
  5
414
100
AcDbEntity
  8
Layer_1
 62
7
100
AcDbSpline
 70
8
 71
3
 72
8
 73
4
 74
0
 40
0
 40
0
 40
0
 40
0
 40
1
 40
1
 40
1
 40
1
 10
31.116668
 20
-42.036142
 30
0.0
 10
28.788393
 20
-38.455137
 30
0.0
 10
24.706542
 20
-36.085503
 30
0.0
 10
20.449561
 20
-35.890780
 30
0.0
  0
LWPOLYLINE
  5
415
100
AcDbEntity
  8
Layer_1
 62
7
100
AcDbPolyline
 90
1
 70
1
 10
24.580022
 20
-35.868173
 30
0.0
  0
SPLINE
  5
416
100
AcDbEntity
  8
Layer_1
 62
7
100
AcDbSpline
 70
8
 71
3
 72
8
 73
4
 74
0
 40
0
 40
0
 40
0
 40
0
 40
1
 40
1
 40
1
 40
1
 10
24.018594
 20
-42.036807
 30
0.0
 10
24.900698
 20
-42.022308
 30
0.0
 10
26.119407
 20
-42.065192
 30
0.0
 10
26.800644
 20
-42.016473
 30
0.0
  0
SPLINE
  5
417
100
AcDbEntity
  8
Layer_1
 62
7
100
AcDbSpline
 70
8
 71
3
 72
8
 73
4
 74
0
 40
0
 40
0
 40
0
 40
0
 40
1
 40
1
 40
1
 40
1
 10
26.800644
 20
-42.016473
 30
0.0
 10
25.279663
 20
-41.443126
 30
0.0
 10
23.851357
 20
-40.620582
 30
0.0
 10
22.600153
 20
-39.582225
 30
0.0
  0
SPLINE
  5
418
100
AcDbEntity
  8
Layer_1
 62
7
100
AcDbSpline
 70
8
 71
3
 72
8
 73
4
 74
0
 40
0
 40
0
 40
0
 40
0
 40
1
 40
1
 40
1
 40
1
 10
22.600153
 20
-39.582225
 30
0.0
 10
23.072967
 20
-40.400424
 30
0.0
 10
23.545780
 20
-41.218620
 30
0.0
 10
24.018594
 20
-42.036821
 30
0.0
  0
LWPOLYLINE
  5
419
100
AcDbEntity
  8
Layer_1
 62
7
100
AcDbPolyline
 90
2
 70
0
 10
20.449561
 20
-35.890780
 30
0.0
 10
20.514746
 20
-35.995576
 30
0.0
  0
SPLINE
  5
41a
100
AcDbEntity
  8
Layer_1
 62
7
100
AcDbSpline
 70
8
 71
3
 72
8
 73
4
 74
0
 40
0
 40
0
 40
0
 40
0
 40
1
 40
1
 40
1
 40
1
 10
25.878815
 20
-42.886767
 30
0.0
 10
24.563857
 20
-42.655666
 30
0.0
 10
24.356102
 20
-43.064640
 30
0.0
 10
25.199385
 20
-44.081222
 30
0.0
  0
SPLINE
  5
41b
100
AcDbEntity
  8
Layer_1
 62
7
100
AcDbSpline
 70
8
 71
3
 72
8
 73
4
 74
0
 40
0
 40
0
 40
0
 40
0
 40
1
 40
1
 40
1
 40
1
 10
25.199385
 20
-44.081222
 30
0.0
 10
25.603867
 20
-45.223482
 30
0.0
 10
26.201499
 20
-45.644944
 30
0.0
 10
27.160859
 20
-44.716461
 30
0.0
  0
SPLINE
  5
41c
100
AcDbEntity
  8
Layer_1
 62
7
100
AcDbSpline
 70
8
 71
3
 72
8
 73
4
 74
0
 40
0
 40
0
 40
0
 40
0
 40
1
 40
1
 40
1
 40
1
 10
27.160859
 20
-44.716461
 30
0.0
 10
28.213709
 20
-44.108648
 30
0.0
 10
29.266560
 20
-43.500837
 30
0.0
 10
30.319410
 20
-42.893025
 30
0.0
  0
SPLINE
  5
41d
100
AcDbEntity
  8
Layer_1
 62
7
100
AcDbSpline
 70
8
 71
3
 72
8
 73
4
 74
0
 40
0
 40
0
 40
0
 40
0
 40
1
 40
1
 40
1
 40
1
 10
30.319410
 20
-42.893025
 30
0.0
 10
28.839294
 20
-42.875009
 30
0.0
 10
27.358993
 20
-42.882174
 30
0.0
 10
25.878815
 20
-42.886776
 30
0.0
  0
LWPOLYLINE
  5
41e
100
AcDbEntity
  8
Layer_1
 62
7
100
AcDbPolyline
 90
1
 70
1
 10
24.018594
 20
-42.036821
 30
0.0
  0
SPLINE
  5
41f
100
AcDbEntity
  8
Layer_1
 62
7
100
AcDbSpline
 70
8
 71
3
 72
8
 73
4
 74
0
 40
0
 40
0
 40
0
 40
0
 40
1
 40
1
 40
1
 40
1
 10
21.824485
 20
-40.142960
 30
0.0
 10
22.083036
 20
-41.769706
 30
0.0
 10
22.073495
 20
-43.439902
 30
0.0
 10
21.783822
 20
-45.061904
 30
0.0
  0
SPLINE
  5
420
100
AcDbEntity
  8
Layer_1
 62
7
100
AcDbSpline
 70
8
 71
3
 72
8
 73
4
 74
0
 40
0
 40
0
 40
0
 40
0
 40
1
 40
1
 40
1
 40
1
 10
21.783822
 20
-45.061904
 30
0.0
 10
22.284260
 20
-44.195260
 30
0.0
 10
22.784699
 20
-43.328618
 30
0.0
 10
23.285135
 20
-42.461976
 30
0.0
  0
SPLINE
  5
421
100
AcDbEntity
  8
Layer_1
 62
7
100
AcDbSpline
 70
8
 71
3
 72
8
 73
4
 74
0
 40
0
 40
0
 40
0
 40
0
 40
1
 40
1
 40
1
 40
1
 10
23.285135
 20
-42.461976
 30
0.0
 10
22.772488
 20
-41.589792
 30
0.0
 10
22.273195
 20
-40.710597
 30
0.0
 10
21.768943
 20
-39.833091
 30
0.0
  0
SPLINE
  5
422
100
AcDbEntity
  8
Layer_1
 62
7
100
AcDbSpline
 70
8
 71
3
 72
8
 73
4
 74
0
 40
0
 40
0
 40
0
 40
0
 40
1
 40
1
 40
1
 40
1
 10
21.768943
 20
-39.833091
 30
0.0
 10
21.787445
 20
-39.936381
 30
0.0
 10
21.805978
 20
-40.039670
 30
0.0
 10
21.824485
 20
-40.142960
 30
0.0
  0
LWPOLYLINE
  5
423
100
AcDbEntity
  8
Layer_1
 62
7
100
AcDbPolyline
 90
1
 70
1
 10
25.878815
 20
-42.886776
 30
0.0
  0
SPLINE
  5
424
100
AcDbEntity
  8
Layer_1
 62
7
100
AcDbSpline
 70
8
 71
3
 72
8
 73
4
 74
0
 40
0
 40
0
 40
0
 40
0
 40
1
 40
1
 40
1
 40
1
 10
22.109891
 20
-46.188874
 30
0.0
 10
21.815274
 20
-46.807515
 30
0.0
 10
20.943129
 20
-48.002406
 30
0.0
 10
20.999515
 20
-48.273452
 30
0.0
  0
SPLINE
  5
425
100
AcDbEntity
  8
Layer_1
 62
7
100
AcDbSpline
 70
8
 71
3
 72
8
 73
4
 74
0
 40
0
 40
0
 40
0
 40
0
 40
1
 40
1
 40
1
 40
1
 10
20.999515
 20
-48.273452
 30
0.0
 10
22.410135
 20
-47.459228
 30
0.0
 10
23.820754
 20
-46.644997
 30
0.0
 10
25.231372
 20
-45.830769
 30
0.0
  0
SPLINE
  5
426
100
AcDbEntity
  8
Layer_1
 62
7
100
AcDbSpline
 70
8
 71
3
 72
8
 73
4
 74
0
 40
0
 40
0
 40
0
 40
0
 40
1
 40
1
 40
1
 40
1
 10
25.231372
 20
-45.830769
 30
0.0
 10
24.745791
 20
-44.989927
 30
0.0
 10
24.260211
 20
-44.149087
 30
0.0
 10
23.774628
 20
-43.308250
 30
0.0
  0
SPLINE
  5
427
100
AcDbEntity
  8
Layer_1
 62
7
100
AcDbSpline
 70
8
 71
3
 72
8
 73
4
 74
0
 40
0
 40
0
 40
0
 40
0
 40
1
 40
1
 40
1
 40
1
 10
23.774628
 20
-43.308250
 30
0.0
 10
23.219716
 20
-44.268455
 30
0.0
 10
22.664805
 20
-45.228664
 30
0.0
 10
22.109891
 20
-46.188874
 30
0.0
  0
LWPOLYLINE
  5
428
100
AcDbEntity
  8
Layer_1
 62
7
100
AcDbPolyline
 90
1
 70
1
 10
21.824485
 20
-40.142960
 30
0.0
  0
SPLINE
  5
429
100
AcDbEntity
  8
Layer_1
 62
7
100
AcDbSpline
 70
8
 71
3
 72
8
 73
4
 74
0
 40
0
 40
0
 40
0
 40
0
 40
1
 40
1
 40
1
 40
1
 10
19.577205
 20
-36.571097
 30
0.0
 10
17.703042
 20
-40.304877
 30
0.0
 10
17.787080
 20
-44.975930
 30
0.0
 10
19.690620
 20
-48.670780
 30
0.0
  0
SPLINE
  5
42a
100
AcDbEntity
  8
Layer_1
 62
7
100
AcDbSpline
 70
8
 71
3
 72
8
 73
4
 74
0
 40
0
 40
0
 40
0
 40
0
 40
1
 40
1
 40
1
 40
1
 10
19.690620
 20
-48.670780
 30
0.0
 10
21.636884
 20
-44.877831
 30
0.0
 10
21.671627
 20
-40.125455
 30
0.0
 10
19.693024
 20
-36.347433
 30
0.0
  0
LWPOLYLINE
  5
42b
100
AcDbEntity
  8
Layer_1
 62
7
100
AcDbPolyline
 90
1
 70
1
 10
22.109891
 20
-46.188874
 30
0.0
  0
SPLINE
  5
42c
100
AcDbEntity
  8
Layer_1
 62
7
100
AcDbSpline
 70
8
 71
3
 72
8
 73
4
 74
0
 40
0
 40
0
 40
0
 40
0
 40
1
 40
1
 40
1
 40
1
 10
16.109325
 20
-42.514588
 30
0.0
 10
16.587500
 20
-43.313195
 30
0.0
 10
17.187099
 20
-44.438678
 30
0.0
 10
17.592653
 20
-45.041793
 30
0.0
  0
SPLINE
  5
42d
100
AcDbEntity
  8
Layer_1
 62
7
100
AcDbSpline
 70
8
 71
3
 72
8
 73
4
 74
0
 40
0
 40
0
 40
0
 40
0
 40
1
 40
1
 40
1
 40
1
 10
17.592653
 20
-45.041793
 30
0.0
 10
17.298312
 20
-43.363920
 30
0.0
 10
17.292071
 20
-41.634261
 30
0.0
 10
17.588650
 20
-39.956262
 30
0.0
  0
SPLINE
  5
42e
100
AcDbEntity
  8
Layer_1
 62
7
100
AcDbSpline
 70
8
 71
3
 72
8
 73
4
 74
0
 40
0
 40
0
 40
0
 40
0
 40
1
 40
1
 40
1
 40
1
 10
17.588650
 20
-39.956262
 30
0.0
 10
17.095509
 20
-40.809038
 30
0.0
 10
16.602372
 20
-41.661812
 30
0.0
 10
16.109234
 20
-42.514588
 30
0.0
  0
LWPOLYLINE
  5
42f
100
AcDbEntity
  8
Layer_1
 62
7
100
AcDbPolyline
 90
3
 70
0
 10
19.693024
 20
-36.347433
 30
0.0
 10
19.622546
 20
-36.483742
 30
0.0
 10
19.577205
 20
-36.571097
 30
0.0
  0
SPLINE
  5
430
100
AcDbEntity
  8
Layer_1
 62
7
100
AcDbSpline
 70
8
 71
3
 72
8
 73
4
 74
0
 40
0
 40
0
 40
0
 40
0
 40
1
 40
1
 40
1
 40
1
 10
14.196711
 20
-45.822166
 30
0.0
 10
15.619051
 20
-46.643458
 30
0.0
 10
17.041391
 20
-47.464750
 30
0.0
 10
18.463729
 20
-48.286041
 30
0.0
  0
SPLINE
  5
431
100
AcDbEntity
  8
Layer_1
 62
7
100
AcDbSpline
 70
8
 71
3
 72
8
 73
4
 74
0
 40
0
 40
0
 40
0
 40
0
 40
1
 40
1
 40
1
 40
1
 10
18.463729
 20
-48.286041
 30
0.0
 10
17.515764
 20
-46.644238
 30
0.0
 10
16.567802
 20
-45.002437
 30
0.0
 10
15.619837
 20
-43.360640
 30
0.0
  0
SPLINE
  5
432
100
AcDbEntity
  8
Layer_1
 62
7
100
AcDbSpline
 70
8
 71
3
 72
8
 73
4
 74
0
 40
0
 40
0
 40
0
 40
0
 40
1
 40
1
 40
1
 40
1
 10
15.619837
 20
-43.360640
 30
0.0
 10
15.145460
 20
-44.181145
 30
0.0
 10
14.671087
 20
-45.001655
 30
0.0
 10
14.196711
 20
-45.822166
 30
0.0
  0
LWPOLYLINE
  5
433
100
AcDbEntity
  8
Layer_1
 62
7
100
AcDbPolyline
 90
1
 70
1
 10
16.109234
 20
-42.514588
 30
0.0
  0
SPLINE
  5
434
100
AcDbEntity
  8
Layer_1
 62
7
100
AcDbSpline
 70
8
 71
3
 72
8
 73
4
 74
0
 40
0
 40
0
 40
0
 40
0
 40
1
 40
1
 40
1
 40
1
 10
16.626186
 20
-39.707443
 30
0.0
 10
15.352517
 20
-40.729415
 30
0.0
 10
13.908487
 20
-41.538069
 30
0.0
 10
12.371677
 20
-42.090135
 30
0.0
  0
SPLINE
  5
435
100
AcDbEntity
  8
Layer_1
 62
7
100
AcDbSpline
 70
8
 71
3
 72
8
 73
4
 74
0
 40
0
 40
0
 40
0
 40
0
 40
1
 40
1
 40
1
 40
1
 10
12.371677
 20
-42.090135
 30
0.0
 10
13.372818
 20
-42.089948
 30
0.0
 10
14.373955
 20
-42.089761
 30
0.0
 10
15.375092
 20
-42.089200
 30
0.0
  0
SPLINE
  5
436
100
AcDbEntity
  8
Layer_1
 62
7
100
AcDbSpline
 70
8
 71
3
 72
8
 73
4
 74
0
 40
0
 40
0
 40
0
 40
0
 40
1
 40
1
 40
1
 40
1
 10
15.375092
 20
-42.089200
 30
0.0
 10
15.873707
 20
-41.227508
 30
0.0
 10
16.372323
 20
-40.365820
 30
0.0
 10
16.870938
 20
-39.504126
 30
0.0
  0
SPLINE
  5
437
100
AcDbEntity
  8
Layer_1
 62
7
100
AcDbSpline
 70
8
 71
3
 72
8
 73
4
 74
0
 40
0
 40
0
 40
0
 40
0
 40
1
 40
1
 40
1
 40
1
 10
16.870938
 20
-39.504126
 30
0.0
 10
16.789352
 20
-39.571852
 30
0.0
 10
16.707769
 20
-39.639582
 30
0.0
 10
16.626186
 20
-39.707308
 30
0.0
  0
LWPOLYLINE
  5
438
100
AcDbEntity
  8
Layer_1
 62
7
100
AcDbPolyline
 90
1
 70
1
 10
14.196711
 20
-45.822166
 30
0.0
  0
SPLINE
  5
439
100
AcDbEntity
  8
Layer_1
 62
7
100
AcDbSpline
 70
8
 71
3
 72
8
 73
4
 74
0
 40
0
 40
0
 40
0
 40
0
 40
1
 40
1
 40
1
 40
1
 10
13.461692
 20
-45.398355
 30
0.0
 10
13.936067
 20
-44.577848
 30
0.0
 10
14.410439
 20
-43.757338
 30
0.0
 10
14.884814
 20
-42.936829
 30
0.0
  0
SPLINE
  5
43a
100
AcDbEntity
  8
Layer_1
 62
7
100
AcDbSpline
 70
8
 71
3
 72
8
 73
4
 74
0
 40
0
 40
0
 40
0
 40
0
 40
1
 40
1
 40
1
 40
1
 10
14.884814
 20
-42.936829
 30
0.0
 10
12.989399
 20
-42.936829
 30
0.0
 10
11.093990
 20
-42.936829
 30
0.0
 10
9.198578
 20
-42.936829
 30
0.0
  0
SPLINE
  5
43b
100
AcDbEntity
  8
Layer_1
 62
7
100
AcDbSpline
 70
8
 71
3
 72
8
 73
4
 74
0
 40
0
 40
0
 40
0
 40
0
 40
1
 40
1
 40
1
 40
1
 10
9.198578
 20
-42.936829
 30
0.0
 10
10.619614
 20
-43.757338
 30
0.0
 10
12.040652
 20
-44.577844
 30
0.0
 10
13.461692
 20
-45.398355
 30
0.0
  0
LWPOLYLINE
  5
43c
100
AcDbEntity
  8
Layer_1
 62
7
100
AcDbPolyline
 90
2
 70
0
 10
16.626186
 20
-39.707308
 30
0.0
 10
16.626186
 20
-39.707443
 30
0.0
  0
SPLINE
  5
43d
100
AcDbEntity
  8
Layer_1
 62
7
100
AcDbSpline
 70
8
 71
3
 72
8
 73
4
 74
0
 40
0
 40
0
 40
0
 40
0
 40
1
 40
1
 40
1
 40
1
 10
18.505174
 20
-35.926785
 30
0.0
 10
14.366088
 20
-36.238116
 30
0.0
 10
10.495835
 20
-38.597718
 30
0.0
 10
8.242998
 20
-42.064371
 30
0.0
  0
SPLINE
  5
43e
100
AcDbEntity
  8
Layer_1
 62
7
100
AcDbSpline
 70
8
 71
3
 72
8
 73
4
 74
0
 40
0
 40
0
 40
0
 40
0
 40
1
 40
1
 40
1
 40
1
 10
8.242998
 20
-42.064371
 30
0.0
 10
12.469492
 20
-41.868961
 30
0.0
 10
16.673992
 20
-39.494667
 30
0.0
 10
18.909504
 20
-35.904072
 30
0.0
  0
SPLINE
  5
43f
100
AcDbEntity
  8
Layer_1
 62
7
100
AcDbSpline
 70
8
 71
3
 72
8
 73
4
 74
0
 40
0
 40
0
 40
0
 40
0
 40
1
 40
1
 40
1
 40
1
 10
18.909504
 20
-35.904072
 30
0.0
 10
18.774726
 20
-35.911648
 30
0.0
 10
18.639948
 20
-35.919206
 30
0.0
 10
18.505174
 20
-35.926772
 30
0.0
  0
LWPOLYLINE
  5
440
100
AcDbEntity
  8
Layer_1
 62
7
100
AcDbPolyline
 90
1
 70
1
 10
13.461692
 20
-45.398355
 30
0.0
  0
SPLINE
  5
441
100
AcDbEntity
  8
Layer_1
 62
7
100
AcDbSpline
 70
8
 71
3
 72
8
 73
4
 74
0
 40
0
 40
0
 40
0
 40
0
 40
1
 40
1
 40
1
 40
1
 10
7.967816
 20
-35.033815
 30
0.0
 10
8.916043
 20
-35.032506
 30
0.0
 10
9.864265
 20
-35.031795
 30
0.0
 10
10.812492
 20
-35.030616
 30
0.0
  0
SPLINE
  5
442
100
AcDbEntity
  8
Layer_1
 62
7
100
AcDbSpline
 70
8
 71
3
 72
8
 73
4
 74
0
 40
0
 40
0
 40
0
 40
0
 40
1
 40
1
 40
1
 40
1
 10
10.812492
 20
-35.030616
 30
0.0
 10
9.878687
 20
-33.375037
 30
0.0
 10
8.921762
 20
-31.732791
 30
0.0
 10
7.967816
 20
-30.088747
 30
0.0
  0
SPLINE
  5
443
100
AcDbEntity
  8
Layer_1
 62
7
100
AcDbSpline
 70
8
 71
3
 72
8
 73
4
 74
0
 40
0
 40
0
 40
0
 40
0
 40
1
 40
1
 40
1
 40
1
 10
7.967816
 20
-30.088747
 30
0.0
 10
7.967816
 20
-31.737079
 30
0.0
 10
7.967816
 20
-33.385407
 30
0.0
 10
7.967816
 20
-35.033738
 30
0.0
  0
LWPOLYLINE
  5
444
100
AcDbEntity
  8
Layer_1
 62
7
100
AcDbPolyline
 90
1
 70
1
 10
18.505174
 20
-35.926772
 30
0.0
  0
SPLINE
  5
445
100
AcDbEntity
  8
Layer_1
 62
7
100
AcDbSpline
 70
8
 71
3
 72
8
 73
4
 74
0
 40
0
 40
0
 40
0
 40
0
 40
1
 40
1
 40
1
 40
1
 10
11.786786
 20
-35.878301
 30
0.0
 10
11.332535
 20
-36.694156
 30
0.0
 10
10.652688
 20
-37.783896
 30
0.0
 10
10.333950
 20
-38.435230
 30
0.0
  0
SPLINE
  5
446
100
AcDbEntity
  8
Layer_1
 62
7
100
AcDbSpline
 70
8
 71
3
 72
8
 73
4
 74
0
 40
0
 40
0
 40
0
 40
0
 40
1
 40
1
 40
1
 40
1
 10
10.333950
 20
-38.435230
 30
0.0
 10
11.649361
 20
-37.330900
 30
0.0
 10
13.160335
 20
-36.459175
 30
0.0
 10
14.776155
 20
-35.875864
 30
0.0
  0
SPLINE
  5
447
100
AcDbEntity
  8
Layer_1
 62
7
100
AcDbSpline
 70
8
 71
3
 72
8
 73
4
 74
0
 40
0
 40
0
 40
0
 40
0
 40
1
 40
1
 40
1
 40
1
 10
14.776155
 20
-35.875864
 30
0.0
 10
13.779700
 20
-35.876799
 30
0.0
 10
12.783242
 20
-35.877360
 30
0.0
 10
11.786786
 20
-35.878258
 30
0.0
  0
LWPOLYLINE
  5
448
100
AcDbEntity
  8
Layer_1
 62
7
100
AcDbPolyline
 90
1
 70
1
 10
7.967816
 20
-35.033738
 30
0.0
  0
SPLINE
  5
449
100
AcDbEntity
  8
Layer_1
 62
7
100
AcDbSpline
 70
8
 71
3
 72
8
 73
4
 74
0
 40
0
 40
0
 40
0
 40
0
 40
1
 40
1
 40
1
 40
1
 10
10.940731
 20
-33.536408
 30
0.0
 10
11.411928
 20
-34.148456
 30
0.0
 10
11.531076
 20
-35.367815
 30
0.0
 10
12.555615
 20
-35.030092
 30
0.0
  0
SPLINE
  5
44a
100
AcDbEntity
  8
Layer_1
 62
7
100
AcDbSpline
 70
8
 71
3
 72
8
 73
4
 74
0
 40
0
 40
0
 40
0
 40
0
 40
1
 40
1
 40
1
 40
1
 10
12.555615
 20
-35.030092
 30
0.0
 10
12.997607
 20
-34.960626
 30
0.0
 10
14.908841
 20
-35.161463
 30
0.0
 10
14.506665
 20
-34.938515
 30
0.0
  0
SPLINE
  5
44b
100
AcDbEntity
  8
Layer_1
 62
7
100
AcDbSpline
 70
8
 71
3
 72
8
 73
4
 74
0
 40
0
 40
0
 40
0
 40
0
 40
1
 40
1
 40
1
 40
1
 10
14.506665
 20
-34.938515
 30
0.0
 10
12.987998
 20
-34.356334
 30
0.0
 10
11.569495
 20
-33.515125
 30
0.0
 10
10.325365
 20
-32.468219
 30
0.0
  0
SPLINE
  5
44c
100
AcDbEntity
  8
Layer_1
 62
7
100
AcDbSpline
 70
8
 71
3
 72
8
 73
4
 74
0
 40
0
 40
0
 40
0
 40
0
 40
1
 40
1
 40
1
 40
1
 10
10.325365
 20
-32.468219
 30
0.0
 10
10.530489
 20
-32.824283
 30
0.0
 10
10.735609
 20
-33.180347
 30
0.0
 10
10.940731
 20
-33.536408
 30
0.0
  0
LWPOLYLINE
  5
44d
100
AcDbEntity
  8
Layer_1
 62
7
100
AcDbPolyline
 90
1
 70
1
 10
11.786786
 20
-35.878258
 30
0.0
  0
SPLINE
  5
44e
100
AcDbEntity
  8
Layer_1
 62
7
100
AcDbSpline
 70
8
 71
3
 72
8
 73
4
 74
0
 40
0
 40
0
 40
0
 40
0
 40
1
 40
1
 40
1
 40
1
 10
7.967816
 20
-35.881433
 30
0.0
 10
7.967816
 20
-37.519845
 30
0.0
 10
7.967816
 20
-39.158261
 30
0.0
 10
7.967816
 20
-40.796674
 30
0.0
  0
SPLINE
  5
44f
100
AcDbEntity
  8
Layer_1
 62
7
100
AcDbSpline
 70
8
 71
3
 72
8
 73
4
 74
0
 40
0
 40
0
 40
0
 40
0
 40
1
 40
1
 40
1
 40
1
 10
7.967816
 20
-40.796674
 30
0.0
 10
8.913955
 20
-39.157221
 30
0.0
 10
9.860099
 20
-37.517764
 30
0.0
 10
10.806238
 20
-35.878301
 30
0.0
  0
SPLINE
  5
450
100
AcDbEntity
  8
Layer_1
 62
7
100
AcDbSpline
 70
8
 71
3
 72
8
 73
4
 74
0
 40
0
 40
0
 40
0
 40
0
 40
1
 40
1
 40
1
 40
1
 10
10.806238
 20
-35.878301
 30
0.0
 10
9.860099
 20
-35.879611
 30
0.0
 10
8.913955
 20
-35.880247
 30
0.0
 10
7.967816
 20
-35.881501
 30
0.0
  0
LWPOLYLINE
  5
451
100
AcDbEntity
  8
Layer_1
 62
7
100
AcDbPolyline
 90
1
 70
1
 10
10.940731
 20
-33.536408
 30
0.0
  0
SPLINE
  5
452
100
AcDbEntity
  8
Layer_1
 62
1
100
AcDbSpline
 70
8
 71
3
 72
8
 73
4
 74
0
 40
0
 40
0
 40
0
 40
0
 40
1
 40
1
 40
1
 40
1
 10
33.592025
 20
-29.618790
 30
0.0
 10
34.038807
 20
-30.680411
 30
0.0
 10
34.091872
 20
-40.070036
 30
0.0
 10
33.657115
 20
-41.136636
 30
0.0
  0
SPLINE
  5
453
100
AcDbEntity
  8
Layer_1
 62
1
100
AcDbSpline
 70
8
 71
3
 72
8
 73
4
 74
0
 40
0
 40
0
 40
0
 40
0
 40
1
 40
1
 40
1
 40
1
 10
33.657115
 20
-41.136636
 30
0.0
 10
33.222360
 20
-42.203238
 30
0.0
 10
26.620413
 20
-48.880226
 30
0.0
 10
25.558793
 20
-49.327009
 30
0.0
  0
SPLINE
  5
454
100
AcDbEntity
  8
Layer_1
 62
1
100
AcDbSpline
 70
8
 71
3
 72
8
 73
4
 74
0
 40
0
 40
0
 40
0
 40
0
 40
1
 40
1
 40
1
 40
1
 10
25.558793
 20
-49.327009
 30
0.0
 10
24.497173
 20
-49.773791
 30
0.0
 10
15.107547
 20
-49.826856
 30
0.0
 10
14.040945
 20
-49.392099
 30
0.0
  0
SPLINE
  5
455
100
AcDbEntity
  8
Layer_1
 62
1
100
AcDbSpline
 70
8
 71
3
 72
8
 73
4
 74
0
 40
0
 40
0
 40
0
 40
0
 40
1
 40
1
 40
1
 40
1
 10
14.040945
 20
-49.392099
 30
0.0
 10
12.974343
 20
-48.957344
 30
0.0
 10
6.297355
 20
-42.355397
 30
0.0
 10
5.850572
 20
-41.293777
 30
0.0
  0
SPLINE
  5
456
100
AcDbEntity
  8
Layer_1
 62
1
100
AcDbSpline
 70
8
 71
3
 72
8
 73
4
 74
0
 40
0
 40
0
 40
0
 40
0
 40
1
 40
1
 40
1
 40
1
 10
5.850572
 20
-41.293777
 30
0.0
 10
5.403790
 20
-40.232159
 30
0.0
 10
5.350729
 20
-30.842533
 30
0.0
 10
5.785484
 20
-29.775931
 30
0.0
  0
SPLINE
  5
457
100
AcDbEntity
  8
Layer_1
 62
1
100
AcDbSpline
 70
8
 71
3
 72
8
 73
4
 74
0
 40
0
 40
0
 40
0
 40
0
 40
1
 40
1
 40
1
 40
1
 10
5.785484
 20
-29.775931
 30
0.0
 10
6.220239
 20
-28.709329
 30
0.0
 10
12.822188
 20
-22.032341
 30
0.0
 10
13.883806
 20
-21.585559
 30
0.0
  0
SPLINE
  5
458
100
AcDbEntity
  8
Layer_1
 62
1
100
AcDbSpline
 70
8
 71
3
 72
8
 73
4
 74
0
 40
0
 40
0
 40
0
 40
0
 40
1
 40
1
 40
1
 40
1
 10
13.883806
 20
-21.585559
 30
0.0
 10
14.945426
 20
-21.138776
 30
0.0
 10
24.335052
 20
-21.085712
 30
0.0
 10
25.401654
 20
-21.520468
 30
0.0
  0
SPLINE
  5
459
100
AcDbEntity
  8
Layer_1
 62
1
100
AcDbSpline
 70
8
 71
3
 72
8
 73
4
 74
0
 40
0
 40
0
 40
0
 40
0
 40
1
 40
1
 40
1
 40
1
 10
25.401654
 20
-21.520468
 30
0.0
 10
26.468254
 20
-21.955224
 30
0.0
 10
33.145243
 20
-28.557171
 30
0.0
 10
33.592025
 20
-29.618790
 30
0.0
  0
LWPOLYLINE
  5
45a
100
AcDbEntity
  8
Layer_1
 62
7
100
AcDbPolyline
 90
1
 70
1
 10
7.967816
 20
-35.881501
 30
0.0
  0
SPLINE
  5
45b
100
AcDbEntity
  8
Layer_1
 62
1
100
AcDbSpline
 70
8
 71
3
 72
8
 73
4
 74
0
 40
0
 40
0
 40
0
 40
0
 40
1
 40
1
 40
1
 40
1
 10
22.859926
 20
-26.143663
 30
0.0
 10
22.859926
 20
-26.295476
 30
0.0
 10
22.736858
 20
-26.418544
 30
0.0
 10
22.585045
 20
-26.418544
 30
0.0
  0
SPLINE
  5
45c
100
AcDbEntity
  8
Layer_1
 62
1
100
AcDbSpline
 70
8
 71
3
 72
8
 73
4
 74
0
 40
0
 40
0
 40
0
 40
0
 40
1
 40
1
 40
1
 40
1
 10
22.585045
 20
-26.418544
 30
0.0
 10
22.433232
 20
-26.418544
 30
0.0
 10
22.310164
 20
-26.295476
 30
0.0
 10
22.310164
 20
-26.143663
 30
0.0
  0
SPLINE
  5
45d
100
AcDbEntity
  8
Layer_1
 62
1
100
AcDbSpline
 70
8
 71
3
 72
8
 73
4
 74
0
 40
0
 40
0
 40
0
 40
0
 40
1
 40
1
 40
1
 40
1
 10
22.310164
 20
-26.143663
 30
0.0
 10
22.310164
 20
-25.991850
 30
0.0
 10
22.433232
 20
-25.868782
 30
0.0
 10
22.585045
 20
-25.868782
 30
0.0
  0
SPLINE
  5
45e
100
AcDbEntity
  8
Layer_1
 62
1
100
AcDbSpline
 70
8
 71
3
 72
8
 73
4
 74
0
 40
0
 40
0
 40
0
 40
0
 40
1
 40
1
 40
1
 40
1
 10
22.585045
 20
-25.868782
 30
0.0
 10
22.736858
 20
-25.868782
 30
0.0
 10
22.859926
 20
-25.991850
 30
0.0
 10
22.859926
 20
-26.143663
 30
0.0
  0
SPLINE
  5
45f
100
AcDbEntity
  8
Layer_1
 62
1
100
AcDbSpline
 70
8
 71
3
 72
8
 73
4
 74
0
 40
0
 40
0
 40
0
 40
0
 40
1
 40
1
 40
1
 40
1
 10
17.132442
 20
-26.143663
 30
0.0
 10
17.132442
 20
-26.295476
 30
0.0
 10
17.009374
 20
-26.418544
 30
0.0
 10
16.857561
 20
-26.418544
 30
0.0
  0
SPLINE
  5
460
100
AcDbEntity
  8
Layer_1
 62
1
100
AcDbSpline
 70
8
 71
3
 72
8
 73
4
 74
0
 40
0
 40
0
 40
0
 40
0
 40
1
 40
1
 40
1
 40
1
 10
16.857561
 20
-26.418544
 30
0.0
 10
16.705749
 20
-26.418544
 30
0.0
 10
16.582681
 20
-26.295476
 30
0.0
 10
16.582681
 20
-26.143663
 30
0.0
  0
SPLINE
  5
461
100
AcDbEntity
  8
Layer_1
 62
1
100
AcDbSpline
 70
8
 71
3
 72
8
 73
4
 74
0
 40
0
 40
0
 40
0
 40
0
 40
1
 40
1
 40
1
 40
1
 10
16.582681
 20
-26.143663
 30
0.0
 10
16.582681
 20
-25.991850
 30
0.0
 10
16.705749
 20
-25.868782
 30
0.0
 10
16.857561
 20
-25.868782
 30
0.0
  0
SPLINE
  5
462
100
AcDbEntity
  8
Layer_1
 62
1
100
AcDbSpline
 70
8
 71
3
 72
8
 73
4
 74
0
 40
0
 40
0
 40
0
 40
0
 40
1
 40
1
 40
1
 40
1
 10
16.857561
 20
-25.868782
 30
0.0
 10
17.009374
 20
-25.868782
 30
0.0
 10
17.132442
 20
-25.991850
 30
0.0
 10
17.132442
 20
-26.143663
 30
0.0
  0
SPLINE
  5
463
100
AcDbEntity
  8
Layer_1
 62
1
100
AcDbSpline
 70
8
 71
3
 72
8
 73
4
 74
0
 40
0
 40
0
 40
0
 40
0
 40
1
 40
1
 40
1
 40
1
 10
22.859924
 20
-40.384986
 30
0.0
 10
22.859924
 20
-40.536798
 30
0.0
 10
22.736856
 20
-40.659867
 30
0.0
 10
22.585043
 20
-40.659867
 30
0.0
  0
SPLINE
  5
464
100
AcDbEntity
  8
Layer_1
 62
1
100
AcDbSpline
 70
8
 71
3
 72
8
 73
4
 74
0
 40
0
 40
0
 40
0
 40
0
 40
1
 40
1
 40
1
 40
1
 10
22.585043
 20
-40.659867
 30
0.0
 10
22.433231
 20
-40.659867
 30
0.0
 10
22.310162
 20
-40.536798
 30
0.0
 10
22.310162
 20
-40.384986
 30
0.0
  0
SPLINE
  5
465
100
AcDbEntity
  8
Layer_1
 62
1
100
AcDbSpline
 70
8
 71
3
 72
8
 73
4
 74
0
 40
0
 40
0
 40
0
 40
0
 40
1
 40
1
 40
1
 40
1
 10
22.310162
 20
-40.384986
 30
0.0
 10
22.310162
 20
-40.233173
 30
0.0
 10
22.433231
 20
-40.110105
 30
0.0
 10
22.585043
 20
-40.110105
 30
0.0
  0
SPLINE
  5
466
100
AcDbEntity
  8
Layer_1
 62
1
100
AcDbSpline
 70
8
 71
3
 72
8
 73
4
 74
0
 40
0
 40
0
 40
0
 40
0
 40
1
 40
1
 40
1
 40
1
 10
22.585043
 20
-40.110105
 30
0.0
 10
22.736856
 20
-40.110105
 30
0.0
 10
22.859924
 20
-40.233173
 30
0.0
 10
22.859924
 20
-40.384986
 30
0.0
  0
SPLINE
  5
467
100
AcDbEntity
  8
Layer_1
 62
1
100
AcDbSpline
 70
8
 71
3
 72
8
 73
4
 74
0
 40
0
 40
0
 40
0
 40
0
 40
1
 40
1
 40
1
 40
1
 10
17.132441
 20
-40.384986
 30
0.0
 10
17.132440
 20
-40.536798
 30
0.0
 10
17.009372
 20
-40.659867
 30
0.0
 10
16.857560
 20
-40.659867
 30
0.0
  0
SPLINE
  5
468
100
AcDbEntity
  8
Layer_1
 62
1
100
AcDbSpline
 70
8
 71
3
 72
8
 73
4
 74
0
 40
0
 40
0
 40
0
 40
0
 40
1
 40
1
 40
1
 40
1
 10
16.857560
 20
-40.659867
 30
0.0
 10
16.705747
 20
-40.659867
 30
0.0
 10
16.582679
 20
-40.536798
 30
0.0
 10
16.582679
 20
-40.384986
 30
0.0
  0
SPLINE
  5
469
100
AcDbEntity
  8
Layer_1
 62
1
100
AcDbSpline
 70
8
 71
3
 72
8
 73
4
 74
0
 40
0
 40
0
 40
0
 40
0
 40
1
 40
1
 40
1
 40
1
 10
16.582679
 20
-40.384986
 30
0.0
 10
16.582679
 20
-40.233173
 30
0.0
 10
16.705747
 20
-40.110105
 30
0.0
 10
16.857560
 20
-40.110105
 30
0.0
  0
SPLINE
  5
46a
100
AcDbEntity
  8
Layer_1
 62
1
100
AcDbSpline
 70
8
 71
3
 72
8
 73
4
 74
0
 40
0
 40
0
 40
0
 40
0
 40
1
 40
1
 40
1
 40
1
 10
16.857560
 20
-40.110105
 30
0.0
 10
17.009372
 20
-40.110105
 30
0.0
 10
17.132440
 20
-40.233173
 30
0.0
 10
17.132441
 20
-40.384986
 30
0.0
  0
SPLINE
  5
46b
100
AcDbEntity
  8
Layer_1
 62
1
100
AcDbSpline
 70
8
 71
3
 72
8
 73
4
 74
0
 40
0
 40
0
 40
0
 40
0
 40
1
 40
1
 40
1
 40
1
 10
26.850120
 20
-30.139746
 30
0.0
 10
26.923023
 20
-30.139746
 30
0.0
 10
26.992940
 20
-30.168707
 30
0.0
 10
27.044491
 20
-30.220258
 30
0.0
  0
SPLINE
  5
46c
100
AcDbEntity
  8
Layer_1
 62
1
100
AcDbSpline
 70
8
 71
3
 72
8
 73
4
 74
0
 40
0
 40
0
 40
0
 40
0
 40
1
 40
1
 40
1
 40
1
 10
27.044491
 20
-30.220258
 30
0.0
 10
27.096041
 20
-30.271808
 30
0.0
 10
27.125001
 20
-30.341726
 30
0.0
 10
27.125001
 20
-30.414629
 30
0.0
  0
SPLINE
  5
46d
100
AcDbEntity
  8
Layer_1
 62
1
100
AcDbSpline
 70
8
 71
3
 72
8
 73
4
 74
0
 40
0
 40
0
 40
0
 40
0
 40
1
 40
1
 40
1
 40
1
 10
27.125001
 20
-30.414629
 30
0.0
 10
27.125001
 20
-30.566441
 30
0.0
 10
27.001932
 20
-30.689510
 30
0.0
 10
26.850120
 20
-30.689510
 30
0.0
  0
SPLINE
  5
46e
100
AcDbEntity
  8
Layer_1
 62
1
100
AcDbSpline
 70
8
 71
3
 72
8
 73
4
 74
0
 40
0
 40
0
 40
0
 40
0
 40
1
 40
1
 40
1
 40
1
 10
26.850120
 20
-30.689510
 30
0.0
 10
26.698307
 20
-30.689510
 30
0.0
 10
26.575239
 20
-30.566441
 30
0.0
 10
26.575239
 20
-30.414629
 30
0.0
  0
SPLINE
  5
46f
100
AcDbEntity
  8
Layer_1
 62
1
100
AcDbSpline
 70
8
 71
3
 72
8
 73
4
 74
0
 40
0
 40
0
 40
0
 40
0
 40
1
 40
1
 40
1
 40
1
 10
26.575239
 20
-30.414629
 30
0.0
 10
26.575238
 20
-30.341726
 30
0.0
 10
26.604199
 20
-30.271808
 30
0.0
 10
26.655749
 20
-30.220258
 30
0.0
  0
SPLINE
  5
470
100
AcDbEntity
  8
Layer_1
 62
1
100
AcDbSpline
 70
8
 71
3
 72
8
 73
4
 74
0
 40
0
 40
0
 40
0
 40
0
 40
1
 40
1
 40
1
 40
1
 10
26.655749
 20
-30.220258
 30
0.0
 10
26.707299
 20
-30.168707
 30
0.0
 10
26.777217
 20
-30.139746
 30
0.0
 10
26.850120
 20
-30.139746
 30
0.0
  0
SPLINE
  5
471
100
AcDbEntity
  8
Layer_1
 62
1
100
AcDbSpline
 70
8
 71
3
 72
8
 73
4
 74
0
 40
0
 40
0
 40
0
 40
0
 40
1
 40
1
 40
1
 40
1
 10
26.850120
 20
-35.867231
 30
0.0
 10
27.001932
 20
-35.867232
 30
0.0
 10
27.125001
 20
-35.990300
 30
0.0
 10
27.125001
 20
-36.142112
 30
0.0
  0
SPLINE
  5
472
100
AcDbEntity
  8
Layer_1
 62
1
100
AcDbSpline
 70
8
 71
3
 72
8
 73
4
 74
0
 40
0
 40
0
 40
0
 40
0
 40
1
 40
1
 40
1
 40
1
 10
27.125001
 20
-36.142112
 30
0.0
 10
27.125000
 20
-36.293925
 30
0.0
 10
27.001932
 20
-36.416993
 30
0.0
 10
26.850120
 20
-36.416993
 30
0.0
  0
SPLINE
  5
473
100
AcDbEntity
  8
Layer_1
 62
1
100
AcDbSpline
 70
8
 71
3
 72
8
 73
4
 74
0
 40
0
 40
0
 40
0
 40
0
 40
1
 40
1
 40
1
 40
1
 10
26.850120
 20
-36.416993
 30
0.0
 10
26.698308
 20
-36.416993
 30
0.0
 10
26.575239
 20
-36.293925
 30
0.0
 10
26.575239
 20
-36.142112
 30
0.0
  0
SPLINE
  5
474
100
AcDbEntity
  8
Layer_1
 62
1
100
AcDbSpline
 70
8
 71
3
 72
8
 73
4
 74
0
 40
0
 40
0
 40
0
 40
0
 40
1
 40
1
 40
1
 40
1
 10
26.575239
 20
-36.142112
 30
0.0
 10
26.575239
 20
-35.990300
 30
0.0
 10
26.698307
 20
-35.867232
 30
0.0
 10
26.850120
 20
-35.867231
 30
0.0
  0
SPLINE
  5
475
100
AcDbEntity
  8
Layer_1
 62
1
100
AcDbSpline
 70
8
 71
3
 72
8
 73
4
 74
0
 40
0
 40
0
 40
0
 40
0
 40
1
 40
1
 40
1
 40
1
 10
12.661042
 20
-30.139739
 30
0.0
 10
12.733945
 20
-30.139739
 30
0.0
 10
12.803862
 20
-30.168699
 30
0.0
 10
12.855413
 20
-30.220250
 30
0.0
  0
SPLINE
  5
476
100
AcDbEntity
  8
Layer_1
 62
1
100
AcDbSpline
 70
8
 71
3
 72
8
 73
4
 74
0
 40
0
 40
0
 40
0
 40
0
 40
1
 40
1
 40
1
 40
1
 10
12.855413
 20
-30.220250
 30
0.0
 10
12.906963
 20
-30.271801
 30
0.0
 10
12.935923
 20
-30.341718
 30
0.0
 10
12.935923
 20
-30.414621
 30
0.0
  0
SPLINE
  5
477
100
AcDbEntity
  8
Layer_1
 62
1
100
AcDbSpline
 70
8
 71
3
 72
8
 73
4
 74
0
 40
0
 40
0
 40
0
 40
0
 40
1
 40
1
 40
1
 40
1
 10
12.935923
 20
-30.414621
 30
0.0
 10
12.935923
 20
-30.566434
 30
0.0
 10
12.812854
 20
-30.689502
 30
0.0
 10
12.661042
 20
-30.689502
 30
0.0
  0
SPLINE
  5
478
100
AcDbEntity
  8
Layer_1
 62
1
100
AcDbSpline
 70
8
 71
3
 72
8
 73
4
 74
0
 40
0
 40
0
 40
0
 40
0
 40
1
 40
1
 40
1
 40
1
 10
12.661042
 20
-30.689502
 30
0.0
 10
12.509229
 20
-30.689502
 30
0.0
 10
12.386161
 20
-30.566434
 30
0.0
 10
12.386161
 20
-30.414621
 30
0.0
  0
SPLINE
  5
479
100
AcDbEntity
  8
Layer_1
 62
1
100
AcDbSpline
 70
8
 71
3
 72
8
 73
4
 74
0
 40
0
 40
0
 40
0
 40
0
 40
1
 40
1
 40
1
 40
1
 10
12.386161
 20
-30.414621
 30
0.0
 10
12.386160
 20
-30.341718
 30
0.0
 10
12.415121
 20
-30.271801
 30
0.0
 10
12.466671
 20
-30.220250
 30
0.0
  0
SPLINE
  5
47a
100
AcDbEntity
  8
Layer_1
 62
1
100
AcDbSpline
 70
8
 71
3
 72
8
 73
4
 74
0
 40
0
 40
0
 40
0
 40
0
 40
1
 40
1
 40
1
 40
1
 10
12.466671
 20
-30.220250
 30
0.0
 10
12.518221
 20
-30.168699
 30
0.0
 10
12.588139
 20
-30.139739
 30
0.0
 10
12.661042
 20
-30.139739
 30
0.0
  0
SPLINE
  5
47b
100
AcDbEntity
  8
Layer_1
 62
1
100
AcDbSpline
 70
8
 71
3
 72
8
 73
4
 74
0
 40
0
 40
0
 40
0
 40
0
 40
1
 40
1
 40
1
 40
1
 10
12.661042
 20
-35.867237
 30
0.0
 10
12.812854
 20
-35.867237
 30
0.0
 10
12.935923
 20
-35.990306
 30
0.0
 10
12.935923
 20
-36.142118
 30
0.0
  0
SPLINE
  5
47c
100
AcDbEntity
  8
Layer_1
 62
1
100
AcDbSpline
 70
8
 71
3
 72
8
 73
4
 74
0
 40
0
 40
0
 40
0
 40
0
 40
1
 40
1
 40
1
 40
1
 10
12.935923
 20
-36.142118
 30
0.0
 10
12.935923
 20
-36.215021
 30
0.0
 10
12.906963
 20
-36.284938
 30
0.0
 10
12.855412
 20
-36.336489
 30
0.0
  0
SPLINE
  5
47d
100
AcDbEntity
  8
Layer_1
 62
1
100
AcDbSpline
 70
8
 71
3
 72
8
 73
4
 74
0
 40
0
 40
0
 40
0
 40
0
 40
1
 40
1
 40
1
 40
1
 10
12.855412
 20
-36.336489
 30
0.0
 10
12.803862
 20
-36.388039
 30
0.0
 10
12.733945
 20
-36.417000
 30
0.0
 10
12.661042
 20
-36.417000
 30
0.0
  0
SPLINE
  5
47e
100
AcDbEntity
  8
Layer_1
 62
1
100
AcDbSpline
 70
8
 71
3
 72
8
 73
4
 74
0
 40
0
 40
0
 40
0
 40
0
 40
1
 40
1
 40
1
 40
1
 10
12.661042
 20
-36.417000
 30
0.0
 10
12.588139
 20
-36.417000
 30
0.0
 10
12.518222
 20
-36.388039
 30
0.0
 10
12.466671
 20
-36.336489
 30
0.0
  0
SPLINE
  5
47f
100
AcDbEntity
  8
Layer_1
 62
1
100
AcDbSpline
 70
8
 71
3
 72
8
 73
4
 74
0
 40
0
 40
0
 40
0
 40
0
 40
1
 40
1
 40
1
 40
1
 10
12.466671
 20
-36.336489
 30
0.0
 10
12.415121
 20
-36.284938
 30
0.0
 10
12.386161
 20
-36.215021
 30
0.0
 10
12.386161
 20
-36.142118
 30
0.0
  0
SPLINE
  5
480
100
AcDbEntity
  8
Layer_1
 62
1
100
AcDbSpline
 70
8
 71
3
 72
8
 73
4
 74
0
 40
0
 40
0
 40
0
 40
0
 40
1
 40
1
 40
1
 40
1
 10
12.386161
 20
-36.142118
 30
0.0
 10
12.386161
 20
-35.990306
 30
0.0
 10
12.509229
 20
-35.867237
 30
0.0
 10
12.661042
 20
-35.867237
 30
0.0
  0
LWPOLYLINE
  5
481
100
AcDbEntity
  8
Layer_1
 62
1
100
AcDbPolyline
 90
1
 70
1
 10
33.592025
 20
-29.618790
 30
0.0
  0
ENDSEC
  0
SECTION
  2
OBJECTS
  0
DICTIONARY
  5
C
330
0
100
AcDbDictionary
  3
ACAD_GROUP
350
D
  3
ACAD_MLINESTYLE
350
17
  0
DICTIONARY
  5
D
330
C
100
AcDbDictionary
  0
DICTIONARY
  5
1A
330
C
100
AcDbDictionary
  0
DICTIONARY
  5
17
330
C
100
AcDbDictionary
  3
STANDARD
350
18
  0
DICTIONARY
  5
19
330
C
100
AcDbDictionary
  0
ENDSEC
  0
EOF
