0
SECTION
2
HEADER
9
$ACADVER
1
AC1009
0
ENDSEC
0
SECTION
2
TABLES
0
TABLE
2
VPORT
70
1
0
VPORT
2
ACTIVE
70
0
10
0.0
20
0.0
11
0.0
21
0.0
12
0.0
22
0.0
13
0.0
23
0.0
14
0.0
24
0.0
15
0.0
25
0.0
16
0.0
26
0.0
36
0.0
17
0.0
27
0.0
37
0.0
40
0.0
41
0.0
42
0.0
43
0.0
44
0.0
50
0.0
51
0.0
71
0
72
1000
73
1
74
3
75
0
76
0
77
0
78
0
0
ENDTAB
0
ENDSEC
0
SECTION
2
ENTITIES
0
LINE
8
boundary
62
5
39
2
10
64.327494
20
9.306169
11
65.344668
21
8.827955
0
LINE
8
boundary
62
5
39
2
10
65.344668
20
8.827955
11
66.818995
21
8.318377
0
LINE
8
boundary
62
5
39
2
10
66.818995
20
8.318377
11
80.005003
21
6.607768
0
LINE
8
boundary
62
5
39
2
10
80.005003
20
6.607768
11
80.526423
21
6.587500
0
LINE
8
boundary
62
5
39
2
10
80.526423
20
6.587500
11
92.379256
21
7.442736
0
LINE
8
boundary
62
5
39
2
10
92.379256
20
7.442736
11
95.244530
21
7.929726
0
LINE
8
boundary
62
5
39
2
10
95.244530
20
7.929726
11
100.090220
21
8.647738
0
LINE
8
boundary
62
5
39
2
10
100.090220
20
8.647738
11
102.413968
21
9.594635
0
LINE
8
boundary
62
5
39
2
10
102.413968
20
9.594635
11
106.494650
21
10.993070
0
LINE
8
boundary
62
5
39
2
10
106.494650
20
10.993070
11
110.251267
21
13.517198
0
LINE
8
boundary
62
5
39
2
10
110.251267
20
13.517198
11
111.098373
21
14.072358
0
LINE
8
boundary
62
5
39
2
10
111.098373
20
14.072358
11
113.457539
21
19.196047
0
LINE
8
boundary
62
5
39
2
10
113.457539
20
19.196047
11
113.825484
21
19.977954
0
LINE
8
boundary
62
5
39
2
10
113.825484
20
19.977954
11
113.795269
21
20.607543
0
LINE
8
boundary
62
5
39
2
10
113.795269
20
20.607543
11
114.009364
21
26.037372
0
LINE
8
boundary
62
5
39
2
10
114.009364
20
26.037372
11
113.158498
21
30.439656
0
LINE
8
boundary
62
5
39
2
10
113.158498
20
30.439656
11
112.627215
21
32.757036
0
LINE
8
boundary
62
5
39
2
10
112.627215
20
32.757036
11
112.514443
21
33.339173
0
LINE
8
boundary
62
5
39
2
10
112.514443
20
33.339173
11
111.086009
21
40.361250
0
LINE
8
boundary
62
5
39
2
10
111.086009
20
40.361250
11
110.235984
21
46.680814
0
LINE
8
boundary
62
5
39
2
10
110.235984
20
46.680814
11
109.948023
21
47.963487
0
LINE
8
boundary
62
5
39
2
10
109.948023
20
47.963487
11
110.004572
21
54.864505
0
LINE
8
boundary
62
5
39
2
10
110.004572
20
54.864505
11
109.641739
21
56.646942
0
LINE
8
boundary
62
5
39
2
10
109.641739
20
56.646942
11
110.197015
21
66.033104
0
LINE
8
boundary
62
5
39
2
10
110.197015
20
66.033104
11
109.667705
21
69.678630
0
LINE
8
boundary
62
5
39
2
10
109.667705
20
69.678630
11
109.695724
21
79.223298
0
LINE
8
boundary
62
5
39
2
10
109.695724
20
79.223298
11
110.358392
21
83.471292
0
LINE
8
boundary
62
5
39
2
10
110.358392
20
83.471292
11
108.967660
21
95.115575
0
LINE
8
boundary
62
5
39
2
10
108.967660
20
95.115575
11
108.746910
21
98.762056
0
LINE
8
boundary
62
5
39
2
10
108.746910
20
98.762056
11
106.692494
21
113.736662
0
LINE
8
boundary
62
5
39
2
10
106.692494
20
113.736662
11
106.474537
21
117.386432
0
LINE
8
boundary
62
5
39
2
10
106.474537
20
117.386432
11
105.756877
21
141.458057
0
LINE
8
boundary
62
5
39
2
10
105.756877
20
141.458057
11
105.770491
21
142.135756
0
LINE
8
boundary
62
5
39
2
10
105.770491
20
142.135756
11
106.697579
21
182.348754
0
LINE
8
boundary
62
5
39
2
10
106.697579
20
182.348754
11
107.444146
21
205.831406
0
LINE
8
boundary
62
5
39
2
10
107.444146
20
205.831406
11
108.226255
21
232.984045
0
LINE
8
boundary
62
5
39
2
10
108.226255
20
232.984045
11
111.215804
21
277.710564
0
LINE
8
boundary
62
5
39
2
10
111.215804
20
277.710564
11
111.951460
21
289.127671
0
LINE
8
boundary
62
5
39
2
10
111.951460
20
289.127671
11
112.020965
21
295.298001
0
LINE
8
boundary
62
5
39
2
10
112.020965
20
295.298001
11
114.192585
21
345.784507
0
LINE
8
boundary
62
5
39
2
10
114.192585
20
345.784507
11
114.153355
21
346.366384
0
LINE
8
boundary
62
5
39
2
10
114.153355
20
346.366384
11
112.549049
21
382.267974
0
LINE
8
boundary
62
5
39
2
10
112.549049
20
382.267974
11
111.225565
21
382.268605
0
LINE
8
boundary
62
5
39
2
10
111.225565
20
382.268605
11
81.936172
21
382.268678
0
LINE
8
boundary
62
5
39
2
10
81.936172
20
382.268678
11
61.312584
21
382.268654
0
LINE
8
boundary
62
5
39
2
10
61.312584
20
382.268654
11
48.590502
21
382.268668
0
LINE
8
boundary
62
5
39
2
10
48.590502
20
382.268668
11
38.573194
21
382.268677
0
LINE
8
boundary
62
5
39
2
10
38.573194
20
382.268677
11
19.104545
21
382.268636
0
LINE
8
boundary
62
5
39
2
10
19.104545
20
382.268636
11
16.916675
21
382.268439
0
LINE
8
boundary
62
5
39
2
10
16.916675
20
382.268439
11
12.772848
21
382.268549
0
LINE
8
boundary
62
5
39
2
10
12.772848
20
382.268549
11
9.389852
21
382.270094
0
LINE
8
boundary
62
5
39
2
10
9.389852
20
382.270094
11
6.607554
21
382.270742
0
LINE
8
boundary
62
5
39
2
10
6.607554
20
382.270742
11
8.970188
21
365.534625
0
LINE
8
boundary
62
5
39
2
10
8.970188
20
365.534625
11
61.102581
21
365.334625
0
LINE
8
boundary
62
5
39
2
10
61.102581
20
365.334625
11
61.102582
21
361.588625
0
LINE
8
boundary
62
5
39
2
10
61.102582
20
361.588625
11
9.623167
21
361.588625
0
LINE
8
boundary
62
5
39
2
10
9.623167
20
361.588625
11
10.252529
21
356.564189
0
LINE
8
boundary
62
5
39
2
10
10.252529
20
356.564189
11
11.365084
21
349.060523
0
LINE
8
boundary
62
5
39
2
10
11.365084
20
349.060523
11
15.455268
21
327.915985
0
LINE
8
boundary
62
5
39
2
10
15.455268
20
327.915985
11
64.326669
21
327.715990
0
LINE
8
boundary
62
5
39
2
10
64.326669
20
327.715990
11
64.326669
21
323.969990
0
LINE
8
boundary
62
5
39
2
10
64.326669
20
323.969990
11
16.317566
21
323.969990
0
LINE
8
boundary
62
5
39
2
10
16.317566
20
323.969990
11
17.947721
21
315.031048
0
LINE
8
boundary
62
5
39
2
10
17.947721
20
315.031048
11
18.706997
21
311.242765
0
LINE
8
boundary
62
5
39
2
10
18.706997
20
311.242765
11
23.030899
21
290.297351
0
LINE
8
boundary
62
5
39
2
10
23.030899
20
290.297351
11
67.583612
21
290.097354
0
LINE
8
boundary
62
5
39
2
10
67.583612
20
290.097354
11
67.583612
21
286.351354
0
LINE
8
boundary
62
5
39
2
10
67.583612
20
286.351354
11
23.947085
21
286.351354
0
LINE
8
boundary
62
5
39
2
10
23.947085
20
286.351354
11
25.863842
21
276.574289
0
LINE
8
boundary
62
5
39
2
10
25.863842
20
276.574289
11
26.999972
21
271.360233
0
LINE
8
boundary
62
5
39
2
10
26.999972
20
271.360233
11
27.134109
21
270.753687
0
LINE
8
boundary
62
5
39
2
10
27.134109
20
270.753687
11
30.696570
21
252.678719
0
LINE
8
boundary
62
5
39
2
10
30.696570
20
252.678719
11
70.190218
21
252.478719
0
LINE
8
boundary
62
5
39
2
10
70.190218
20
252.478719
11
70.190218
21
248.732719
0
LINE
8
boundary
62
5
39
2
10
70.190218
20
248.732719
11
31.574020
21
248.732719
0
LINE
8
boundary
62
5
39
2
10
31.574020
20
248.732719
11
36.779282
21
221.816670
0
LINE
8
boundary
62
5
39
2
10
36.779282
20
221.816670
11
37.596716
21
217.258128
0
LINE
8
boundary
62
5
39
2
10
37.596716
20
217.258128
11
38.095591
21
215.060084
0
LINE
8
boundary
62
5
39
2
10
38.095591
20
215.060084
11
72.983767
21
214.860084
0
LINE
8
boundary
62
5
39
2
10
72.983767
20
214.860084
11
72.983768
21
211.114084
0
LINE
8
boundary
62
5
39
2
10
72.983768
20
211.114084
11
39.096880
21
211.114084
0
LINE
8
boundary
62
5
39
2
10
39.096880
20
211.114084
11
46.633635
21
177.441442
0
LINE
8
boundary
62
5
39
2
10
46.633635
20
177.441442
11
76.673999
21
177.241448
0
LINE
8
boundary
62
5
39
2
10
76.673999
20
177.241448
11
76.673999
21
173.495449
0
LINE
8
boundary
62
5
39
2
10
76.673999
20
173.495449
11
47.549866
21
173.495448
0
LINE
8
boundary
62
5
39
2
10
47.549866
20
173.495448
11
51.049662
21
155.726816
0
LINE
8
boundary
62
5
39
2
10
51.049662
20
155.726816
11
53.182983
21
146.119533
0
LINE
8
boundary
62
5
39
2
10
53.182983
20
146.119533
11
53.593392
21
143.286331
0
LINE
8
boundary
62
5
39
2
10
53.593392
20
143.286331
11
53.987482
21
139.822813
0
LINE
8
boundary
62
5
39
2
10
53.987482
20
139.822813
11
79.946314
21
139.622813
0
LINE
8
boundary
62
5
39
2
10
79.946314
20
139.622813
11
79.946314
21
135.876814
0
LINE
8
boundary
62
5
39
2
10
79.946314
20
135.876814
11
54.519526
21
135.876813
0
LINE
8
boundary
62
5
39
2
10
54.519526
20
135.876813
11
56.398799
21
124.263468
0
LINE
8
boundary
62
5
39
2
10
56.398799
20
124.263468
11
56.939711
21
120.756228
0
LINE
8
boundary
62
5
39
2
10
56.939711
20
120.756228
11
58.273009
21
107.549649
0
LINE
8
boundary
62
5
39
2
10
58.273009
20
107.549649
11
58.040920
21
102.204178
0
LINE
8
boundary
62
5
39
2
10
58.040920
20
102.204178
11
83.167440
21
102.004178
0
LINE
8
boundary
62
5
39
2
10
83.167440
20
102.004178
11
83.167441
21
98.258178
0
LINE
8
boundary
62
5
39
2
10
83.167441
20
98.258178
11
57.859313
21
98.258178
0
LINE
8
boundary
62
5
39
2
10
57.859313
20
98.258178
11
57.572204
21
94.415918
0
LINE
8
boundary
62
5
39
2
10
57.572204
20
94.415918
11
57.842161
21
86.614197
0
LINE
8
boundary
62
5
39
2
10
57.842161
20
86.614197
11
57.440360
21
80.426725
0
LINE
8
boundary
62
5
39
2
10
57.440360
20
80.426725
11
57.641685
21
73.557041
0
LINE
8
boundary
62
5
39
2
10
57.641685
20
73.557041
11
58.014930
21
67.224426
0
LINE
8
boundary
62
5
39
2
10
58.014930
20
67.224426
11
57.763826
21
64.585543
0
LINE
8
boundary
62
5
39
2
10
57.763826
20
64.585543
11
83.678573
21
64.385543
0
LINE
8
boundary
62
5
39
2
10
83.678573
20
64.385543
11
83.678572
21
60.639543
0
LINE
8
boundary
62
5
39
2
10
83.678572
20
60.639543
11
57.570846
21
60.639543
0
LINE
8
boundary
62
5
39
2
10
57.570846
20
60.639543
11
57.482575
21
55.121878
0
LINE
8
boundary
62
5
39
2
10
57.482575
20
55.121878
11
56.946738
21
51.234464
0
LINE
8
boundary
62
5
39
2
10
56.946738
20
51.234464
11
57.670512
21
43.261610
0
LINE
8
boundary
62
5
39
2
10
57.670512
20
43.261610
11
57.703852
21
35.754024
0
LINE
8
boundary
62
5
39
2
10
57.703852
20
35.754024
11
57.657984
21
32.591729
0
LINE
8
boundary
62
5
39
2
10
57.657984
20
32.591729
11
57.822709
21
29.477715
0
LINE
8
boundary
62
5
39
2
10
57.822709
20
29.477715
11
57.749533
21
25.087705
0
LINE
8
boundary
62
5
39
2
10
57.749533
20
25.087705
11
85.712506
21
24.887705
0
LINE
8
boundary
62
5
39
2
10
85.712506
20
24.887705
11
85.712506
21
21.141705
0
LINE
8
boundary
62
5
39
2
10
85.712506
20
21.141705
11
58.219188
21
21.141705
0
LINE
8
boundary
62
5
39
2
10
58.219188
20
21.141705
11
58.377318
21
20.043623
0
LINE
8
boundary
62
5
39
2
10
58.377318
20
20.043623
11
59.179284
21
15.795306
0
LINE
8
boundary
62
5
39
2
10
59.179284
20
15.795306
11
63.263045
21
10.714561
0
LINE
8
boundary
62
5
39
2
10
63.263045
20
10.714561
11
64.327494
21
9.306169
0
LINE
8
annotation
62
1
39
211
10
94.550305
20
19.814705
11
94.550305
21
26.214705
0
LINE
8
annotation
62
1
39
211
10
94.550305
20
26.214705
11
93.127503
21
24.791502
0
LINE
8
annotation
62
1
39
211
10
93.225967
20
59.312491
11
90.383574
21
59.312491
0
LINE
8
annotation
62
1
39
211
10
90.383574
20
59.312491
11
93.010038
21
63.540761
0
LINE
8
annotation
62
1
39
211
10
93.010038
20
63.540761
11
93.010038
21
63.540761
0
LINE
8
annotation
62
1
39
211
10
93.010038
20
63.540761
11
93.013178
21
63.544646
0
LINE
8
annotation
62
1
39
211
10
93.013178
20
63.544646
11
93.016189
21
63.548565
0
LINE
8
annotation
62
1
39
211
10
93.016189
20
63.548565
11
93.019091
21
63.552549
0
LINE
8
annotation
62
1
39
211
10
93.019091
20
63.552549
11
93.021903
21
63.556633
0
LINE
8
annotation
62
1
39
211
10
93.021903
20
63.556633
11
93.024647
21
63.560848
0
LINE
8
annotation
62
1
39
211
10
93.024647
20
63.560848
11
93.027341
21
63.565229
0
LINE
8
annotation
62
1
39
211
10
93.027341
20
63.565229
11
93.030005
21
63.569808
0
LINE
8
annotation
62
1
39
211
10
93.030005
20
63.569808
11
93.032659
21
63.574618
0
LINE
8
annotation
62
1
39
211
10
93.032659
20
63.574618
11
93.035323
21
63.579693
0
LINE
8
annotation
62
1
39
211
10
93.035323
20
63.579693
11
93.035323
21
63.579693
0
LINE
8
annotation
62
1
39
211
10
93.035323
20
63.579693
11
93.143769
21
63.812536
0
LINE
8
annotation
62
1
39
211
10
93.143769
20
63.812536
11
93.207122
21
64.053898
0
LINE
8
annotation
62
1
39
211
10
93.207122
20
64.053898
11
93.226933
21
64.298325
0
LINE
8
annotation
62
1
39
211
10
93.226933
20
64.298325
11
93.204755
21
64.540365
0
LINE
8
annotation
62
1
39
211
10
93.204755
20
64.540365
11
93.142142
21
64.774562
0
LINE
8
annotation
62
1
39
211
10
93.142142
20
64.774562
11
93.040645
21
64.995463
0
LINE
8
annotation
62
1
39
211
10
93.040645
20
64.995463
11
92.901817
21
65.197615
0
LINE
8
annotation
62
1
39
211
10
92.901817
20
65.197615
11
92.727211
21
65.375563
0
LINE
8
annotation
62
1
39
211
10
92.727211
20
65.375563
11
92.518378
21
65.523854
0
LINE
8
annotation
62
1
39
211
10
92.518378
20
65.523854
11
92.518378
21
65.523854
0
LINE
8
annotation
62
1
39
211
10
92.518378
20
65.523854
11
92.284888
21
65.630759
0
LINE
8
annotation
62
1
39
211
10
92.284888
20
65.630759
11
92.043156
21
65.693136
0
LINE
8
annotation
62
1
39
211
10
92.043156
20
65.693136
11
91.798586
21
65.712387
0
LINE
8
annotation
62
1
39
211
10
91.798586
20
65.712387
11
91.556583
21
65.689917
0
LINE
8
annotation
62
1
39
211
10
91.556583
20
65.689917
11
91.322551
21
65.627130
0
LINE
8
annotation
62
1
39
211
10
91.322551
20
65.627130
11
91.101894
21
65.525430
0
LINE
8
annotation
62
1
39
211
10
91.101894
20
65.525430
11
90.900017
21
65.386220
0
LINE
8
annotation
62
1
39
211
10
90.900017
20
65.386220
11
90.722323
21
65.210906
0
LINE
8
annotation
62
1
39
211
10
90.722323
20
65.210906
11
90.574217
21
65.000889
0
LINE
8
annotation
62
1
39
211
10
90.574217
20
65.000889
11
90.387587
21
64.642881
0
LINE
8
annotation
62
1
39
211
10
89.872442
20
96.931379
11
91.293638
21
96.931379
0
LINE
8
annotation
62
1
39
211
10
91.293638
20
96.931379
11
91.293638
21
96.931379
0
LINE
8
annotation
62
1
39
211
10
91.293638
20
96.931379
11
91.549244
21
96.954308
0
LINE
8
annotation
62
1
39
211
10
91.549244
20
96.954308
11
91.789760
21
97.020392
0
LINE
8
annotation
62
1
39
211
10
91.789760
20
97.020392
11
92.011186
21
97.125575
0
LINE
8
annotation
62
1
39
211
10
92.011186
20
97.125575
11
92.209521
21
97.265799
0
LINE
8
annotation
62
1
39
211
10
92.209521
20
97.265799
11
92.380767
21
97.437008
0
LINE
8
annotation
62
1
39
211
10
92.380767
20
97.437008
11
92.520921
21
97.635147
0
LINE
8
annotation
62
1
39
211
10
92.520921
20
97.635147
11
92.625984
21
97.856157
0
LINE
8
annotation
62
1
39
211
10
92.625984
20
97.856157
11
92.691955
21
98.095983
0
LINE
8
annotation
62
1
39
211
10
92.691955
20
98.095983
11
92.714835
21
98.350569
0
LINE
8
annotation
62
1
39
211
10
92.714835
20
98.350569
11
92.714835
21
99.062170
0
LINE
8
annotation
62
1
39
211
10
92.714835
20
99.062170
11
92.714835
21
99.062170
0
LINE
8
annotation
62
1
39
211
10
92.714835
20
99.062170
11
92.691955
21
99.316650
0
LINE
8
annotation
62
1
39
211
10
92.691955
20
99.316650
11
92.625984
21
99.556420
0
LINE
8
annotation
62
1
39
211
10
92.625984
20
99.556420
11
92.520921
21
99.777414
0
LINE
8
annotation
62
1
39
211
10
92.520921
20
99.777414
11
92.380767
21
99.975565
0
LINE
8
annotation
62
1
39
211
10
92.380767
20
99.975565
11
92.209521
21
100.146808
0
LINE
8
annotation
62
1
39
211
10
92.209521
20
100.146808
11
92.011186
21
100.287075
0
LINE
8
annotation
62
1
39
211
10
92.011186
20
100.287075
11
91.789760
21
100.392300
0
LINE
8
annotation
62
1
39
211
10
91.789760
20
100.392300
11
91.549244
21
100.458417
0
LINE
8
annotation
62
1
39
211
10
91.549244
20
100.458417
11
91.293638
21
100.481360
0
LINE
8
annotation
62
1
39
211
10
91.293638
20
100.481360
11
90.582036
21
100.481360
0
LINE
8
annotation
62
1
39
211
10
90.582036
20
100.481360
11
91.293638
21
100.481360
0
LINE
8
annotation
62
1
39
211
10
91.293638
20
100.481360
11
91.293638
21
100.481360
0
LINE
8
annotation
62
1
39
211
10
91.293638
20
100.481360
11
91.549244
21
100.504308
0
LINE
8
annotation
62
1
39
211
10
91.549244
20
100.504308
11
91.789760
21
100.570464
0
LINE
8
annotation
62
1
39
211
10
91.789760
20
100.570464
11
92.011186
21
100.675794
0
LINE
8
annotation
62
1
39
211
10
92.011186
20
100.675794
11
92.209521
21
100.816265
0
LINE
8
annotation
62
1
39
211
10
92.209521
20
100.816265
11
92.380767
21
100.987843
0
LINE
8
annotation
62
1
39
211
10
92.380767
20
100.987843
11
92.520921
21
101.186495
0
LINE
8
annotation
62
1
39
211
10
92.520921
20
101.186495
11
92.625984
21
101.408188
0
LINE
8
annotation
62
1
39
211
10
92.625984
20
101.408188
11
92.691955
21
101.648889
0
LINE
8
annotation
62
1
39
211
10
92.691955
20
101.648889
11
92.714835
21
101.904563
0
LINE
8
annotation
62
1
39
211
10
92.714835
20
101.904563
11
92.714835
21
101.904563
0
LINE
8
annotation
62
1
39
211
10
92.714835
20
101.904563
11
92.691955
21
102.159043
0
LINE
8
annotation
62
1
39
211
10
92.691955
20
102.159043
11
92.625984
21
102.398813
0
LINE
8
annotation
62
1
39
211
10
92.625984
20
102.398813
11
92.520921
21
102.619807
0
LINE
8
annotation
62
1
39
211
10
92.520921
20
102.619807
11
92.380767
21
102.817958
0
LINE
8
annotation
62
1
39
211
10
92.380767
20
102.817958
11
92.209521
21
102.989201
0
LINE
8
annotation
62
1
39
211
10
92.209521
20
102.989201
11
92.011186
21
103.129468
0
LINE
8
annotation
62
1
39
211
10
92.011186
20
103.129468
11
91.789760
21
103.234693
0
LINE
8
annotation
62
1
39
211
10
91.789760
20
103.234693
11
91.549244
21
103.300810
0
LINE
8
annotation
62
1
39
211
10
91.549244
20
103.300810
11
91.293638
21
103.323753
0
LINE
8
annotation
62
1
39
211
10
91.293638
20
103.323753
11
89.872442
21
103.323753
0
LINE
8
annotation
62
1
39
211
10
89.849308
20
135.972615
11
86.295714
21
135.972615
0
LINE
8
annotation
62
1
39
211
10
86.295714
20
135.972615
11
87.714904
21
140.949813
0
LINE
8
annotation
62
1
39
211
10
88.784113
20
134.549813
11
88.784113
21
137.392206
0
LINE
8
annotation
62
1
39
211
10
83.379000
20
172.168449
11
84.800197
21
172.168449
0
LINE
8
annotation
62
1
39
211
10
84.800197
20
172.168449
11
84.800197
21
172.168449
0
LINE
8
annotation
62
1
39
211
10
84.800197
20
172.168449
11
85.055274
21
172.191383
0
LINE
8
annotation
62
1
39
211
10
85.055274
20
172.191383
11
85.295509
21
172.257502
0
LINE
8
annotation
62
1
39
211
10
85.295509
20
172.257502
11
85.516852
21
172.362779
0
LINE
8
annotation
62
1
39
211
10
85.516852
20
172.362779
11
85.715254
21
172.503186
0
LINE
8
annotation
62
1
39
211
10
85.715254
20
172.503186
11
85.886665
21
172.674698
0
LINE
8
annotation
62
1
39
211
10
85.886665
20
172.674698
11
86.027033
21
172.873287
0
LINE
8
annotation
62
1
39
211
10
86.027033
20
172.873287
11
86.132311
21
173.094926
0
LINE
8
annotation
62
1
39
211
10
86.132311
20
173.094926
11
86.198448
21
173.335590
0
LINE
8
annotation
62
1
39
211
10
86.198448
20
173.335590
11
86.221393
21
173.591251
0
LINE
8
annotation
62
1
39
211
10
86.221393
20
173.591251
11
86.221393
21
174.299240
0
LINE
8
annotation
62
1
39
211
10
86.221393
20
174.299240
11
86.221393
21
174.299240
0
LINE
8
annotation
62
1
39
211
10
86.221393
20
174.299240
11
86.198461
21
174.554777
0
LINE
8
annotation
62
1
39
211
10
86.198461
20
174.554777
11
86.132357
21
174.795108
0
LINE
8
annotation
62
1
39
211
10
86.132357
20
174.795108
11
86.027123
21
175.016267
0
LINE
8
annotation
62
1
39
211
10
86.027123
20
175.016267
11
85.886797
21
175.214287
0
LINE
8
annotation
62
1
39
211
10
85.886797
20
175.214287
11
85.715419
21
175.385199
0
LINE
8
annotation
62
1
39
211
10
85.715419
20
175.385199
11
85.517031
21
175.525036
0
LINE
8
annotation
62
1
39
211
10
85.517031
20
175.525036
11
85.295671
21
175.629832
0
LINE
8
annotation
62
1
39
211
10
85.295671
20
175.629832
11
85.055379
21
175.695619
0
LINE
8
annotation
62
1
39
211
10
85.055379
20
175.695619
11
84.800197
21
175.718430
0
LINE
8
annotation
62
1
39
211
10
84.800197
20
175.718430
11
83.379000
21
175.718430
0
LINE
8
annotation
62
1
39
211
10
83.379000
20
175.718430
11
83.379000
21
178.568449
0
LINE
8
annotation
62
1
39
211
10
83.379000
20
178.568449
11
86.221393
21
178.568449
0
LINE
8
annotation
62
1
39
211
10
81.823573
20
216.187084
11
81.823573
21
216.187084
0
LINE
8
annotation
62
1
39
211
10
81.823573
20
216.187084
11
81.416436
21
216.034432
0
LINE
8
annotation
62
1
39
211
10
81.416436
20
216.034432
11
81.042835
21
215.828752
0
LINE
8
annotation
62
1
39
211
10
81.042835
20
215.828752
11
80.706604
21
215.575196
0
LINE
8
annotation
62
1
39
211
10
80.706604
20
215.575196
11
80.411578
21
215.278919
0
LINE
8
annotation
62
1
39
211
10
80.411578
20
215.278919
11
80.161594
21
214.945073
0
LINE
8
annotation
62
1
39
211
10
80.161594
20
214.945073
11
79.960485
21
214.578811
0
LINE
8
annotation
62
1
39
211
10
79.960485
20
214.578811
11
79.812088
21
214.185287
0
LINE
8
annotation
62
1
39
211
10
79.812088
20
214.185287
11
79.720238
21
213.769654
0
LINE
8
annotation
62
1
39
211
10
79.720238
20
213.769654
11
79.688768
21
213.337065
0
LINE
8
annotation
62
1
39
211
10
79.688768
20
213.337065
11
79.688768
21
211.209886
0
LINE
8
annotation
62
1
39
211
10
79.688768
20
211.209886
11
79.688768
21
211.209886
0
LINE
8
annotation
62
1
39
211
10
79.688768
20
211.209886
11
79.711714
21
210.954225
0
LINE
8
annotation
62
1
39
211
10
79.711714
20
210.954225
11
79.777850
21
210.713562
0
LINE
8
annotation
62
1
39
211
10
79.777850
20
210.713562
11
79.883128
21
210.491922
0
LINE
8
annotation
62
1
39
211
10
79.883128
20
210.491922
11
80.023497
21
210.293333
0
LINE
8
annotation
62
1
39
211
10
80.023497
20
210.293333
11
80.194907
21
210.121821
0
LINE
8
annotation
62
1
39
211
10
80.194907
20
210.121821
11
80.393309
21
209.981414
0
LINE
8
annotation
62
1
39
211
10
80.393309
20
209.981414
11
80.614653
21
209.876137
0
LINE
8
annotation
62
1
39
211
10
80.614653
20
209.876137
11
80.854888
21
209.810018
0
LINE
8
annotation
62
1
39
211
10
80.854888
20
209.810018
11
81.109965
21
209.787084
0
LINE
8
annotation
62
1
39
211
10
81.109965
20
209.787084
11
81.109965
21
209.787084
0
LINE
8
annotation
62
1
39
211
10
81.109965
20
209.787084
11
81.365570
21
209.810018
0
LINE
8
annotation
62
1
39
211
10
81.365570
20
209.810018
11
81.606086
21
209.876137
0
LINE
8
annotation
62
1
39
211
10
81.606086
20
209.876137
11
81.827513
21
209.981414
0
LINE
8
annotation
62
1
39
211
10
81.827513
20
209.981414
11
82.025848
21
210.121821
0
LINE
8
annotation
62
1
39
211
10
82.025848
20
210.121821
11
82.197093
21
210.293333
0
LINE
8
annotation
62
1
39
211
10
82.197093
20
210.293333
11
82.337248
21
210.491922
0
LINE
8
annotation
62
1
39
211
10
82.337248
20
210.491922
11
82.442311
21
210.713562
0
LINE
8
annotation
62
1
39
211
10
82.442311
20
210.713562
11
82.508282
21
210.954225
0
LINE
8
annotation
62
1
39
211
10
82.508282
20
210.954225
11
82.531161
21
211.209886
0
LINE
8
annotation
62
1
39
211
10
82.531161
20
211.209886
11
82.531161
21
211.917875
0
LINE
8
annotation
62
1
39
211
10
82.531161
20
211.917875
11
82.531161
21
211.917875
0
LINE
8
annotation
62
1
39
211
10
82.531161
20
211.917875
11
82.508282
21
212.173412
0
LINE
8
annotation
62
1
39
211
10
82.508282
20
212.173412
11
82.442311
21
212.413744
0
LINE
8
annotation
62
1
39
211
10
82.442311
20
212.413744
11
82.337248
21
212.634903
0
LINE
8
annotation
62
1
39
211
10
82.337248
20
212.634903
11
82.197093
21
212.832922
0
LINE
8
annotation
62
1
39
211
10
82.197093
20
212.832922
11
82.025848
21
213.003834
0
LINE
8
annotation
62
1
39
211
10
82.025848
20
213.003834
11
81.827513
21
213.143672
0
LINE
8
annotation
62
1
39
211
10
81.827513
20
213.143672
11
81.606086
21
213.248467
0
LINE
8
annotation
62
1
39
211
10
81.606086
20
213.248467
11
81.365570
21
213.314254
0
LINE
8
annotation
62
1
39
211
10
81.365570
20
213.314254
11
81.109965
21
213.337065
0
LINE
8
annotation
62
1
39
211
10
81.109965
20
213.337065
11
79.688768
21
213.337065
0
LINE
8
annotation
62
1
39
211
10
79.510768
20
208.987084
11
82.710768
21
208.987084
0
LINE
8
annotation
62
1
39
211
10
78.316416
20
247.405719
11
79.739218
21
253.805719
0
LINE
8
annotation
62
1
39
211
10
79.739218
20
253.805719
11
76.893212
21
253.805719
0
LINE
8
annotation
62
1
39
211
10
79.739218
20
250.955700
11
78.316416
21
250.955700
0
LINE
8
annotation
62
1
39
211
10
74.288613
20
286.443343
11
74.288613
21
286.443343
0
LINE
8
annotation
62
1
39
211
10
74.288613
20
286.443343
11
74.311558
21
286.187807
0
LINE
8
annotation
62
1
39
211
10
74.311558
20
286.187807
11
74.377695
21
285.947475
0
LINE
8
annotation
62
1
39
211
10
74.377695
20
285.947475
11
74.482972
21
285.726316
0
LINE
8
annotation
62
1
39
211
10
74.482972
20
285.726316
11
74.623341
21
285.528297
0
LINE
8
annotation
62
1
39
211
10
74.623341
20
285.528297
11
74.794752
21
285.357385
0
LINE
8
annotation
62
1
39
211
10
74.794752
20
285.357385
11
74.993153
21
285.217547
0
LINE
8
annotation
62
1
39
211
10
74.993153
20
285.217547
11
75.214497
21
285.112751
0
LINE
8
annotation
62
1
39
211
10
75.214497
20
285.112751
11
75.454732
21
285.046964
0
LINE
8
annotation
62
1
39
211
10
75.454732
20
285.046964
11
75.709809
21
285.024154
0
LINE
8
annotation
62
1
39
211
10
75.709809
20
285.024154
11
75.709809
21
285.024154
0
LINE
8
annotation
62
1
39
211
10
75.709809
20
285.024154
11
75.964886
21
285.046964
0
LINE
8
annotation
62
1
39
211
10
75.964886
20
285.046964
11
76.205121
21
285.112751
0
LINE
8
annotation
62
1
39
211
10
76.205121
20
285.112751
11
76.426465
21
285.217547
0
LINE
8
annotation
62
1
39
211
10
76.426465
20
285.217547
11
76.624867
21
285.357385
0
LINE
8
annotation
62
1
39
211
10
76.624867
20
285.357385
11
76.796277
21
285.528297
0
LINE
8
annotation
62
1
39
211
10
76.796277
20
285.528297
11
76.936646
21
285.726316
0
LINE
8
annotation
62
1
39
211
10
76.936646
20
285.726316
11
77.041924
21
285.947475
0
LINE
8
annotation
62
1
39
211
10
77.041924
20
285.947475
11
77.108060
21
286.187807
0
LINE
8
annotation
62
1
39
211
10
77.108060
20
286.187807
11
77.131006
21
286.443343
0
LINE
8
annotation
62
1
39
211
10
77.131006
20
286.443343
11
77.131006
21
287.151333
0
LINE
8
annotation
62
1
39
211
10
77.131006
20
287.151333
11
77.131006
21
287.151333
0
LINE
8
annotation
62
1
39
211
10
77.131006
20
287.151333
11
77.108073
21
287.406994
0
LINE
8
annotation
62
1
39
211
10
77.108073
20
287.406994
11
77.041970
21
287.647657
0
LINE
8
annotation
62
1
39
211
10
77.041970
20
287.647657
11
76.936735
21
287.869297
0
LINE
8
annotation
62
1
39
211
10
76.936735
20
287.869297
11
76.796409
21
288.067886
0
LINE
8
annotation
62
1
39
211
10
76.796409
20
288.067886
11
76.625032
21
288.239397
0
LINE
8
annotation
62
1
39
211
10
76.625032
20
288.239397
11
76.426643
21
288.379805
0
LINE
8
annotation
62
1
39
211
10
76.426643
20
288.379805
11
76.205283
21
288.485081
0
LINE
8
annotation
62
1
39
211
10
76.205283
20
288.485081
11
75.964992
21
288.551200
0
LINE
8
annotation
62
1
39
211
10
75.964992
20
288.551200
11
75.709809
21
288.574135
0
LINE
8
annotation
62
1
39
211
10
75.709809
20
288.574135
11
75.709809
21
288.574135
0
LINE
8
annotation
62
1
39
211
10
75.709809
20
288.574135
11
75.454626
21
288.551187
0
LINE
8
annotation
62
1
39
211
10
75.454626
20
288.551187
11
75.214335
21
288.485035
0
LINE
8
annotation
62
1
39
211
10
75.214335
20
288.485035
11
74.992975
21
288.379716
0
LINE
8
annotation
62
1
39
211
10
74.992975
20
288.379716
11
74.794586
21
288.239265
0
LINE
8
annotation
62
1
39
211
10
74.794586
20
288.239265
11
74.623209
21
288.067721
0
LINE
8
annotation
62
1
39
211
10
74.623209
20
288.067721
11
74.482883
21
287.869118
0
LINE
8
annotation
62
1
39
211
10
74.482883
20
287.869118
11
74.377648
21
287.647495
0
LINE
8
annotation
62
1
39
211
10
74.377648
20
287.647495
11
74.311545
21
287.406888
0
LINE
8
annotation
62
1
39
211
10
74.311545
20
287.406888
11
74.288613
21
287.151333
0
LINE
8
annotation
62
1
39
211
10
74.288613
20
287.151333
11
74.288613
21
286.443343
0
LINE
8
annotation
62
1
39
211
10
77.131006
20
289.997338
11
77.131006
21
289.997338
0
LINE
8
annotation
62
1
39
211
10
77.131006
20
289.997338
11
77.108073
21
290.251818
0
LINE
8
annotation
62
1
39
211
10
77.108073
20
290.251818
11
77.041970
21
290.491588
0
LINE
8
annotation
62
1
39
211
10
77.041970
20
290.491588
11
76.936735
21
290.712582
0
LINE
8
annotation
62
1
39
211
10
76.936735
20
290.712582
11
76.796409
21
290.910733
0
LINE
8
annotation
62
1
39
211
10
76.796409
20
290.910733
11
76.625032
21
291.081975
0
LINE
8
annotation
62
1
39
211
10
76.625032
20
291.081975
11
76.426643
21
291.222243
0
LINE
8
annotation
62
1
39
211
10
76.426643
20
291.222243
11
76.205283
21
291.327468
0
LINE
8
annotation
62
1
39
211
10
76.205283
20
291.327468
11
75.964992
21
291.393585
0
LINE
8
annotation
62
1
39
211
10
75.964992
20
291.393585
11
75.709809
21
291.416528
0
LINE
8
annotation
62
1
39
211
10
75.709809
20
291.416528
11
75.709809
21
291.416528
0
LINE
8
annotation
62
1
39
211
10
75.709809
20
291.416528
11
75.454626
21
291.393585
0
LINE
8
annotation
62
1
39
211
10
75.454626
20
291.393585
11
75.214335
21
291.327468
0
LINE
8
annotation
62
1
39
211
10
75.214335
20
291.327468
11
74.992975
21
291.222243
0
LINE
8
annotation
62
1
39
211
10
74.992975
20
291.222243
11
74.794586
21
291.081975
0
LINE
8
annotation
62
1
39
211
10
74.794586
20
291.081975
11
74.623209
21
290.910733
0
LINE
8
annotation
62
1
39
211
10
74.623209
20
290.910733
11
74.482883
21
290.712582
0
LINE
8
annotation
62
1
39
211
10
74.482883
20
290.712582
11
74.377648
21
290.491588
0
LINE
8
annotation
62
1
39
211
10
74.377648
20
290.491588
11
74.311545
21
290.251818
0
LINE
8
annotation
62
1
39
211
10
74.311545
20
290.251818
11
74.288613
21
289.997338
0
LINE
8
annotation
62
1
39
211
10
74.288613
20
289.997338
11
74.288613
21
289.997338
0
LINE
8
annotation
62
1
39
211
10
74.288613
20
289.997338
11
74.311558
21
289.741664
0
LINE
8
annotation
62
1
39
211
10
74.311558
20
289.741664
11
74.377695
21
289.500963
0
LINE
8
annotation
62
1
39
211
10
74.377695
20
289.500963
11
74.482972
21
289.279270
0
LINE
8
annotation
62
1
39
211
10
74.482972
20
289.279270
11
74.623341
21
289.080618
0
LINE
8
annotation
62
1
39
211
10
74.623341
20
289.080618
11
74.794752
21
288.909040
0
LINE
8
annotation
62
1
39
211
10
74.794752
20
288.909040
11
74.993153
21
288.768569
0
LINE
8
annotation
62
1
39
211
10
74.993153
20
288.768569
11
75.214497
21
288.663239
0
LINE
8
annotation
62
1
39
211
10
75.214497
20
288.663239
11
75.454732
21
288.597083
0
LINE
8
annotation
62
1
39
211
10
75.454732
20
288.597083
11
75.709809
21
288.574135
0
LINE
8
annotation
62
1
39
211
10
75.709809
20
288.574135
11
75.709809
21
288.574135
0
LINE
8
annotation
62
1
39
211
10
75.709809
20
288.574135
11
75.964886
21
288.597083
0
LINE
8
annotation
62
1
39
211
10
75.964886
20
288.597083
11
76.205121
21
288.663239
0
LINE
8
annotation
62
1
39
211
10
76.205121
20
288.663239
11
76.426465
21
288.768569
0
LINE
8
annotation
62
1
39
211
10
76.426465
20
288.768569
11
76.624867
21
288.909040
0
LINE
8
annotation
62
1
39
211
10
76.624867
20
288.909040
11
76.796277
21
289.080618
0
LINE
8
annotation
62
1
39
211
10
76.796277
20
289.080618
11
76.936646
21
289.279270
0
LINE
8
annotation
62
1
39
211
10
76.936646
20
289.279270
11
77.041924
21
289.500963
0
LINE
8
annotation
62
1
39
211
10
77.041924
20
289.500963
11
77.108060
21
289.741664
0
LINE
8
annotation
62
1
39
211
10
77.108060
20
289.741664
11
77.131006
21
289.997338
0
LINE
8
annotation
62
1
39
211
10
71.741265
20
322.642990
11
71.741265
21
322.642990
0
LINE
8
annotation
62
1
39
211
10
71.741265
20
322.642990
11
72.147685
21
322.794442
0
LINE
8
annotation
62
1
39
211
10
72.147685
20
322.794442
11
72.520728
21
322.999157
0
LINE
8
annotation
62
1
39
211
10
72.520728
20
322.999157
11
72.856540
21
323.251919
0
LINE
8
annotation
62
1
39
211
10
72.856540
20
323.251919
11
73.151265
21
323.547512
0
LINE
8
annotation
62
1
39
211
10
73.151265
20
323.547512
11
73.401048
21
323.880720
0
LINE
8
annotation
62
1
39
211
10
73.401048
20
323.880720
11
73.602034
21
324.246327
0
LINE
8
annotation
62
1
39
211
10
73.602034
20
324.246327
11
73.750368
21
324.639117
0
LINE
8
annotation
62
1
39
211
10
73.750368
20
324.639117
11
73.842196
21
325.053874
0
LINE
8
annotation
62
1
39
211
10
73.842196
20
325.053874
11
73.873662
21
325.485383
0
LINE
8
annotation
62
1
39
211
10
73.873662
20
325.485383
11
73.873662
21
327.619786
0
LINE
8
annotation
62
1
39
211
10
73.873662
20
327.619786
11
73.873662
21
327.619786
0
LINE
8
annotation
62
1
39
211
10
73.873662
20
327.619786
11
73.850782
21
327.875461
0
LINE
8
annotation
62
1
39
211
10
73.850782
20
327.875461
11
73.784811
21
328.116161
0
LINE
8
annotation
62
1
39
211
10
73.784811
20
328.116161
11
73.679748
21
328.337854
0
LINE
8
annotation
62
1
39
211
10
73.679748
20
328.337854
11
73.539594
21
328.536507
0
LINE
8
annotation
62
1
39
211
10
73.539594
20
328.536507
11
73.368348
21
328.708085
0
LINE
8
annotation
62
1
39
211
10
73.368348
20
328.708085
11
73.170013
21
328.848556
0
LINE
8
annotation
62
1
39
211
10
73.170013
20
328.848556
11
72.948587
21
328.953886
0
LINE
8
annotation
62
1
39
211
10
72.948587
20
328.953886
11
72.708071
21
329.020041
0
LINE
8
annotation
62
1
39
211
10
72.708071
20
329.020041
11
72.452465
21
329.042990
0
LINE
8
annotation
62
1
39
211
10
72.452465
20
329.042990
11
72.452465
21
329.042990
0
LINE
8
annotation
62
1
39
211
10
72.452465
20
329.042990
11
72.197388
21
329.020041
0
LINE
8
annotation
62
1
39
211
10
72.197388
20
329.020041
11
71.957153
21
328.953886
0
LINE
8
annotation
62
1
39
211
10
71.957153
20
328.953886
11
71.735809
21
328.848556
0
LINE
8
annotation
62
1
39
211
10
71.735809
20
328.848556
11
71.537407
21
328.708085
0
LINE
8
annotation
62
1
39
211
10
71.537407
20
328.708085
11
71.365997
21
328.536507
0
LINE
8
annotation
62
1
39
211
10
71.365997
20
328.536507
11
71.225628
21
328.337854
0
LINE
8
annotation
62
1
39
211
10
71.225628
20
328.337854
11
71.120351
21
328.116161
0
LINE
8
annotation
62
1
39
211
10
71.120351
20
328.116161
11
71.054214
21
327.875461
0
LINE
8
annotation
62
1
39
211
10
71.054214
20
327.875461
11
71.031269
21
327.619786
0
LINE
8
annotation
62
1
39
211
10
71.031269
20
327.619786
11
71.031269
21
326.908185
0
LINE
8
annotation
62
1
39
211
10
71.031269
20
326.908185
11
71.031269
21
326.908185
0
LINE
8
annotation
62
1
39
211
10
71.031269
20
326.908185
11
71.054214
21
326.652524
0
LINE
8
annotation
62
1
39
211
10
71.054214
20
326.652524
11
71.120351
21
326.411860
0
LINE
8
annotation
62
1
39
211
10
71.120351
20
326.411860
11
71.225628
21
326.190221
0
LINE
8
annotation
62
1
39
211
10
71.225628
20
326.190221
11
71.365997
21
325.991632
0
LINE
8
annotation
62
1
39
211
10
71.365997
20
325.991632
11
71.537407
21
325.820120
0
LINE
8
annotation
62
1
39
211
10
71.537407
20
325.820120
11
71.735809
21
325.679713
0
LINE
8
annotation
62
1
39
211
10
71.735809
20
325.679713
11
71.957153
21
325.574436
0
LINE
8
annotation
62
1
39
211
10
71.957153
20
325.574436
11
72.197388
21
325.508317
0
LINE
8
annotation
62
1
39
211
10
72.197388
20
325.508317
11
72.452465
21
325.485383
0
LINE
8
annotation
62
1
39
211
10
72.452465
20
325.485383
11
73.873662
21
325.485383
0
LINE
8
annotation
62
1
39
211
10
70.853669
20
321.842990
11
74.053669
21
321.842990
0
LINE
8
annotation
62
1
39
211
10
67.397774
20
360.383145
11
67.397774
21
366.540105
0
LINE
8
annotation
62
1
39
211
10
67.397774
20
366.540105
11
66.029003
21
365.170948
0
LINE
8
annotation
62
1
39
211
10
70.695412
20
360.464357
11
70.695412
21
360.464357
0
LINE
8
annotation
62
1
39
211
10
70.695412
20
360.464357
11
70.838507
21
360.410865
0
LINE
8
annotation
62
1
39
211
10
70.838507
20
360.410865
11
70.985264
21
360.384288
0
LINE
8
annotation
62
1
39
211
10
70.985264
20
360.384288
11
71.132363
21
360.383545
0
LINE
8
annotation
62
1
39
211
10
71.132363
20
360.383545
11
71.276488
21
360.407552
0
LINE
8
annotation
62
1
39
211
10
71.276488
20
360.407552
11
71.414321
21
360.455224
0
LINE
8
annotation
62
1
39
211
10
71.414321
20
360.455224
11
71.542544
21
360.525478
0
LINE
8
annotation
62
1
39
211
10
71.542544
20
360.525478
11
71.657839
21
360.617230
0
LINE
8
annotation
62
1
39
211
10
71.657839
20
360.617230
11
71.756889
21
360.729397
0
LINE
8
annotation
62
1
39
211
10
71.756889
20
360.729397
11
71.836376
21
360.860896
0
LINE
8
annotation
62
1
39
211
10
71.836376
20
360.860896
11
71.836376
21
360.860896
0
LINE
8
annotation
62
1
39
211
10
71.836376
20
360.860896
11
72.073535
21
361.416025
0
LINE
8
annotation
62
1
39
211
10
72.073535
20
361.416025
11
72.251405
21
361.987222
0
LINE
8
annotation
62
1
39
211
10
72.251405
20
361.987222
11
72.369985
21
362.569932
0
LINE
8
annotation
62
1
39
211
10
72.369985
20
362.569932
11
72.429274
21
363.159602
0
LINE
8
annotation
62
1
39
211
10
72.429274
20
363.159602
11
72.429274
21
363.751678
0
LINE
8
annotation
62
1
39
211
10
72.429274
20
363.751678
11
72.369985
21
364.341605
0
LINE
8
annotation
62
1
39
211
10
72.369985
20
364.341605
11
72.251405
21
364.924830
0
LINE
8
annotation
62
1
39
211
10
72.251405
20
364.924830
11
72.073535
21
365.496799
0
LINE
8
annotation
62
1
39
211
10
72.073535
20
365.496799
11
71.836376
21
366.052959
0
LINE
8
annotation
62
1
39
211
10
71.836376
20
366.052959
11
71.836376
21
366.052959
0
LINE
8
annotation
62
1
39
211
10
71.836376
20
366.052959
11
71.806216
21
366.109087
0
LINE
8
annotation
62
1
39
211
10
71.806216
20
366.109087
11
71.772024
21
366.162749
0
LINE
8
annotation
62
1
39
211
10
71.772024
20
366.162749
11
71.734056
21
366.213682
0
LINE
8
annotation
62
1
39
211
10
71.734056
20
366.213682
11
71.692571
21
366.261621
0
LINE
8
annotation
62
1
39
211
10
71.692571
20
366.261621
11
71.647824
21
366.306302
0
LINE
8
annotation
62
1
39
211
10
71.647824
20
366.306302
11
71.600075
21
366.347463
0
LINE
8
annotation
62
1
39
211
10
71.600075
20
366.347463
11
71.549580
21
366.384838
0
LINE
8
annotation
62
1
39
211
10
71.549580
20
366.384838
11
71.496597
21
366.418165
0
LINE
8
annotation
62
1
39
211
10
71.496597
20
366.418165
11
71.441382
21
366.447180
0
LINE
8
annotation
62
1
39
211
10
71.441382
20
366.447180
11
71.441382
21
366.447180
0
LINE
8
annotation
62
1
39
211
10
71.441382
20
366.447180
11
71.297151
21
366.501832
0
LINE
8
annotation
62
1
39
211
10
71.297151
20
366.501832
11
71.149535
21
366.529317
0
LINE
8
annotation
62
1
39
211
10
71.149535
20
366.529317
11
71.001814
21
366.530724
0
LINE
8
annotation
62
1
39
211
10
71.001814
20
366.530724
11
70.857268
21
366.507143
0
LINE
8
annotation
62
1
39
211
10
70.857268
20
366.507143
11
70.719176
21
366.459664
0
LINE
8
annotation
62
1
39
211
10
70.719176
20
366.459664
11
70.590818
21
366.389378
0
LINE
8
annotation
62
1
39
211
10
70.590818
20
366.389378
11
70.475474
21
366.297373
0
LINE
8
annotation
62
1
39
211
10
70.475474
20
366.297373
11
70.376422
21
366.184742
0
LINE
8
annotation
62
1
39
211
10
70.376422
20
366.184742
11
70.296943
21
366.052572
0
LINE
8
annotation
62
1
39
211
10
70.296943
20
366.052572
11
70.296943
21
366.052572
0
LINE
8
annotation
62
1
39
211
10
70.296943
20
366.052572
11
70.060928
21
365.497557
0
LINE
8
annotation
62
1
39
211
10
70.060928
20
365.497557
11
69.883917
21
364.926446
0
LINE
8
annotation
62
1
39
211
10
69.883917
20
364.926446
11
69.765909
21
364.343793
0
LINE
8
annotation
62
1
39
211
10
69.765909
20
364.343793
11
69.706905
21
363.754152
0
LINE
8
annotation
62
1
39
211
10
69.706905
20
363.754152
11
69.706905
21
363.162076
0
LINE
8
annotation
62
1
39
211
10
69.706905
20
363.162076
11
69.765909
21
362.572120
0
LINE
8
annotation
62
1
39
211
10
69.765909
20
362.572120
11
69.883917
21
361.988838
0
LINE
8
annotation
62
1
39
211
10
69.883917
20
361.988838
11
70.060928
21
361.416783
0
LINE
8
annotation
62
1
39
211
10
70.060928
20
361.416783
11
70.296943
21
360.860509
0
LINE
8
annotation
62
1
39
211
10
70.296943
20
360.860509
11
70.296943
21
360.860509
0
LINE
8
annotation
62
1
39
211
10
70.296943
20
360.860509
11
70.326993
21
360.804493
0
LINE
8
annotation
62
1
39
211
10
70.326993
20
360.804493
11
70.360933
21
360.751098
0
LINE
8
annotation
62
1
39
211
10
70.360933
20
360.751098
11
70.398620
21
360.700487
0
LINE
8
annotation
62
1
39
211
10
70.398620
20
360.700487
11
70.439910
21
360.652822
0
LINE
8
annotation
62
1
39
211
10
70.439910
20
360.652822
11
70.484661
21
360.608265
0
LINE
8
annotation
62
1
39
211
10
70.484661
20
360.608265
11
70.532730
21
360.566978
0
LINE
8
annotation
62
1
39
211
10
70.532730
20
360.566978
11
70.583973
21
360.529123
0
LINE
8
annotation
62
1
39
211
10
70.583973
20
360.529123
11
70.638248
21
360.494862
0
LINE
8
annotation
62
1
39
211
10
70.638248
20
360.494862
11
70.695412
21
360.464357
0
LINE
8
annotation
62
1
39
211
10
82.478738
20
324.475910
11
77.967826
21
317.951290
0
LINE
8
annotation
62
1
39
211
10
77.967826
20
317.951290
11
73.456066
21
324.475910
0
LINE
8
annotation
62
1
39
211
10
77.967826
20
318.476347
11
77.967826
21
310.949113
0
LINE
8
annotation
62
1
39
211
10
94.948423
20
317.712512
11
87.552665
21
317.712512
0
LINE
8
annotation
62
1
39
211
10
104.531141
20
324.475486
11
104.531141
21
324.475486
0
LINE
8
annotation
62
1
39
211
10
104.531141
20
324.475486
11
103.670686
21
324.152867
0
LINE
8
annotation
62
1
39
211
10
103.670686
20
324.152867
11
102.881105
21
323.718177
0
LINE
8
annotation
62
1
39
211
10
102.881105
20
323.718177
11
102.170504
21
323.182305
0
LINE
8
annotation
62
1
39
211
10
102.170504
20
323.182305
11
101.546989
21
322.556144
0
LINE
8
annotation
62
1
39
211
10
101.546989
20
322.556144
11
101.018664
21
321.850584
0
LINE
8
annotation
62
1
39
211
10
101.018664
20
321.850584
11
100.593636
21
321.076516
0
LINE
8
annotation
62
1
39
211
10
100.593636
20
321.076516
11
100.280009
21
320.244831
0
LINE
8
annotation
62
1
39
211
10
100.280009
20
320.244831
11
100.085889
21
319.366419
0
LINE
8
annotation
62
1
39
211
10
100.085889
20
319.366419
11
100.019381
21
318.452172
0
LINE
8
annotation
62
1
39
211
10
100.019381
20
318.452172
11
100.019381
21
313.956529
0
LINE
8
annotation
62
1
39
211
10
100.019381
20
313.956529
11
100.019381
21
313.956529
0
LINE
8
annotation
62
1
39
211
10
100.019381
20
313.956529
11
100.067875
21
313.416208
0
LINE
8
annotation
62
1
39
211
10
100.067875
20
313.416208
11
100.207650
21
312.907583
0
LINE
8
annotation
62
1
39
211
10
100.207650
20
312.907583
11
100.430147
21
312.439163
0
LINE
8
annotation
62
1
39
211
10
100.430147
20
312.439163
11
100.726807
21
312.019459
0
LINE
8
annotation
62
1
39
211
10
100.726807
20
312.019459
11
101.089070
21
311.656981
0
LINE
8
annotation
62
1
39
211
10
101.089070
20
311.656981
11
101.508379
21
311.360240
0
LINE
8
annotation
62
1
39
211
10
101.508379
20
311.360240
11
101.976172
21
311.137745
0
LINE
8
annotation
62
1
39
211
10
101.976172
20
311.137745
11
102.483893
21
310.998007
0
LINE
8
annotation
62
1
39
211
10
102.483893
20
310.998007
11
103.022980
21
310.949537
0
LINE
8
annotation
62
1
39
211
10
103.022980
20
310.949537
11
103.022980
21
310.949537
0
LINE
8
annotation
62
1
39
211
10
103.022980
20
310.949537
11
103.563184
21
310.998007
0
LINE
8
annotation
62
1
39
211
10
103.563184
20
310.998007
11
104.071498
21
311.137745
0
LINE
8
annotation
62
1
39
211
10
104.071498
20
311.137745
11
104.539466
21
311.360240
0
LINE
8
annotation
62
1
39
211
10
104.539466
20
311.360240
11
104.958635
21
311.656981
0
LINE
8
annotation
62
1
39
211
10
104.958635
20
311.656981
11
105.320550
21
312.019459
0
LINE
8
annotation
62
1
39
211
10
105.320550
20
312.019459
11
105.616756
21
312.439163
0
LINE
8
annotation
62
1
39
211
10
105.616756
20
312.439163
11
105.838799
21
312.907583
0
LINE
8
annotation
62
1
39
211
10
105.838799
20
312.907583
11
105.978225
21
313.416208
0
LINE
8
annotation
62
1
39
211
10
105.978225
20
313.416208
11
106.026579
21
313.956529
0
LINE
8
annotation
62
1
39
211
10
106.026579
20
313.956529
11
106.026579
21
315.452815
0
LINE
8
annotation
62
1
39
211
10
106.026579
20
315.452815
11
106.026579
21
315.452815
0
LINE
8
annotation
62
1
39
211
10
106.026579
20
315.452815
11
105.978225
21
315.992874
0
LINE
8
annotation
62
1
39
211
10
105.978225
20
315.992874
11
105.838799
21
316.500797
0
LINE
8
annotation
62
1
39
211
10
105.838799
20
316.500797
11
105.616756
21
316.968201
0
LINE
8
annotation
62
1
39
211
10
105.616756
20
316.968201
11
105.320550
21
317.386701
0
LINE
8
annotation
62
1
39
211
10
105.320550
20
317.386701
11
104.958635
21
317.747912
0
LINE
8
annotation
62
1
39
211
10
104.958635
20
317.747912
11
104.539466
21
318.043449
0
LINE
8
annotation
62
1
39
211
10
104.539466
20
318.043449
11
104.071498
21
318.264928
0
LINE
8
annotation
62
1
39
211
10
104.071498
20
318.264928
11
103.563184
21
318.403964
0
LINE
8
annotation
62
1
39
211
10
103.563184
20
318.403964
11
103.022980
21
318.452172
0
LINE
8
annotation
62
1
39
211
10
103.022980
20
318.452172
11
100.019381
21
318.452172
0
LINE
8
annotation
62
1
39
211
10
99.643189
20
309.258793
11
106.406164
21
309.258793
0
LINE
8
boundary
62
5
39
2
10
52.759632
20
392.445565
11
59.378989
21
388.933799
0
LINE
8
boundary
62
5
39
2
10
59.378989
20
388.933799
11
68.512302
21
386.538107
0
LINE
8
boundary
62
5
39
2
10
68.512302
20
386.538107
11
77.338651
21
385.467229
0
LINE
8
boundary
62
5
39
2
10
77.338651
20
385.467229
11
81.021447
21
385.445742
0
LINE
8
boundary
62
5
39
2
10
81.021447
20
385.445742
11
87.074817
21
385.819406
0
LINE
8
boundary
62
5
39
2
10
87.074817
20
385.819406
11
92.693229
21
386.785362
0
LINE
8
boundary
62
5
39
2
10
92.693229
20
386.785362
11
95.161524
21
387.227721
0
LINE
8
boundary
62
5
39
2
10
95.161524
20
387.227721
11
96.761352
21
387.881642
0
LINE
8
boundary
62
5
39
2
10
96.761352
20
387.881642
11
101.248662
21
389.769431
0
LINE
8
boundary
62
5
39
2
10
101.248662
20
389.769431
11
102.344517
21
390.465471
0
LINE
8
boundary
62
5
39
2
10
102.344517
20
390.465471
11
105.709234
21
393.264379
0
LINE
8
boundary
62
5
39
2
10
105.709234
20
393.264379
11
106.595788
21
394.959969
0
LINE
8
boundary
62
5
39
2
10
106.595788
20
394.959969
11
108.994275
21
398.630020
0
LINE
8
boundary
62
5
39
2
10
108.994275
20
398.630020
11
108.959471
21
401.930400
0
LINE
8
boundary
62
5
39
2
10
108.959471
20
401.930400
11
109.478772
21
404.376316
0
LINE
8
boundary
62
5
39
2
10
109.478772
20
404.376316
11
108.540035
21
408.705051
0
LINE
8
boundary
62
5
39
2
10
108.540035
20
408.705051
11
108.149577
21
411.309202
0
LINE
8
boundary
62
5
39
2
10
108.149577
20
411.309202
11
107.306210
21
413.090881
0
LINE
8
boundary
62
5
39
2
10
107.306210
20
413.090881
11
106.245696
21
418.152747
0
LINE
8
boundary
62
5
39
2
10
106.245696
20
418.152747
11
105.920101
21
420.027954
0
LINE
8
boundary
62
5
39
2
10
105.920101
20
420.027954
11
105.376643
21
424.748994
0
LINE
8
boundary
62
5
39
2
10
105.376643
20
424.748994
11
105.486021
21
427.194712
0
LINE
8
boundary
62
5
39
2
10
105.486021
20
427.194712
11
105.884325
21
433.255042
0
LINE
8
boundary
62
5
39
2
10
105.884325
20
433.255042
11
104.905691
21
436.671579
0
LINE
8
boundary
62
5
39
2
10
104.905691
20
436.671579
11
104.285808
21
444.848014
0
LINE
8
boundary
62
5
39
2
10
104.285808
20
444.848014
11
102.895357
21
449.100246
0
LINE
8
boundary
62
5
39
2
10
102.895357
20
449.100246
11
101.141791
21
457.961215
0
LINE
8
boundary
62
5
39
2
10
101.141791
20
457.961215
11
99.557842
21
467.538290
0
LINE
8
boundary
62
5
39
2
10
99.557842
20
467.538290
11
99.103196
21
472.992127
0
LINE
8
boundary
62
5
39
2
10
99.103196
20
472.992127
11
97.123985
21
491.576553
0
LINE
8
boundary
62
5
39
2
10
97.123985
20
491.576553
11
97.010755
21
492.412893
0
LINE
8
boundary
62
5
39
2
10
97.010755
20
492.412893
11
96.663099
21
500.791285
0
LINE
8
boundary
62
5
39
2
10
96.663099
20
500.791285
11
95.731701
21
516.866171
0
LINE
8
boundary
62
5
39
2
10
95.731701
20
516.866171
11
95.458540
21
519.340128
0
LINE
8
boundary
62
5
39
2
10
95.458540
20
519.340128
11
95.280000
21
551.694793
0
LINE
8
boundary
62
5
39
2
10
95.280000
20
551.694793
11
95.205775
21
557.915420
0
LINE
8
boundary
62
5
39
2
10
95.205775
20
557.915420
11
95.228905
21
563.668930
0
LINE
8
boundary
62
5
39
2
10
95.228905
20
563.668930
11
95.773246
21
606.525610
0
LINE
8
boundary
62
5
39
2
10
95.773246
20
606.525610
11
97.118114
21
650.550005
0
LINE
8
boundary
62
5
39
2
10
97.118114
20
650.550005
11
97.668495
21
661.428575
0
LINE
8
boundary
62
5
39
2
10
97.668495
20
661.428575
11
99.634731
21
704.443671
0
LINE
8
boundary
62
5
39
2
10
99.634731
20
704.443671
11
100.328678
21
717.438836
0
LINE
8
boundary
62
5
39
2
10
100.328678
20
717.438836
11
98.836477
21
757.378504
0
LINE
8
boundary
62
5
39
2
10
98.836477
20
757.378504
11
98.803446
21
758.790429
0
LINE
8
boundary
62
5
39
2
10
98.803446
20
758.790429
11
98.091833
21
758.790506
0
LINE
8
boundary
62
5
39
2
10
98.091833
20
758.790506
11
96.439091
21
758.790490
0
LINE
8
boundary
62
5
39
2
10
96.439091
20
758.790490
11
52.452319
21
758.790483
0
LINE
8
boundary
62
5
39
2
10
52.452319
20
758.790483
11
33.864343
21
758.790565
0
LINE
8
boundary
62
5
39
2
10
33.864343
20
758.790565
11
23.079050
21
758.790592
0
LINE
8
boundary
62
5
39
2
10
23.079050
20
758.790592
11
19.102216
21
758.790588
0
LINE
8
boundary
62
5
39
2
10
19.102216
20
758.790588
11
16.649024
21
758.790590
0
LINE
8
boundary
62
5
39
2
10
16.649024
20
758.790590
11
14.717392
21
758.790592
0
LINE
8
boundary
62
5
39
2
10
14.717392
20
758.790592
11
10.963263
21
758.790584
0
LINE
8
boundary
62
5
39
2
10
10.963263
20
758.790584
11
7.060595
21
758.790233
0
LINE
8
boundary
62
5
39
2
10
7.060595
20
758.790233
11
6.734522
21
757.550643
0
LINE
8
boundary
62
5
39
2
10
6.734522
20
757.550643
11
6.982876
21
755.948053
0
LINE
8
boundary
62
5
39
2
10
6.982876
20
755.948053
11
8.454285
21
745.542502
0
LINE
8
boundary
62
5
39
2
10
8.454285
20
745.542502
11
9.012831
21
742.056539
0
LINE
8
boundary
62
5
39
2
10
9.012831
20
742.056539
11
54.173615
21
741.856539
0
LINE
8
boundary
62
5
39
2
10
54.173615
20
741.856539
11
54.173616
21
738.110539
0
LINE
8
boundary
62
5
39
2
10
54.173616
20
738.110539
11
9.737434
21
738.110539
0
LINE
8
boundary
62
5
39
2
10
9.737434
20
738.110539
11
10.767641
21
731.104535
0
LINE
8
boundary
62
5
39
2
10
10.767641
20
731.104535
11
11.192446
21
728.453041
0
LINE
8
boundary
62
5
39
2
10
11.192446
20
728.453041
11
11.685634
21
726.014995
0
LINE
8
boundary
62
5
39
2
10
11.685634
20
726.014995
11
12.346837
21
721.879169
0
LINE
8
boundary
62
5
39
2
10
12.346837
20
721.879169
11
15.088594
21
704.437904
0
LINE
8
boundary
62
5
39
2
10
15.088594
20
704.437904
11
57.245680
21
704.237904
0
LINE
8
boundary
62
5
39
2
10
57.245680
20
704.237904
11
57.245679
21
700.491904
0
LINE
8
boundary
62
5
39
2
10
57.245679
20
700.491904
11
15.800643
21
700.491903
0
LINE
8
boundary
62
5
39
2
10
15.800643
20
700.491903
11
15.897829
21
699.290075
0
LINE
8
boundary
62
5
39
2
10
15.897829
20
699.290075
11
18.065769
21
687.045954
0
LINE
8
boundary
62
5
39
2
10
18.065769
20
687.045954
11
18.412382
21
685.086108
0
LINE
8
boundary
62
5
39
2
10
18.412382
20
685.086108
11
21.648612
21
666.819269
0
LINE
8
boundary
62
5
39
2
10
21.648612
20
666.819269
11
59.667904
21
666.619269
0
LINE
8
boundary
62
5
39
2
10
59.667904
20
666.619269
11
59.667904
21
662.873269
0
LINE
8
boundary
62
5
39
2
10
59.667904
20
662.873269
11
22.443434
21
662.873269
0
LINE
8
boundary
62
5
39
2
10
22.443434
20
662.873269
11
25.830821
21
643.212865
0
LINE
8
boundary
62
5
39
2
10
25.830821
20
643.212865
11
27.011585
21
637.176539
0
LINE
8
boundary
62
5
39
2
10
27.011585
20
637.176539
11
28.535302
21
629.200631
0
LINE
8
boundary
62
5
39
2
10
28.535302
20
629.200631
11
62.389664
21
629.000633
0
LINE
8
boundary
62
5
39
2
10
62.389664
20
629.000633
11
62.389664
21
625.254633
0
LINE
8
boundary
62
5
39
2
10
62.389664
20
625.254633
11
29.387653
21
625.254633
0
LINE
8
boundary
62
5
39
2
10
29.387653
20
625.254633
11
34.786259
21
596.479954
0
LINE
8
boundary
62
5
39
2
10
34.786259
20
596.479954
11
35.823638
21
591.581994
0
LINE
8
boundary
62
5
39
2
10
35.823638
20
591.581994
11
65.596449
21
591.381998
0
LINE
8
boundary
62
5
39
2
10
65.596449
20
591.381998
11
65.596449
21
587.635998
0
LINE
8
boundary
62
5
39
2
10
65.596449
20
587.635998
11
36.769404
21
587.635998
0
LINE
8
boundary
62
5
39
2
10
36.769404
20
587.635998
11
43.795702
21
554.700989
0
LINE
8
boundary
62
5
39
2
10
43.795702
20
554.700989
11
43.894113
21
553.963363
0
LINE
8
boundary
62
5
39
2
10
43.894113
20
553.963363
11
69.478026
21
553.763363
0
LINE
8
boundary
62
5
39
2
10
69.478026
20
553.763363
11
69.478026
21
550.017363
0
LINE
8
boundary
62
5
39
2
10
69.478026
20
550.017363
11
44.507551
21
550.017363
0
LINE
8
boundary
62
5
39
2
10
44.507551
20
550.017363
11
47.763031
21
524.964224
0
LINE
8
boundary
62
5
39
2
10
47.763031
20
524.964224
11
47.904447
21
523.947580
0
LINE
8
boundary
62
5
39
2
10
47.904447
20
523.947580
11
47.928516
21
523.350798
0
LINE
8
boundary
62
5
39
2
10
47.928516
20
523.350798
11
48.647437
21
516.344726
0
LINE
8
boundary
62
5
39
2
10
48.647437
20
516.344726
11
72.202255
21
516.144728
0
LINE
8
boundary
62
5
39
2
10
72.202255
20
516.144728
11
72.202255
21
512.398727
0
LINE
8
boundary
62
5
39
2
10
72.202255
20
512.398727
11
49.133174
21
512.398727
0
LINE
8
boundary
62
5
39
2
10
49.133174
20
512.398727
11
50.149159
21
501.710042
0
LINE
8
boundary
62
5
39
2
10
50.149159
20
501.710042
11
49.285152
21
490.748768
0
LINE
8
boundary
62
5
39
2
10
49.285152
20
490.748768
11
48.910084
21
485.111999
0
LINE
8
boundary
62
5
39
2
10
48.910084
20
485.111999
11
47.938414
21
478.726092
0
LINE
8
boundary
62
5
39
2
10
47.938414
20
478.726092
11
72.998389
21
478.526092
0
LINE
8
boundary
62
5
39
2
10
72.998389
20
478.526092
11
72.998388
21
474.780093
0
LINE
8
boundary
62
5
39
2
10
72.998388
20
474.780093
11
47.367865
21
474.780093
0
LINE
8
boundary
62
5
39
2
10
47.367865
20
474.780093
11
46.946093
21
472.204468
0
LINE
8
boundary
62
5
39
2
10
46.946093
20
472.204468
11
46.011607
21
467.228970
0
LINE
8
boundary
62
5
39
2
10
46.011607
20
467.228970
11
44.352801
21
457.939901
0
LINE
8
boundary
62
5
39
2
10
44.352801
20
457.939901
11
43.883348
21
445.747506
0
LINE
8
boundary
62
5
39
2
10
43.883348
20
445.747506
11
44.095648
21
441.107456
0
LINE
8
boundary
62
5
39
2
10
44.095648
20
441.107456
11
74.358623
21
440.907457
0
LINE
8
boundary
62
5
39
2
10
74.358623
20
440.907457
11
74.358623
21
437.161457
0
LINE
8
boundary
62
5
39
2
10
74.358623
20
437.161457
11
44.338686
21
437.161457
0
LINE
8
boundary
62
5
39
2
10
44.338686
20
437.161457
11
44.356726
21
435.184056
0
LINE
8
boundary
62
5
39
2
10
44.356726
20
435.184056
11
44.365543
21
434.651345
0
LINE
8
boundary
62
5
39
2
10
44.365543
20
434.651345
11
45.244295
21
425.951119
0
LINE
8
boundary
62
5
39
2
10
45.244295
20
425.951119
11
45.350952
21
424.790969
0
LINE
8
boundary
62
5
39
2
10
45.350952
20
424.790969
11
46.243494
21
416.331727
0
LINE
8
boundary
62
5
39
2
10
46.243494
20
416.331727
11
46.254964
21
415.134030
0
LINE
8
boundary
62
5
39
2
10
46.254964
20
415.134030
11
46.706752
21
408.260304
0
LINE
8
boundary
62
5
39
2
10
46.706752
20
408.260304
11
46.693514
21
407.316341
0
LINE
8
boundary
62
5
39
2
10
46.693514
20
407.316341
11
46.973325
21
401.609619
0
LINE
8
boundary
62
5
39
2
10
46.973325
20
401.609619
11
77.973544
21
401.409619
0
LINE
8
boundary
62
5
39
2
10
77.973544
20
401.409619
11
77.973544
21
397.663619
0
LINE
8
boundary
62
5
39
2
10
77.973544
20
397.663619
11
48.691264
21
397.663619
0
LINE
8
boundary
62
5
39
2
10
48.691264
20
397.663619
11
51.102699
21
393.841433
0
LINE
8
boundary
62
5
39
2
10
51.102699
20
393.841433
11
51.540580
21
393.120485
0
LINE
8
boundary
62
5
39
2
10
51.540580
20
393.120485
11
52.759632
21
392.445565
0
LINE
8
annotation
62
1
39
211
10
86.811343
20
396.336619
11
86.811343
21
402.736619
0
LINE
8
annotation
62
1
39
211
10
86.811343
20
402.736619
11
85.388541
21
401.313416
0
LINE
8
annotation
62
1
39
211
10
83.906017
20
435.834405
11
81.063624
21
435.834405
0
LINE
8
annotation
62
1
39
211
10
81.063624
20
435.834405
11
83.690088
21
440.062675
0
LINE
8
annotation
62
1
39
211
10
83.690088
20
440.062675
11
83.690088
21
440.062675
0
LINE
8
annotation
62
1
39
211
10
83.690088
20
440.062675
11
83.693228
21
440.066561
0
LINE
8
annotation
62
1
39
211
10
83.693228
20
440.066561
11
83.696239
21
440.070479
0
LINE
8
annotation
62
1
39
211
10
83.696239
20
440.070479
11
83.699141
21
440.074463
0
LINE
8
annotation
62
1
39
211
10
83.699141
20
440.074463
11
83.701954
21
440.078547
0
LINE
8
annotation
62
1
39
211
10
83.701954
20
440.078547
11
83.704697
21
440.082762
0
LINE
8
annotation
62
1
39
211
10
83.704697
20
440.082762
11
83.707391
21
440.087143
0
LINE
8
annotation
62
1
39
211
10
83.707391
20
440.087143
11
83.710055
21
440.091722
0
LINE
8
annotation
62
1
39
211
10
83.710055
20
440.091722
11
83.712709
21
440.096532
0
LINE
8
annotation
62
1
39
211
10
83.712709
20
440.096532
11
83.715373
21
440.101607
0
LINE
8
annotation
62
1
39
211
10
83.715373
20
440.101607
11
83.715373
21
440.101607
0
LINE
8
annotation
62
1
39
211
10
83.715373
20
440.101607
11
83.823819
21
440.334450
0
LINE
8
annotation
62
1
39
211
10
83.823819
20
440.334450
11
83.887172
21
440.575812
0
LINE
8
annotation
62
1
39
211
10
83.887172
20
440.575812
11
83.906983
21
440.820240
0
LINE
8
annotation
62
1
39
211
10
83.906983
20
440.820240
11
83.884805
21
441.062279
0
LINE
8
annotation
62
1
39
211
10
83.884805
20
441.062279
11
83.822192
21
441.296476
0
LINE
8
annotation
62
1
39
211
10
83.822192
20
441.296476
11
83.720695
21
441.517378
0
LINE
8
annotation
62
1
39
211
10
83.720695
20
441.517378
11
83.581867
21
441.719529
0
LINE
8
annotation
62
1
39
211
10
83.581867
20
441.719529
11
83.407261
21
441.897478
0
LINE
8
annotation
62
1
39
211
10
83.407261
20
441.897478
11
83.198429
21
442.045768
0
LINE
8
annotation
62
1
39
211
10
83.198429
20
442.045768
11
83.198429
21
442.045768
0
LINE
8
annotation
62
1
39
211
10
83.198429
20
442.045768
11
82.964938
21
442.152674
0
LINE
8
annotation
62
1
39
211
10
82.964938
20
442.152674
11
82.723206
21
442.215050
0
LINE
8
annotation
62
1
39
211
10
82.723206
20
442.215050
11
82.478636
21
442.234301
0
LINE
8
annotation
62
1
39
211
10
82.478636
20
442.234301
11
82.236633
21
442.211831
0
LINE
8
annotation
62
1
39
211
10
82.236633
20
442.211831
11
82.002601
21
442.149044
0
LINE
8
annotation
62
1
39
211
10
82.002601
20
442.149044
11
81.781944
21
442.047344
0
LINE
8
annotation
62
1
39
211
10
81.781944
20
442.047344
11
81.580067
21
441.908135
0
LINE
8
annotation
62
1
39
211
10
81.580067
20
441.908135
11
81.402373
21
441.732820
0
LINE
8
annotation
62
1
39
211
10
81.402373
20
441.732820
11
81.254267
21
441.522803
0
LINE
8
annotation
62
1
39
211
10
81.254267
20
441.522803
11
81.067637
21
441.164795
0
LINE
8
annotation
62
1
39
211
10
79.703389
20
473.453293
11
81.124586
21
473.453293
0
LINE
8
annotation
62
1
39
211
10
81.124586
20
473.453293
11
81.124586
21
473.453293
0
LINE
8
annotation
62
1
39
211
10
81.124586
20
473.453293
11
81.380191
21
473.476223
0
LINE
8
annotation
62
1
39
211
10
81.380191
20
473.476223
11
81.620707
21
473.542307
0
LINE
8
annotation
62
1
39
211
10
81.620707
20
473.542307
11
81.842133
21
473.647489
0
LINE
8
annotation
62
1
39
211
10
81.842133
20
473.647489
11
82.040469
21
473.787713
0
LINE
8
annotation
62
1
39
211
10
82.040469
20
473.787713
11
82.211714
21
473.958923
0
LINE
8
annotation
62
1
39
211
10
82.211714
20
473.958923
11
82.351869
21
474.157061
0
LINE
8
annotation
62
1
39
211
10
82.351869
20
474.157061
11
82.456932
21
474.378071
0
LINE
8
annotation
62
1
39
211
10
82.456932
20
474.378071
11
82.522903
21
474.617897
0
LINE
8
annotation
62
1
39
211
10
82.522903
20
474.617897
11
82.545782
21
474.872483
0
LINE
8
annotation
62
1
39
211
10
82.545782
20
474.872483
11
82.545782
21
475.584084
0
LINE
8
annotation
62
1
39
211
10
82.545782
20
475.584084
11
82.545782
21
475.584084
0
LINE
8
annotation
62
1
39
211
10
82.545782
20
475.584084
11
82.522903
21
475.838564
0
LINE
8
annotation
62
1
39
211
10
82.522903
20
475.838564
11
82.456932
21
476.078334
0
LINE
8
annotation
62
1
39
211
10
82.456932
20
476.078334
11
82.351869
21
476.299328
0
LINE
8
annotation
62
1
39
211
10
82.351869
20
476.299328
11
82.211714
21
476.497479
0
LINE
8
annotation
62
1
39
211
10
82.211714
20
476.497479
11
82.040469
21
476.668722
0
LINE
8
annotation
62
1
39
211
10
82.040469
20
476.668722
11
81.842133
21
476.808989
0
LINE
8
annotation
62
1
39
211
10
81.842133
20
476.808989
11
81.620707
21
476.914214
0
LINE
8
annotation
62
1
39
211
10
81.620707
20
476.914214
11
81.380191
21
476.980331
0
LINE
8
annotation
62
1
39
211
10
81.380191
20
476.980331
11
81.124586
21
477.003274
0
LINE
8
annotation
62
1
39
211
10
81.124586
20
477.003274
11
80.412984
21
477.003274
0
LINE
8
annotation
62
1
39
211
10
80.412984
20
477.003274
11
81.124586
21
477.003274
0
LINE
8
annotation
62
1
39
211
10
81.124586
20
477.003274
11
81.124586
21
477.003274
0
LINE
8
annotation
62
1
39
211
10
81.124586
20
477.003274
11
81.380191
21
477.026222
0
LINE
8
annotation
62
1
39
211
10
81.380191
20
477.026222
11
81.620707
21
477.092378
0
LINE
8
annotation
62
1
39
211
10
81.620707
20
477.092378
11
81.842133
21
477.197708
0
LINE
8
annotation
62
1
39
211
10
81.842133
20
477.197708
11
82.040469
21
477.338179
0
LINE
8
annotation
62
1
39
211
10
82.040469
20
477.338179
11
82.211714
21
477.509757
0
LINE
8
annotation
62
1
39
211
10
82.211714
20
477.509757
11
82.351869
21
477.708410
0
LINE
8
annotation
62
1
39
211
10
82.351869
20
477.708410
11
82.456932
21
477.930103
0
LINE
8
annotation
62
1
39
211
10
82.456932
20
477.930103
11
82.522903
21
478.170803
0
LINE
8
annotation
62
1
39
211
10
82.522903
20
478.170803
11
82.545782
21
478.426478
0
LINE
8
annotation
62
1
39
211
10
82.545782
20
478.426478
11
82.545782
21
478.426478
0
LINE
8
annotation
62
1
39
211
10
82.545782
20
478.426478
11
82.522903
21
478.680957
0
LINE
8
annotation
62
1
39
211
10
82.522903
20
478.680957
11
82.456932
21
478.920727
0
LINE
8
annotation
62
1
39
211
10
82.456932
20
478.920727
11
82.351869
21
479.141721
0
LINE
8
annotation
62
1
39
211
10
82.351869
20
479.141721
11
82.211714
21
479.339872
0
LINE
8
annotation
62
1
39
211
10
82.211714
20
479.339872
11
82.040469
21
479.511115
0
LINE
8
annotation
62
1
39
211
10
82.040469
20
479.511115
11
81.842133
21
479.651382
0
LINE
8
annotation
62
1
39
211
10
81.842133
20
479.651382
11
81.620707
21
479.756607
0
LINE
8
annotation
62
1
39
211
10
81.620707
20
479.756607
11
81.380191
21
479.822725
0
LINE
8
annotation
62
1
39
211
10
81.380191
20
479.822725
11
81.124586
21
479.845667
0
LINE
8
annotation
62
1
39
211
10
81.124586
20
479.845667
11
79.703389
21
479.845667
0
LINE
8
annotation
62
1
39
211
10
82.105249
20
512.494530
11
78.551655
21
512.494530
0
LINE
8
annotation
62
1
39
211
10
78.551655
20
512.494530
11
79.970845
21
517.471728
0
LINE
8
annotation
62
1
39
211
10
81.040054
20
511.071728
11
81.040054
21
513.914121
0
LINE
8
annotation
62
1
39
211
10
76.183027
20
548.690363
11
77.604223
21
548.690363
0
LINE
8
annotation
62
1
39
211
10
77.604223
20
548.690363
11
77.604223
21
548.690363
0
LINE
8
annotation
62
1
39
211
10
77.604223
20
548.690363
11
77.859300
21
548.713297
0
LINE
8
annotation
62
1
39
211
10
77.859300
20
548.713297
11
78.099536
21
548.779416
0
LINE
8
annotation
62
1
39
211
10
78.099536
20
548.779416
11
78.320879
21
548.884693
0
LINE
8
annotation
62
1
39
211
10
78.320879
20
548.884693
11
78.519281
21
549.025100
0
LINE
8
annotation
62
1
39
211
10
78.519281
20
549.025100
11
78.690691
21
549.196612
0
LINE
8
annotation
62
1
39
211
10
78.690691
20
549.196612
11
78.831060
21
549.395201
0
LINE
8
annotation
62
1
39
211
10
78.831060
20
549.395201
11
78.936338
21
549.616841
0
LINE
8
annotation
62
1
39
211
10
78.936338
20
549.616841
11
79.002474
21
549.857504
0
LINE
8
annotation
62
1
39
211
10
79.002474
20
549.857504
11
79.025420
21
550.113165
0
LINE
8
annotation
62
1
39
211
10
79.025420
20
550.113165
11
79.025420
21
550.821154
0
LINE
8
annotation
62
1
39
211
10
79.025420
20
550.821154
11
79.025420
21
550.821154
0
LINE
8
annotation
62
1
39
211
10
79.025420
20
550.821154
11
79.002488
21
551.076691
0
LINE
8
annotation
62
1
39
211
10
79.002488
20
551.076691
11
78.936384
21
551.317023
0
LINE
8
annotation
62
1
39
211
10
78.936384
20
551.317023
11
78.831149
21
551.538182
0
LINE
8
annotation
62
1
39
211
10
78.831149
20
551.538182
11
78.690823
21
551.736201
0
LINE
8
annotation
62
1
39
211
10
78.690823
20
551.736201
11
78.519446
21
551.907113
0
LINE
8
annotation
62
1
39
211
10
78.519446
20
551.907113
11
78.321057
21
552.046951
0
LINE
8
annotation
62
1
39
211
10
78.321057
20
552.046951
11
78.099697
21
552.151747
0
LINE
8
annotation
62
1
39
211
10
78.099697
20
552.151747
11
77.859406
21
552.217533
0
LINE
8
annotation
62
1
39
211
10
77.859406
20
552.217533
11
77.604223
21
552.240344
0
LINE
8
annotation
62
1
39
211
10
77.604223
20
552.240344
11
76.183027
21
552.240344
0
LINE
8
annotation
62
1
39
211
10
76.183027
20
552.240344
11
76.183027
21
555.090363
0
LINE
8
annotation
62
1
39
211
10
76.183027
20
555.090363
11
79.025420
21
555.090363
0
LINE
8
annotation
62
1
39
211
10
74.436254
20
592.708998
11
74.436254
21
592.708998
0
LINE
8
annotation
62
1
39
211
10
74.436254
20
592.708998
11
74.029117
21
592.556346
0
LINE
8
annotation
62
1
39
211
10
74.029117
20
592.556346
11
73.655516
21
592.350666
0
LINE
8
annotation
62
1
39
211
10
73.655516
20
592.350666
11
73.319285
21
592.097111
0
LINE
8
annotation
62
1
39
211
10
73.319285
20
592.097111
11
73.024259
21
591.800833
0
LINE
8
annotation
62
1
39
211
10
73.024259
20
591.800833
11
72.774275
21
591.466987
0
LINE
8
annotation
62
1
39
211
10
72.774275
20
591.466987
11
72.573167
21
591.100726
0
LINE
8
annotation
62
1
39
211
10
72.573167
20
591.100726
11
72.424769
21
590.707202
0
LINE
8
annotation
62
1
39
211
10
72.424769
20
590.707202
11
72.332919
21
590.291568
0
LINE
8
annotation
62
1
39
211
10
72.332919
20
590.291568
11
72.301449
21
589.858979
0
LINE
8
annotation
62
1
39
211
10
72.301449
20
589.858979
11
72.301449
21
587.731800
0
LINE
8
annotation
62
1
39
211
10
72.301449
20
587.731800
11
72.301449
21
587.731800
0
LINE
8
annotation
62
1
39
211
10
72.301449
20
587.731800
11
72.324395
21
587.476139
0
LINE
8
annotation
62
1
39
211
10
72.324395
20
587.476139
11
72.390531
21
587.235476
0
LINE
8
annotation
62
1
39
211
10
72.390531
20
587.235476
11
72.495809
21
587.013836
0
LINE
8
annotation
62
1
39
211
10
72.495809
20
587.013836
11
72.636178
21
586.815247
0
LINE
8
annotation
62
1
39
211
10
72.636178
20
586.815247
11
72.807588
21
586.643736
0
LINE
8
annotation
62
1
39
211
10
72.807588
20
586.643736
11
73.005990
21
586.503328
0
LINE
8
annotation
62
1
39
211
10
73.005990
20
586.503328
11
73.227334
21
586.398051
0
LINE
8
annotation
62
1
39
211
10
73.227334
20
586.398051
11
73.467569
21
586.331933
0
LINE
8
annotation
62
1
39
211
10
73.467569
20
586.331933
11
73.722646
21
586.308998
0
LINE
8
annotation
62
1
39
211
10
73.722646
20
586.308998
11
73.722646
21
586.308998
0
LINE
8
annotation
62
1
39
211
10
73.722646
20
586.308998
11
73.978252
21
586.331933
0
LINE
8
annotation
62
1
39
211
10
73.978252
20
586.331933
11
74.218768
21
586.398051
0
LINE
8
annotation
62
1
39
211
10
74.218768
20
586.398051
11
74.440194
21
586.503328
0
LINE
8
annotation
62
1
39
211
10
74.440194
20
586.503328
11
74.638529
21
586.643736
0
LINE
8
annotation
62
1
39
211
10
74.638529
20
586.643736
11
74.809775
21
586.815247
0
LINE
8
annotation
62
1
39
211
10
74.809775
20
586.815247
11
74.949929
21
587.013836
0
LINE
8
annotation
62
1
39
211
10
74.949929
20
587.013836
11
75.054992
21
587.235476
0
LINE
8
annotation
62
1
39
211
10
75.054992
20
587.235476
11
75.120963
21
587.476139
0
LINE
8
annotation
62
1
39
211
10
75.120963
20
587.476139
11
75.143843
21
587.731800
0
LINE
8
annotation
62
1
39
211
10
75.143843
20
587.731800
11
75.143843
21
588.439790
0
LINE
8
annotation
62
1
39
211
10
75.143843
20
588.439790
11
75.143843
21
588.439790
0
LINE
8
annotation
62
1
39
211
10
75.143843
20
588.439790
11
75.120963
21
588.695326
0
LINE
8
annotation
62
1
39
211
10
75.120963
20
588.695326
11
75.054992
21
588.935658
0
LINE
8
annotation
62
1
39
211
10
75.054992
20
588.935658
11
74.949929
21
589.156817
0
LINE
8
annotation
62
1
39
211
10
74.949929
20
589.156817
11
74.809775
21
589.354836
0
LINE
8
annotation
62
1
39
211
10
74.809775
20
589.354836
11
74.638529
21
589.525748
0
LINE
8
annotation
62
1
39
211
10
74.638529
20
589.525748
11
74.440194
21
589.665586
0
LINE
8
annotation
62
1
39
211
10
74.440194
20
589.665586
11
74.218768
21
589.770382
0
LINE
8
annotation
62
1
39
211
10
74.218768
20
589.770382
11
73.978252
21
589.836169
0
LINE
8
annotation
62
1
39
211
10
73.978252
20
589.836169
11
73.722646
21
589.858979
0
LINE
8
annotation
62
1
39
211
10
73.722646
20
589.858979
11
72.301449
21
589.858979
0
LINE
8
annotation
62
1
39
211
10
72.123449
20
585.508998
11
75.323449
21
585.508998
0
LINE
8
annotation
62
1
39
211
10
70.515861
20
623.927633
11
71.938663
21
630.327633
0
LINE
8
annotation
62
1
39
211
10
71.938663
20
630.327633
11
69.092658
21
630.327633
0
LINE
8
annotation
62
1
39
211
10
71.938663
20
627.477615
11
70.515861
21
627.477615
0
LINE
8
annotation
62
1
39
211
10
66.372905
20
662.965258
11
66.372905
21
662.965258
0
LINE
8
annotation
62
1
39
211
10
66.372905
20
662.965258
11
66.395850
21
662.709721
0
LINE
8
annotation
62
1
39
211
10
66.395850
20
662.709721
11
66.461987
21
662.469389
0
LINE
8
annotation
62
1
39
211
10
66.461987
20
662.469389
11
66.567264
21
662.248230
0
LINE
8
annotation
62
1
39
211
10
66.567264
20
662.248230
11
66.707633
21
662.050211
0
LINE
8
annotation
62
1
39
211
10
66.707633
20
662.050211
11
66.879044
21
661.879299
0
LINE
8
annotation
62
1
39
211
10
66.879044
20
661.879299
11
67.077446
21
661.739461
0
LINE
8
annotation
62
1
39
211
10
67.077446
20
661.739461
11
67.298789
21
661.634665
0
LINE
8
annotation
62
1
39
211
10
67.298789
20
661.634665
11
67.539024
21
661.568878
0
LINE
8
annotation
62
1
39
211
10
67.539024
20
661.568878
11
67.794101
21
661.546068
0
LINE
8
annotation
62
1
39
211
10
67.794101
20
661.546068
11
67.794101
21
661.546068
0
LINE
8
annotation
62
1
39
211
10
67.794101
20
661.546068
11
68.049178
21
661.568878
0
LINE
8
annotation
62
1
39
211
10
68.049178
20
661.568878
11
68.289414
21
661.634665
0
LINE
8
annotation
62
1
39
211
10
68.289414
20
661.634665
11
68.510757
21
661.739461
0
LINE
8
annotation
62
1
39
211
10
68.510757
20
661.739461
11
68.709159
21
661.879299
0
LINE
8
annotation
62
1
39
211
10
68.709159
20
661.879299
11
68.880569
21
662.050211
0
LINE
8
annotation
62
1
39
211
10
68.880569
20
662.050211
11
69.020938
21
662.248230
0
LINE
8
annotation
62
1
39
211
10
69.020938
20
662.248230
11
69.126216
21
662.469389
0
LINE
8
annotation
62
1
39
211
10
69.126216
20
662.469389
11
69.192352
21
662.709721
0
LINE
8
annotation
62
1
39
211
10
69.192352
20
662.709721
11
69.215298
21
662.965258
0
LINE
8
annotation
62
1
39
211
10
69.215298
20
662.965258
11
69.215298
21
663.673247
0
LINE
8
annotation
62
1
39
211
10
69.215298
20
663.673247
11
69.215298
21
663.673247
0
LINE
8
annotation
62
1
39
211
10
69.215298
20
663.673247
11
69.192366
21
663.928908
0
LINE
8
annotation
62
1
39
211
10
69.192366
20
663.928908
11
69.126262
21
664.169571
0
LINE
8
annotation
62
1
39
211
10
69.126262
20
664.169571
11
69.021027
21
664.391211
0
LINE
8
annotation
62
1
39
211
10
69.021027
20
664.391211
11
68.880701
21
664.589800
0
LINE
8
annotation
62
1
39
211
10
68.880701
20
664.589800
11
68.709324
21
664.761312
0
LINE
8
annotation
62
1
39
211
10
68.709324
20
664.761312
11
68.510935
21
664.901719
0
LINE
8
annotation
62
1
39
211
10
68.510935
20
664.901719
11
68.289575
21
665.006996
0
LINE
8
annotation
62
1
39
211
10
68.289575
20
665.006996
11
68.049284
21
665.073115
0
LINE
8
annotation
62
1
39
211
10
68.049284
20
665.073115
11
67.794101
21
665.096049
0
LINE
8
annotation
62
1
39
211
10
67.794101
20
665.096049
11
67.794101
21
665.096049
0
LINE
8
annotation
62
1
39
211
10
67.794101
20
665.096049
11
67.538918
21
665.073101
0
LINE
8
annotation
62
1
39
211
10
67.538918
20
665.073101
11
67.298627
21
665.006949
0
LINE
8
annotation
62
1
39
211
10
67.298627
20
665.006949
11
67.077267
21
664.901630
0
LINE
8
annotation
62
1
39
211
10
67.077267
20
664.901630
11
66.878879
21
664.761180
0
LINE
8
annotation
62
1
39
211
10
66.878879
20
664.761180
11
66.707501
21
664.589635
0
LINE
8
annotation
62
1
39
211
10
66.707501
20
664.589635
11
66.567175
21
664.391033
0
LINE
8
annotation
62
1
39
211
10
66.567175
20
664.391033
11
66.461940
21
664.169409
0
LINE
8
annotation
62
1
39
211
10
66.461940
20
664.169409
11
66.395837
21
663.928802
0
LINE
8
annotation
62
1
39
211
10
66.395837
20
663.928802
11
66.372905
21
663.673247
0
LINE
8
annotation
62
1
39
211
10
66.372905
20
663.673247
11
66.372905
21
662.965258
0
LINE
8
annotation
62
1
39
211
10
69.215298
20
666.519252
11
69.215298
21
666.519252
0
LINE
8
annotation
62
1
39
211
10
69.215298
20
666.519252
11
69.192366
21
666.773732
0
LINE
8
annotation
62
1
39
211
10
69.192366
20
666.773732
11
69.126262
21
667.013502
0
LINE
8
annotation
62
1
39
211
10
69.126262
20
667.013502
11
69.021027
21
667.234496
0
LINE
8
annotation
62
1
39
211
10
69.021027
20
667.234496
11
68.880701
21
667.432647
0
LINE
8
annotation
62
1
39
211
10
68.880701
20
667.432647
11
68.709324
21
667.603890
0
LINE
8
annotation
62
1
39
211
10
68.709324
20
667.603890
11
68.510935
21
667.744157
0
LINE
8
annotation
62
1
39
211
10
68.510935
20
667.744157
11
68.289575
21
667.849382
0
LINE
8
annotation
62
1
39
211
10
68.289575
20
667.849382
11
68.049284
21
667.915499
0
LINE
8
annotation
62
1
39
211
10
68.049284
20
667.915499
11
67.794101
21
667.938442
0
LINE
8
annotation
62
1
39
211
10
67.794101
20
667.938442
11
67.794101
21
667.938442
0
LINE
8
annotation
62
1
39
211
10
67.794101
20
667.938442
11
67.538918
21
667.915499
0
LINE
8
annotation
62
1
39
211
10
67.538918
20
667.915499
11
67.298627
21
667.849382
0
LINE
8
annotation
62
1
39
211
10
67.298627
20
667.849382
11
67.077267
21
667.744157
0
LINE
8
annotation
62
1
39
211
10
67.077267
20
667.744157
11
66.878879
21
667.603890
0
LINE
8
annotation
62
1
39
211
10
66.878879
20
667.603890
11
66.707501
21
667.432647
0
LINE
8
annotation
62
1
39
211
10
66.707501
20
667.432647
11
66.567175
21
667.234496
0
LINE
8
annotation
62
1
39
211
10
66.567175
20
667.234496
11
66.461940
21
667.013502
0
LINE
8
annotation
62
1
39
211
10
66.461940
20
667.013502
11
66.395837
21
666.773732
0
LINE
8
annotation
62
1
39
211
10
66.395837
20
666.773732
11
66.372905
21
666.519252
0
LINE
8
annotation
62
1
39
211
10
66.372905
20
666.519252
11
66.372905
21
666.519252
0
LINE
8
annotation
62
1
39
211
10
66.372905
20
666.519252
11
66.395850
21
666.263578
0
LINE
8
annotation
62
1
39
211
10
66.395850
20
666.263578
11
66.461987
21
666.022878
0
LINE
8
annotation
62
1
39
211
10
66.461987
20
666.022878
11
66.567264
21
665.801184
0
LINE
8
annotation
62
1
39
211
10
66.567264
20
665.801184
11
66.707633
21
665.602532
0
LINE
8
annotation
62
1
39
211
10
66.707633
20
665.602532
11
66.879044
21
665.430954
0
LINE
8
annotation
62
1
39
211
10
66.879044
20
665.430954
11
67.077446
21
665.290483
0
LINE
8
annotation
62
1
39
211
10
67.077446
20
665.290483
11
67.298789
21
665.185153
0
LINE
8
annotation
62
1
39
211
10
67.298789
20
665.185153
11
67.539024
21
665.118997
0
LINE
8
annotation
62
1
39
211
10
67.539024
20
665.118997
11
67.794101
21
665.096049
0
LINE
8
annotation
62
1
39
211
10
67.794101
20
665.096049
11
67.794101
21
665.096049
0
LINE
8
annotation
62
1
39
211
10
67.794101
20
665.096049
11
68.049178
21
665.118997
0
LINE
8
annotation
62
1
39
211
10
68.049178
20
665.118997
11
68.289414
21
665.185153
0
LINE
8
annotation
62
1
39
211
10
68.289414
20
665.185153
11
68.510757
21
665.290483
0
LINE
8
annotation
62
1
39
211
10
68.510757
20
665.290483
11
68.709159
21
665.430954
0
LINE
8
annotation
62
1
39
211
10
68.709159
20
665.430954
11
68.880569
21
665.602532
0
LINE
8
annotation
62
1
39
211
10
68.880569
20
665.602532
11
69.020938
21
665.801184
0
LINE
8
annotation
62
1
39
211
10
69.020938
20
665.801184
11
69.126216
21
666.022878
0
LINE
8
annotation
62
1
39
211
10
69.126216
20
666.022878
11
69.192352
21
666.263578
0
LINE
8
annotation
62
1
39
211
10
69.192352
20
666.263578
11
69.215298
21
666.519252
0
LINE
8
annotation
62
1
39
211
10
64.660275
20
699.164904
11
64.660275
21
699.164904
0
LINE
8
annotation
62
1
39
211
10
64.660275
20
699.164904
11
65.066695
21
699.316356
0
LINE
8
annotation
62
1
39
211
10
65.066695
20
699.316356
11
65.439739
21
699.521071
0
LINE
8
annotation
62
1
39
211
10
65.439739
20
699.521071
11
65.775550
21
699.773833
0
LINE
8
annotation
62
1
39
211
10
65.775550
20
699.773833
11
66.070275
21
700.069426
0
LINE
8
annotation
62
1
39
211
10
66.070275
20
700.069426
11
66.320058
21
700.402634
0
LINE
8
annotation
62
1
39
211
10
66.320058
20
700.402634
11
66.521044
21
700.768241
0
LINE
8
annotation
62
1
39
211
10
66.521044
20
700.768241
11
66.669378
21
701.161031
0
LINE
8
annotation
62
1
39
211
10
66.669378
20
701.161031
11
66.761206
21
701.575788
0
LINE
8
annotation
62
1
39
211
10
66.761206
20
701.575788
11
66.792672
21
702.007297
0
LINE
8
annotation
62
1
39
211
10
66.792672
20
702.007297
11
66.792672
21
704.141701
0
LINE
8
annotation
62
1
39
211
10
66.792672
20
704.141701
11
66.792672
21
704.141701
0
LINE
8
annotation
62
1
39
211
10
66.792672
20
704.141701
11
66.769792
21
704.397375
0
LINE
8
annotation
62
1
39
211
10
66.769792
20
704.397375
11
66.703821
21
704.638075
0
LINE
8
annotation
62
1
39
211
10
66.703821
20
704.638075
11
66.598758
21
704.859768
0
LINE
8
annotation
62
1
39
211
10
66.598758
20
704.859768
11
66.458604
21
705.058421
0
LINE
8
annotation
62
1
39
211
10
66.458604
20
705.058421
11
66.287359
21
705.229999
0
LINE
8
annotation
62
1
39
211
10
66.287359
20
705.229999
11
66.089023
21
705.370470
0
LINE
8
annotation
62
1
39
211
10
66.089023
20
705.370470
11
65.867597
21
705.475800
0
LINE
8
annotation
62
1
39
211
10
65.867597
20
705.475800
11
65.627081
21
705.541956
0
LINE
8
annotation
62
1
39
211
10
65.627081
20
705.541956
11
65.371475
21
705.564904
0
LINE
8
annotation
62
1
39
211
10
65.371475
20
705.564904
11
65.371475
21
705.564904
0
LINE
8
annotation
62
1
39
211
10
65.371475
20
705.564904
11
65.116398
21
705.541956
0
LINE
8
annotation
62
1
39
211
10
65.116398
20
705.541956
11
64.876163
21
705.475800
0
LINE
8
annotation
62
1
39
211
10
64.876163
20
705.475800
11
64.654820
21
705.370470
0
LINE
8
annotation
62
1
39
211
10
64.654820
20
705.370470
11
64.456418
21
705.229999
0
LINE
8
annotation
62
1
39
211
10
64.456418
20
705.229999
11
64.285007
21
705.058421
0
LINE
8
annotation
62
1
39
211
10
64.285007
20
705.058421
11
64.144638
21
704.859768
0
LINE
8
annotation
62
1
39
211
10
64.144638
20
704.859768
11
64.039361
21
704.638075
0
LINE
8
annotation
62
1
39
211
10
64.039361
20
704.638075
11
63.973224
21
704.397375
0
LINE
8
annotation
62
1
39
211
10
63.973224
20
704.397375
11
63.950279
21
704.141701
0
LINE
8
annotation
62
1
39
211
10
63.950279
20
704.141701
11
63.950279
21
703.430099
0
LINE
8
annotation
62
1
39
211
10
63.950279
20
703.430099
11
63.950279
21
703.430099
0
LINE
8
annotation
62
1
39
211
10
63.950279
20
703.430099
11
63.973224
21
703.174438
0
LINE
8
annotation
62
1
39
211
10
63.973224
20
703.174438
11
64.039361
21
702.933775
0
LINE
8
annotation
62
1
39
211
10
64.039361
20
702.933775
11
64.144638
21
702.712135
0
LINE
8
annotation
62
1
39
211
10
64.144638
20
702.712135
11
64.285007
21
702.513546
0
LINE
8
annotation
62
1
39
211
10
64.285007
20
702.513546
11
64.456418
21
702.342034
0
LINE
8
annotation
62
1
39
211
10
64.456418
20
702.342034
11
64.654820
21
702.201627
0
LINE
8
annotation
62
1
39
211
10
64.654820
20
702.201627
11
64.876163
21
702.096350
0
LINE
8
annotation
62
1
39
211
10
64.876163
20
702.096350
11
65.116398
21
702.030231
0
LINE
8
annotation
62
1
39
211
10
65.116398
20
702.030231
11
65.371475
21
702.007297
0
LINE
8
annotation
62
1
39
211
10
65.371475
20
702.007297
11
66.792672
21
702.007297
0
LINE
8
annotation
62
1
39
211
10
63.772679
20
698.364904
11
66.972679
21
698.364904
0
LINE
8
annotation
62
1
39
211
10
60.468808
20
736.905059
11
60.468808
21
743.062019
0
LINE
8
annotation
62
1
39
211
10
60.468808
20
743.062019
11
59.100037
21
741.692862
0
LINE
8
annotation
62
1
39
211
10
63.766446
20
736.986272
11
63.766446
21
736.986272
0
LINE
8
annotation
62
1
39
211
10
63.766446
20
736.986272
11
63.909541
21
736.932779
0
LINE
8
annotation
62
1
39
211
10
63.909541
20
736.932779
11
64.056298
21
736.906203
0
LINE
8
annotation
62
1
39
211
10
64.056298
20
736.906203
11
64.203397
21
736.905460
0
LINE
8
annotation
62
1
39
211
10
64.203397
20
736.905460
11
64.347522
21
736.929466
0
LINE
8
annotation
62
1
39
211
10
64.347522
20
736.929466
11
64.485355
21
736.977138
0
LINE
8
annotation
62
1
39
211
10
64.485355
20
736.977138
11
64.613578
21
737.047392
0
LINE
8
annotation
62
1
39
211
10
64.613578
20
737.047392
11
64.728873
21
737.139144
0
LINE
8
annotation
62
1
39
211
10
64.728873
20
737.139144
11
64.827923
21
737.251312
0
LINE
8
annotation
62
1
39
211
10
64.827923
20
737.251312
11
64.907410
21
737.382810
0
LINE
8
annotation
62
1
39
211
10
64.907410
20
737.382810
11
64.907410
21
737.382810
0
LINE
8
annotation
62
1
39
211
10
64.907410
20
737.382810
11
65.144569
21
737.937939
0
LINE
8
annotation
62
1
39
211
10
65.144569
20
737.937939
11
65.322439
21
738.509136
0
LINE
8
annotation
62
1
39
211
10
65.322439
20
738.509136
11
65.441018
21
739.091847
0
LINE
8
annotation
62
1
39
211
10
65.441018
20
739.091847
11
65.500308
21
739.681517
0
LINE
8
annotation
62
1
39
211
10
65.500308
20
739.681517
11
65.500308
21
740.273592
0
LINE
8
annotation
62
1
39
211
10
65.500308
20
740.273592
11
65.441018
21
740.863519
0
LINE
8
annotation
62
1
39
211
10
65.441018
20
740.863519
11
65.322439
21
741.446745
0
LINE
8
annotation
62
1
39
211
10
65.322439
20
741.446745
11
65.144569
21
742.018714
0
LINE
8
annotation
62
1
39
211
10
65.144569
20
742.018714
11
64.907410
21
742.574873
0
LINE
8
annotation
62
1
39
211
10
64.907410
20
742.574873
11
64.907410
21
742.574873
0
LINE
8
annotation
62
1
39
211
10
64.907410
20
742.574873
11
64.877250
21
742.631001
0
LINE
8
annotation
62
1
39
211
10
64.877250
20
742.631001
11
64.843058
21
742.684664
0
LINE
8
annotation
62
1
39
211
10
64.843058
20
742.684664
11
64.805090
21
742.735596
0
LINE
8
annotation
62
1
39
211
10
64.805090
20
742.735596
11
64.763604
21
742.783535
0
LINE
8
annotation
62
1
39
211
10
64.763604
20
742.783535
11
64.718858
21
742.828217
0
LINE
8
annotation
62
1
39
211
10
64.718858
20
742.828217
11
64.671109
21
742.869377
0
LINE
8
annotation
62
1
39
211
10
64.671109
20
742.869377
11
64.620614
21
742.906753
0
LINE
8
annotation
62
1
39
211
10
64.620614
20
742.906753
11
64.567631
21
742.940080
0
LINE
8
annotation
62
1
39
211
10
64.567631
20
742.940080
11
64.512416
21
742.969094
0
LINE
8
annotation
62
1
39
211
10
64.512416
20
742.969094
11
64.512416
21
742.969094
0
LINE
8
annotation
62
1
39
211
10
64.512416
20
742.969094
11
64.368185
21
743.023747
0
LINE
8
annotation
62
1
39
211
10
64.368185
20
743.023747
11
64.220569
21
743.051231
0
LINE
8
annotation
62
1
39
211
10
64.220569
20
743.051231
11
64.072848
21
743.052638
0
LINE
8
annotation
62
1
39
211
10
64.072848
20
743.052638
11
63.928302
21
743.029057
0
LINE
8
annotation
62
1
39
211
10
63.928302
20
743.029057
11
63.790210
21
742.981578
0
LINE
8
annotation
62
1
39
211
10
63.790210
20
742.981578
11
63.661852
21
742.911292
0
LINE
8
annotation
62
1
39
211
10
63.661852
20
742.911292
11
63.546508
21
742.819288
0
LINE
8
annotation
62
1
39
211
10
63.546508
20
742.819288
11
63.447456
21
742.706656
0
LINE
8
annotation
62
1
39
211
10
63.447456
20
742.706656
11
63.367977
21
742.574487
0
LINE
8
annotation
62
1
39
211
10
63.367977
20
742.574487
11
63.367977
21
742.574487
0
LINE
8
annotation
62
1
39
211
10
63.367977
20
742.574487
11
63.131962
21
742.019472
0
LINE
8
annotation
62
1
39
211
10
63.131962
20
742.019472
11
62.954950
21
741.448361
0
LINE
8
annotation
62
1
39
211
10
62.954950
20
741.448361
11
62.836943
21
740.865707
0
LINE
8
annotation
62
1
39
211
10
62.836943
20
740.865707
11
62.777939
21
740.276066
0
LINE
8
annotation
62
1
39
211
10
62.777939
20
740.276066
11
62.777939
21
739.683991
0
LINE
8
annotation
62
1
39
211
10
62.777939
20
739.683991
11
62.836943
21
739.094035
0
LINE
8
annotation
62
1
39
211
10
62.836943
20
739.094035
11
62.954950
21
738.510752
0
LINE
8
annotation
62
1
39
211
10
62.954950
20
738.510752
11
63.131962
21
737.938697
0
LINE
8
annotation
62
1
39
211
10
63.131962
20
737.938697
11
63.367977
21
737.382424
0
LINE
8
annotation
62
1
39
211
10
63.367977
20
737.382424
11
63.367977
21
737.382424
0
LINE
8
annotation
62
1
39
211
10
63.367977
20
737.382424
11
63.398027
21
737.326407
0
LINE
8
annotation
62
1
39
211
10
63.398027
20
737.326407
11
63.431967
21
737.273012
0
LINE
8
annotation
62
1
39
211
10
63.431967
20
737.273012
11
63.469654
21
737.222401
0
LINE
8
annotation
62
1
39
211
10
63.469654
20
737.222401
11
63.510944
21
737.174736
0
LINE
8
annotation
62
1
39
211
10
63.510944
20
737.174736
11
63.555695
21
737.130179
0
LINE
8
annotation
62
1
39
211
10
63.555695
20
737.130179
11
63.603764
21
737.088892
0
LINE
8
annotation
62
1
39
211
10
63.603764
20
737.088892
11
63.655007
21
737.051037
0
LINE
8
annotation
62
1
39
211
10
63.655007
20
737.051037
11
63.709282
21
737.016776
0
LINE
8
annotation
62
1
39
211
10
63.709282
20
737.016776
11
63.766446
21
736.986272
0
LINE
8
annotation
62
1
39
211
10
62.482053
20
724.691884
11
57.999219
21
718.207875
0
LINE
8
annotation
62
1
39
211
10
57.999219
20
718.207875
11
53.515542
21
724.691884
0
LINE
8
annotation
62
1
39
211
10
57.999219
20
718.729664
11
57.999219
21
711.249282
0
LINE
8
annotation
62
1
39
211
10
74.874122
20
717.970583
11
67.524398
21
717.970583
0
LINE
8
annotation
62
1
39
211
10
79.913517
20
711.249703
11
82.898420
21
711.249703
0
LINE
8
annotation
62
1
39
211
10
82.898420
20
711.249703
11
82.898420
21
711.249703
0
LINE
8
annotation
62
1
39
211
10
82.898420
20
711.249703
11
83.434152
21
711.297872
0
LINE
8
annotation
62
1
39
211
10
83.434152
20
711.297872
11
83.938712
21
711.436740
0
LINE
8
annotation
62
1
39
211
10
83.938712
20
711.436740
11
84.403594
21
711.657850
0
LINE
8
annotation
62
1
39
211
10
84.403594
20
711.657850
11
84.820293
21
711.952744
0
LINE
8
annotation
62
1
39
211
10
84.820293
20
711.952744
11
85.180301
21
712.312966
0
LINE
8
annotation
62
1
39
211
10
85.180301
20
712.312966
11
85.475115
21
712.730057
0
LINE
8
annotation
62
1
39
211
10
85.475115
20
712.730057
11
85.696227
21
713.195561
0
LINE
8
annotation
62
1
39
211
10
85.696227
20
713.195561
11
85.835132
21
713.701021
0
LINE
8
annotation
62
1
39
211
10
85.835132
20
713.701021
11
85.883323
21
714.237979
0
LINE
8
annotation
62
1
39
211
10
85.883323
20
714.237979
11
85.883323
21
715.724951
0
LINE
8
annotation
62
1
39
211
10
85.883323
20
715.724951
11
85.883323
21
715.724951
0
LINE
8
annotation
62
1
39
211
10
85.883323
20
715.724951
11
85.835159
21
716.261648
0
LINE
8
annotation
62
1
39
211
10
85.835159
20
716.261648
11
85.696324
21
716.766411
0
LINE
8
annotation
62
1
39
211
10
85.696324
20
716.766411
11
85.475302
21
717.230906
0
LINE
8
annotation
62
1
39
211
10
85.475302
20
717.230906
11
85.180579
21
717.646800
0
LINE
8
annotation
62
1
39
211
10
85.180579
20
717.646800
11
84.820639
21
718.005763
0
LINE
8
annotation
62
1
39
211
10
84.820639
20
718.005763
11
84.403969
21
718.299460
0
LINE
8
annotation
62
1
39
211
10
84.403969
20
718.299460
11
83.939052
21
718.519560
0
LINE
8
annotation
62
1
39
211
10
83.939052
20
718.519560
11
83.434374
21
718.657731
0
LINE
8
annotation
62
1
39
211
10
83.434374
20
718.657731
11
82.898420
21
718.705639
0
LINE
8
annotation
62
1
39
211
10
82.898420
20
718.705639
11
79.913517
21
718.705639
0
LINE
8
annotation
62
1
39
211
10
79.913517
20
718.705639
11
79.913517
21
724.691462
0
LINE
8
annotation
62
1
39
211
10
79.913517
20
724.691462
11
85.883323
21
724.691462
0
LINE
8
boundary
62
5
39
2
10
46.698437
20
765.318351
11
48.314415
21
764.977954
0
LINE
8
boundary
62
5
39
2
10
48.314415
20
764.977954
11
56.688091
21
762.363749
0
LINE
8
boundary
62
5
39
2
10
56.688091
20
762.363749
11
57.787639
21
762.013531
0
LINE
8
boundary
62
5
39
2
10
57.787639
20
762.013531
11
69.131359
21
762.247401
0
LINE
8
boundary
62
5
39
2
10
69.131359
20
762.247401
11
71.038489
21
762.231804
0
LINE
8
boundary
62
5
39
2
10
71.038489
20
762.231804
11
81.034905
21
766.264066
0
LINE
8
boundary
62
5
39
2
10
81.034905
20
766.264066
11
85.291071
21
767.402166
0
LINE
8
boundary
62
5
39
2
10
85.291071
20
767.402166
11
90.184234
21
771.856038
0
LINE
8
boundary
62
5
39
2
10
90.184234
20
771.856038
11
94.522018
21
775.903560
0
LINE
8
boundary
62
5
39
2
10
94.522018
20
775.903560
11
97.976144
21
779.138452
0
LINE
8
boundary
62
5
39
2
10
97.976144
20
779.138452
11
98.459749
21
779.576340
0
LINE
8
boundary
62
5
39
2
10
98.459749
20
779.576340
11
102.872064
21
787.961801
0
LINE
8
boundary
62
5
39
2
10
102.872064
20
787.961801
11
104.822533
21
791.381135
0
LINE
8
boundary
62
5
39
2
10
104.822533
20
791.381135
11
60.946260
21
791.581135
0
LINE
8
boundary
62
5
39
2
10
60.946260
20
791.581135
11
60.946260
21
795.327135
0
LINE
8
boundary
62
5
39
2
10
60.946260
20
795.327135
11
107.073424
21
795.327135
0
LINE
8
boundary
62
5
39
2
10
107.073424
20
795.327135
11
107.915112
21
796.801778
0
LINE
8
boundary
62
5
39
2
10
107.915112
20
796.801778
11
109.516576
21
805.098209
0
LINE
8
boundary
62
5
39
2
10
109.516576
20
805.098209
11
111.040689
21
815.253128
0
LINE
8
boundary
62
5
39
2
10
111.040689
20
815.253128
11
111.243086
21
816.600754
0
LINE
8
boundary
62
5
39
2
10
111.243086
20
816.600754
11
59.169320
21
816.800754
0
LINE
8
boundary
62
5
39
2
10
59.169320
20
816.800754
11
59.169320
21
820.546754
0
LINE
8
boundary
62
5
39
2
10
59.169320
20
820.546754
11
110.658723
21
820.546754
0
LINE
8
boundary
62
5
39
2
10
110.658723
20
820.546754
11
109.672977
21
825.234931
0
LINE
8
boundary
62
5
39
2
10
109.672977
20
825.234931
11
107.648500
21
836.880985
0
LINE
8
boundary
62
5
39
2
10
107.648500
20
836.880985
11
107.533652
21
837.395019
0
LINE
8
boundary
62
5
39
2
10
107.533652
20
837.395019
11
58.929587
21
837.395019
0
LINE
8
boundary
62
5
39
2
10
58.929587
20
837.395019
11
58.929587
21
841.141019
0
LINE
8
boundary
62
5
39
2
10
58.929587
20
841.141019
11
106.163124
21
841.141019
0
LINE
8
boundary
62
5
39
2
10
106.163124
20
841.141019
11
104.387153
21
844.297034
0
LINE
8
boundary
62
5
39
2
10
104.387153
20
844.297034
11
98.933703
21
853.209217
0
LINE
8
boundary
62
5
39
2
10
98.933703
20
853.209217
11
97.483702
21
855.579072
0
LINE
8
boundary
62
5
39
2
10
97.483702
20
855.579072
11
93.201146
21
859.228468
0
LINE
8
boundary
62
5
39
2
10
93.201146
20
859.228468
11
86.107982
21
865.479336
0
LINE
8
boundary
62
5
39
2
10
86.107982
20
865.479336
11
84.378085
21
867.003919
0
LINE
8
boundary
62
5
39
2
10
84.378085
20
867.003919
11
77.759040
21
869.390840
0
LINE
8
boundary
62
5
39
2
10
77.759040
20
869.390840
11
68.408856
21
872.488147
0
LINE
8
boundary
62
5
39
2
10
68.408856
20
872.488147
11
66.781978
21
873.027212
0
LINE
8
boundary
62
5
39
2
10
66.781978
20
873.027212
11
58.553537
21
873.254077
0
LINE
8
boundary
62
5
39
2
10
58.553537
20
873.254077
11
55.654708
21
873.334116
0
LINE
8
boundary
62
5
39
2
10
55.654708
20
873.334116
11
46.869495
21
872.935290
0
LINE
8
boundary
62
5
39
2
10
46.869495
20
872.935290
11
33.286739
21
866.556447
0
LINE
8
boundary
62
5
39
2
10
33.286739
20
866.556447
11
30.360605
21
865.144215
0
LINE
8
boundary
62
5
39
2
10
30.360605
20
865.144215
11
23.060220
21
857.234502
0
LINE
8
boundary
62
5
39
2
10
23.060220
20
857.234502
11
19.432210
21
853.017667
0
LINE
8
boundary
62
5
39
2
10
19.432210
20
853.017667
11
18.427465
21
851.849804
0
LINE
8
boundary
62
5
39
2
10
18.427465
20
851.849804
11
17.091106
21
849.699521
0
LINE
8
boundary
62
5
39
2
10
17.091106
20
849.699521
11
9.524383
21
837.936853
0
LINE
8
boundary
62
5
39
2
10
9.524383
20
837.936853
11
8.988108
21
837.103377
0
LINE
8
boundary
62
5
39
2
10
8.988108
20
837.103377
11
7.996788
21
831.987468
0
LINE
8
boundary
62
5
39
2
10
7.996788
20
831.987468
11
6.587500
21
821.738274
0
LINE
8
boundary
62
5
39
2
10
6.587500
20
821.738274
11
7.598848
21
815.435880
0
LINE
8
boundary
62
5
39
2
10
7.598848
20
815.435880
11
8.996197
21
807.302084
0
LINE
8
boundary
62
5
39
2
10
8.996197
20
807.302084
11
12.271300
21
800.816261
0
LINE
8
boundary
62
5
39
2
10
12.271300
20
800.816261
11
15.602850
21
793.783752
0
LINE
8
boundary
62
5
39
2
10
15.602850
20
793.783752
11
17.392280
21
791.521946
0
LINE
8
boundary
62
5
39
2
10
17.392280
20
791.521946
11
19.758521
21
788.530824
0
LINE
8
boundary
62
5
39
2
10
19.758521
20
788.530824
11
25.794059
21
781.746484
0
LINE
8
boundary
62
5
39
2
10
25.794059
20
781.746484
11
29.317661
21
778.027826
0
LINE
8
boundary
62
5
39
2
10
29.317661
20
778.027826
11
35.330678
21
772.247888
0
LINE
8
boundary
62
5
39
2
10
35.330678
20
772.247888
11
35.720511
21
771.872361
0
LINE
8
boundary
62
5
39
2
10
35.720511
20
771.872361
11
38.818903
21
770.286692
0
LINE
8
boundary
62
5
39
2
10
38.818903
20
770.286692
11
46.065308
21
765.717735
0
LINE
8
boundary
62
5
39
2
10
46.065308
20
765.717735
11
46.698437
21
765.318351
0
LINE
8
annotation
62
1
39
211
10
51.397260
20
790.254135
11
52.818457
21
790.254135
0
LINE
8
annotation
62
1
39
211
10
52.818457
20
790.254135
11
52.818457
21
790.254135
0
LINE
8
annotation
62
1
39
211
10
52.818457
20
790.254135
11
53.073534
21
790.277070
0
LINE
8
annotation
62
1
39
211
10
53.073534
20
790.277070
11
53.313769
21
790.343188
0
LINE
8
annotation
62
1
39
211
10
53.313769
20
790.343188
11
53.535113
21
790.448465
0
LINE
8
annotation
62
1
39
211
10
53.535113
20
790.448465
11
53.733515
21
790.588873
0
LINE
8
annotation
62
1
39
211
10
53.733515
20
790.588873
11
53.904925
21
790.760384
0
LINE
8
annotation
62
1
39
211
10
53.904925
20
790.760384
11
54.045294
21
790.958973
0
LINE
8
annotation
62
1
39
211
10
54.045294
20
790.958973
11
54.150572
21
791.180613
0
LINE
8
annotation
62
1
39
211
10
54.150572
20
791.180613
11
54.216708
21
791.421276
0
LINE
8
annotation
62
1
39
211
10
54.216708
20
791.421276
11
54.239654
21
791.676937
0
LINE
8
annotation
62
1
39
211
10
54.239654
20
791.676937
11
54.239654
21
792.384927
0
LINE
8
annotation
62
1
39
211
10
54.239654
20
792.384927
11
54.239654
21
792.384927
0
LINE
8
annotation
62
1
39
211
10
54.239654
20
792.384927
11
54.216721
21
792.640463
0
LINE
8
annotation
62
1
39
211
10
54.216721
20
792.640463
11
54.150618
21
792.880795
0
LINE
8
annotation
62
1
39
211
10
54.150618
20
792.880795
11
54.045383
21
793.101954
0
LINE
8
annotation
62
1
39
211
10
54.045383
20
793.101954
11
53.905057
21
793.299973
0
LINE
8
annotation
62
1
39
211
10
53.905057
20
793.299973
11
53.733680
21
793.470885
0
LINE
8
annotation
62
1
39
211
10
53.733680
20
793.470885
11
53.535291
21
793.610723
0
LINE
8
annotation
62
1
39
211
10
53.535291
20
793.610723
11
53.313931
21
793.715519
0
LINE
8
annotation
62
1
39
211
10
53.313931
20
793.715519
11
53.073640
21
793.781306
0
LINE
8
annotation
62
1
39
211
10
53.073640
20
793.781306
11
52.818457
21
793.804116
0
LINE
8
annotation
62
1
39
211
10
52.818457
20
793.804116
11
51.397260
21
793.804116
0
LINE
8
annotation
62
1
39
211
10
51.397260
20
793.804116
11
51.397260
21
796.654135
0
LINE
8
annotation
62
1
39
211
10
51.397260
20
796.654135
11
54.239654
21
796.654135
0
LINE
8
annotation
62
1
39
211
10
51.755125
20
821.873754
11
51.755125
21
821.873754
0
LINE
8
annotation
62
1
39
211
10
51.755125
20
821.873754
11
51.347988
21
821.721102
0
LINE
8
annotation
62
1
39
211
10
51.347988
20
821.721102
11
50.974387
21
821.515422
0
LINE
8
annotation
62
1
39
211
10
50.974387
20
821.515422
11
50.638156
21
821.261866
0
LINE
8
annotation
62
1
39
211
10
50.638156
20
821.261866
11
50.343130
21
820.965589
0
LINE
8
annotation
62
1
39
211
10
50.343130
20
820.965589
11
50.093146
21
820.631743
0
LINE
8
annotation
62
1
39
211
10
50.093146
20
820.631743
11
49.892037
21
820.265481
0
LINE
8
annotation
62
1
39
211
10
49.892037
20
820.265481
11
49.743640
21
819.871957
0
LINE
8
annotation
62
1
39
211
10
49.743640
20
819.871957
11
49.651790
21
819.456324
0
LINE
8
annotation
62
1
39
211
10
49.651790
20
819.456324
11
49.620320
21
819.023735
0
LINE
8
annotation
62
1
39
211
10
49.620320
20
819.023735
11
49.620320
21
816.896556
0
LINE
8
annotation
62
1
39
211
10
49.620320
20
816.896556
11
49.620320
21
816.896556
0
LINE
8
annotation
62
1
39
211
10
49.620320
20
816.896556
11
49.643266
21
816.640895
0
LINE
8
annotation
62
1
39
211
10
49.643266
20
816.640895
11
49.709402
21
816.400232
0
LINE
8
annotation
62
1
39
211
10
49.709402
20
816.400232
11
49.814680
21
816.178592
0
LINE
8
annotation
62
1
39
211
10
49.814680
20
816.178592
11
49.955049
21
815.980003
0
LINE
8
annotation
62
1
39
211
10
49.955049
20
815.980003
11
50.126459
21
815.808491
0
LINE
8
annotation
62
1
39
211
10
50.126459
20
815.808491
11
50.324861
21
815.668084
0
LINE
8
annotation
62
1
39
211
10
50.324861
20
815.668084
11
50.546205
21
815.562807
0
LINE
8
annotation
62
1
39
211
10
50.546205
20
815.562807
11
50.786440
21
815.496688
0
LINE
8
annotation
62
1
39
211
10
50.786440
20
815.496688
11
51.041517
21
815.473754
0
LINE
8
annotation
62
1
39
211
10
51.041517
20
815.473754
11
51.041517
21
815.473754
0
LINE
8
annotation
62
1
39
211
10
51.041517
20
815.473754
11
51.297123
21
815.496688
0
LINE
8
annotation
62
1
39
211
10
51.297123
20
815.496688
11
51.537639
21
815.562807
0
LINE
8
annotation
62
1
39
211
10
51.537639
20
815.562807
11
51.759065
21
815.668084
0
LINE
8
annotation
62
1
39
211
10
51.759065
20
815.668084
11
51.957400
21
815.808491
0
LINE
8
annotation
62
1
39
211
10
51.957400
20
815.808491
11
52.128646
21
815.980003
0
LINE
8
annotation
62
1
39
211
10
52.128646
20
815.980003
11
52.268800
21
816.178592
0
LINE
8
annotation
62
1
39
211
10
52.268800
20
816.178592
11
52.373863
21
816.400232
0
LINE
8
annotation
62
1
39
211
10
52.373863
20
816.400232
11
52.439834
21
816.640895
0
LINE
8
annotation
62
1
39
211
10
52.439834
20
816.640895
11
52.462714
21
816.896556
0
LINE
8
annotation
62
1
39
211
10
52.462714
20
816.896556
11
52.462714
21
817.604545
0
LINE
8
annotation
62
1
39
211
10
52.462714
20
817.604545
11
52.462714
21
817.604545
0
LINE
8
annotation
62
1
39
211
10
52.462714
20
817.604545
11
52.439834
21
817.860082
0
LINE
8
annotation
62
1
39
211
10
52.439834
20
817.860082
11
52.373863
21
818.100414
0
LINE
8
annotation
62
1
39
211
10
52.373863
20
818.100414
11
52.268800
21
818.321573
0
LINE
8
annotation
62
1
39
211
10
52.268800
20
818.321573
11
52.128646
21
818.519592
0
LINE
8
annotation
62
1
39
211
10
52.128646
20
818.519592
11
51.957400
21
818.690504
0
LINE
8
annotation
62
1
39
211
10
51.957400
20
818.690504
11
51.759065
21
818.830342
0
LINE
8
annotation
62
1
39
211
10
51.759065
20
818.830342
11
51.537639
21
818.935138
0
LINE
8
annotation
62
1
39
211
10
51.537639
20
818.935138
11
51.297123
21
819.000924
0
LINE
8
annotation
62
1
39
211
10
51.297123
20
819.000924
11
51.041517
21
819.023735
0
LINE
8
annotation
62
1
39
211
10
51.041517
20
819.023735
11
49.620320
21
819.023735
0
LINE
8
annotation
62
1
39
211
10
49.442320
20
814.673754
11
52.642320
21
814.673754
0
LINE
8
annotation
62
1
39
211
10
50.801784
20
836.068019
11
52.224586
21
842.468019
0
LINE
8
annotation
62
1
39
211
10
52.224586
20
842.468019
11
49.378581
21
842.468019
0
LINE
8
annotation
62
1
39
211
10
52.224586
20
839.618000
11
50.801784
21
839.618000
0
LINE
8
annotation
62
1
39
211
10
23.924258
20
813.375660
11
17.245166
21
813.375660
0
LINE
8
annotation
62
1
39
211
10
17.245166
20
813.375660
11
23.924258
21
825.404663
0
LINE
8
annotation
62
1
39
211
10
23.924258
20
825.404663
11
17.245166
21
825.404663
0
LINE
8
annotation
62
1
39
211
10
35.013519
20
819.390161
11
28.436266
21
819.390161
0
LINE
8
annotation
62
1
39
211
10
42.197842
20
813.375660
11
42.197842
21
825.404663
0
LINE
8
annotation
62
1
39
211
10
42.197842
20
825.404663
11
39.523641
21
822.729707
0
LINE
8
annotation
62
1
39
211
10
48.640519
20
813.534326
11
48.640519
21
813.534326
0
LINE
8
annotation
62
1
39
211
10
48.640519
20
813.534326
11
48.920088
21
813.429816
0
LINE
8
annotation
62
1
39
211
10
48.920088
20
813.429816
11
49.206810
21
813.377894
0
LINE
8
annotation
62
1
39
211
10
49.206810
20
813.377894
11
49.494202
21
813.376442
0
LINE
8
annotation
62
1
39
211
10
49.494202
20
813.376442
11
49.775782
21
813.423344
0
LINE
8
annotation
62
1
39
211
10
49.775782
20
813.423344
11
50.045070
21
813.516482
0
LINE
8
annotation
62
1
39
211
10
50.045070
20
813.516482
11
50.295582
21
813.653739
0
LINE
8
annotation
62
1
39
211
10
50.295582
20
813.653739
11
50.520837
21
813.832998
0
LINE
8
annotation
62
1
39
211
10
50.520837
20
813.832998
11
50.714354
21
814.052141
0
LINE
8
annotation
62
1
39
211
10
50.714354
20
814.052141
11
50.869649
21
814.309053
0
LINE
8
annotation
62
1
39
211
10
50.869649
20
814.309053
11
50.869649
21
814.309053
0
LINE
8
annotation
62
1
39
211
10
50.869649
20
814.309053
11
51.332993
21
815.393623
0
LINE
8
annotation
62
1
39
211
10
51.332993
20
815.393623
11
51.680501
21
816.509584
0
LINE
8
annotation
62
1
39
211
10
51.680501
20
816.509584
11
51.912173
21
817.648040
0
LINE
8
annotation
62
1
39
211
10
51.912173
20
817.648040
11
52.028009
21
818.800092
0
LINE
8
annotation
62
1
39
211
10
52.028009
20
818.800092
11
52.028009
21
819.956845
0
LINE
8
annotation
62
1
39
211
10
52.028009
20
819.956845
11
51.912173
21
821.109401
0
LINE
8
annotation
62
1
39
211
10
51.912173
20
821.109401
11
51.680501
21
822.248862
0
LINE
8
annotation
62
1
39
211
10
51.680501
20
822.248862
11
51.332993
21
823.366332
0
LINE
8
annotation
62
1
39
211
10
51.332993
20
823.366332
11
50.869649
21
824.452914
0
LINE
8
annotation
62
1
39
211
10
50.869649
20
824.452914
11
50.869649
21
824.452914
0
LINE
8
annotation
62
1
39
211
10
50.869649
20
824.452914
11
50.810725
21
824.562573
0
LINE
8
annotation
62
1
39
211
10
50.810725
20
824.562573
11
50.743923
21
824.667415
0
LINE
8
annotation
62
1
39
211
10
50.743923
20
824.667415
11
50.669744
21
824.766923
0
LINE
8
annotation
62
1
39
211
10
50.669744
20
824.766923
11
50.588692
21
824.860582
0
LINE
8
annotation
62
1
39
211
10
50.588692
20
824.860582
11
50.501271
21
824.947878
0
LINE
8
annotation
62
1
39
211
10
50.501271
20
824.947878
11
50.407982
21
825.028294
0
LINE
8
annotation
62
1
39
211
10
50.407982
20
825.028294
11
50.309328
21
825.101316
0
LINE
8
annotation
62
1
39
211
10
50.309328
20
825.101316
11
50.205813
21
825.166427
0
LINE
8
annotation
62
1
39
211
10
50.205813
20
825.166427
11
50.097940
21
825.223114
0
LINE
8
annotation
62
1
39
211
10
50.097940
20
825.223114
11
50.097940
21
825.223114
0
LINE
8
annotation
62
1
39
211
10
50.097940
20
825.223114
11
49.816152
21
825.329889
0
LINE
8
annotation
62
1
39
211
10
49.816152
20
825.329889
11
49.527751
21
825.383586
0
LINE
8
annotation
62
1
39
211
10
49.527751
20
825.383586
11
49.239145
21
825.386335
0
LINE
8
annotation
62
1
39
211
10
49.239145
20
825.386335
11
48.956741
21
825.340264
0
LINE
8
annotation
62
1
39
211
10
48.956741
20
825.340264
11
48.686948
21
825.247504
0
LINE
8
annotation
62
1
39
211
10
48.686948
20
825.247504
11
48.436172
21
825.110184
0
LINE
8
annotation
62
1
39
211
10
48.436172
20
825.110184
11
48.210820
21
824.930433
0
LINE
8
annotation
62
1
39
211
10
48.210820
20
824.930433
11
48.017301
21
824.710382
0
LINE
8
annotation
62
1
39
211
10
48.017301
20
824.710382
11
47.862021
21
824.452159
0
LINE
8
annotation
62
1
39
211
10
47.862021
20
824.452159
11
47.862021
21
824.452159
0
LINE
8
annotation
62
1
39
211
10
47.862021
20
824.452159
11
47.400912
21
823.367813
0
LINE
8
annotation
62
1
39
211
10
47.400912
20
823.367813
11
47.055081
21
822.252019
0
LINE
8
annotation
62
1
39
211
10
47.055081
20
822.252019
11
46.824526
21
821.113675
0
LINE
8
annotation
62
1
39
211
10
46.824526
20
821.113675
11
46.709249
21
819.961679
0
LINE
8
annotation
62
1
39
211
10
46.709249
20
819.961679
11
46.709249
21
818.804926
0
LINE
8
annotation
62
1
39
211
10
46.709249
20
818.804926
11
46.824526
21
817.652314
0
LINE
8
annotation
62
1
39
211
10
46.824526
20
817.652314
11
47.055081
21
816.512741
0
LINE
8
annotation
62
1
39
211
10
47.055081
20
816.512741
11
47.400912
21
815.395104
0
LINE
8
annotation
62
1
39
211
10
47.400912
20
815.395104
11
47.862021
21
814.308298
0
LINE
8
annotation
62
1
39
211
10
47.862021
20
814.308298
11
47.862021
21
814.308298
0
LINE
8
annotation
62
1
39
211
10
47.862021
20
814.308298
11
47.920731
21
814.198857
0
LINE
8
annotation
62
1
39
211
10
47.920731
20
814.198857
11
47.987040
21
814.094539
0
LINE
8
annotation
62
1
39
211
10
47.987040
20
814.094539
11
48.060669
21
813.995659
0
LINE
8
annotation
62
1
39
211
10
48.060669
20
813.995659
11
48.141339
21
813.902534
0
LINE
8
annotation
62
1
39
211
10
48.141339
20
813.902534
11
48.228770
21
813.815482
0
LINE
8
annotation
62
1
39
211
10
48.228770
20
813.815482
11
48.322683
21
813.734818
0
LINE
8
annotation
62
1
39
211
10
48.322683
20
813.734818
11
48.422798
21
813.660860
0
LINE
8
annotation
62
1
39
211
10
48.422798
20
813.660860
11
48.528837
21
813.593924
0
LINE
8
annotation
62
1
39
211
10
48.528837
20
813.593924
11
48.640519
21
813.534326
0
LINE
8
boundary
62
5
39
2
10
15.085879
20
904.952979
11
20.541243
21
898.801522
0
LINE
8
boundary
62
5
39
2
10
20.541243
20
898.801522
11
24.490370
21
894.304526
0
LINE
8
boundary
62
5
39
2
10
24.490370
20
894.304526
11
30.059186
21
888.691520
0
LINE
8
boundary
62
5
39
2
10
30.059186
20
888.691520
11
32.834273
21
885.982597
0
LINE
8
boundary
62
5
39
2
10
32.834273
20
885.982597
11
35.573756
21
884.213797
0
LINE
8
boundary
62
5
39
2
10
35.573756
20
884.213797
11
43.673441
21
879.800818
0
LINE
8
boundary
62
5
39
2
10
43.673441
20
879.800818
11
45.632300
21
879.176900
0
LINE
8
boundary
62
5
39
2
10
45.632300
20
879.176900
11
54.867257
21
876.571853
0
LINE
8
boundary
62
5
39
2
10
54.867257
20
876.571853
11
55.802709
21
876.595445
0
LINE
8
boundary
62
5
39
2
10
55.802709
20
876.595445
11
61.336606
21
876.550189
0
LINE
8
boundary
62
5
39
2
10
61.336606
20
876.550189
11
66.441441
21
876.509116
0
LINE
8
boundary
62
5
39
2
10
66.441441
20
876.509116
11
78.073145
21
879.848890
0
LINE
8
boundary
62
5
39
2
10
78.073145
20
879.848890
11
79.741050
21
880.291845
0
LINE
8
boundary
62
5
39
2
10
79.741050
20
880.291845
11
89.658774
21
889.562933
0
LINE
8
boundary
62
5
39
2
10
89.658774
20
889.562933
11
92.004529
21
891.561226
0
LINE
8
boundary
62
5
39
2
10
92.004529
20
891.561226
11
98.173054
21
902.742962
0
LINE
8
boundary
62
5
39
2
10
98.173054
20
902.742962
11
57.292602
21
902.942962
0
LINE
8
boundary
62
5
39
2
10
57.292602
20
902.942962
11
57.292602
21
906.688962
0
LINE
8
boundary
62
5
39
2
10
57.292602
20
906.688962
11
100.417994
21
906.688962
0
LINE
8
boundary
62
5
39
2
10
100.417994
20
906.688962
11
101.361861
21
908.317784
0
LINE
8
boundary
62
5
39
2
10
101.361861
20
908.317784
11
103.256731
21
922.461766
0
LINE
8
boundary
62
5
39
2
10
103.256731
20
922.461766
11
104.414775
21
927.962580
0
LINE
8
boundary
62
5
39
2
10
104.414775
20
927.962580
11
55.667686
21
928.162580
0
LINE
8
boundary
62
5
39
2
10
55.667686
20
928.162580
11
55.667686
21
931.908580
0
LINE
8
boundary
62
5
39
2
10
55.667686
20
931.908580
11
103.971388
21
931.908580
0
LINE
8
boundary
62
5
39
2
10
103.971388
20
931.908580
11
102.081407
21
942.471028
0
LINE
8
boundary
62
5
39
2
10
102.081407
20
942.471028
11
101.410623
21
948.556846
0
LINE
8
boundary
62
5
39
2
10
101.410623
20
948.556846
11
55.122682
21
948.756846
0
LINE
8
boundary
62
5
39
2
10
55.122682
20
948.756846
11
55.122682
21
952.502846
0
LINE
8
boundary
62
5
39
2
10
55.122682
20
952.502846
11
99.821679
21
952.502846
0
LINE
8
boundary
62
5
39
2
10
99.821679
20
952.502846
11
95.262293
21
960.291081
0
LINE
8
boundary
62
5
39
2
10
95.262293
20
960.291081
11
91.911807
21
966.463850
0
LINE
8
boundary
62
5
39
2
10
91.911807
20
966.463850
11
86.958560
21
970.763197
0
LINE
8
boundary
62
5
39
2
10
86.958560
20
970.763197
11
79.485800
21
977.323181
0
LINE
8
boundary
62
5
39
2
10
79.485800
20
977.323181
11
68.705815
21
981.277114
0
LINE
8
boundary
62
5
39
2
10
68.705815
20
981.277114
11
63.236147
21
983.107046
0
LINE
8
boundary
62
5
39
2
10
63.236147
20
983.107046
11
48.805805
21
982.893679
0
LINE
8
boundary
62
5
39
2
10
48.805805
20
982.893679
11
45.193750
21
982.542922
0
LINE
8
boundary
62
5
39
2
10
45.193750
20
982.542922
11
29.886393
21
976.087322
0
LINE
8
boundary
62
5
39
2
10
29.886393
20
976.087322
11
29.195462
21
975.804670
0
LINE
8
boundary
62
5
39
2
10
29.195462
20
975.804670
11
26.367421
21
973.302288
0
LINE
8
boundary
62
5
39
2
10
26.367421
20
973.302288
11
18.031757
21
964.802908
0
LINE
8
boundary
62
5
39
2
10
18.031757
20
964.802908
11
16.163077
21
962.036249
0
LINE
8
boundary
62
5
39
2
10
16.163077
20
962.036249
11
8.276791
21
949.278162
0
LINE
8
boundary
62
5
39
2
10
8.276791
20
949.278162
11
7.450906
21
943.707473
0
LINE
8
boundary
62
5
39
2
10
7.450906
20
943.707473
11
6.587500
21
932.125920
0
LINE
8
boundary
62
5
39
2
10
6.587500
20
932.125920
11
7.547038
21
926.488334
0
LINE
8
boundary
62
5
39
2
10
7.547038
20
926.488334
11
9.185762
21
917.931201
0
LINE
8
boundary
62
5
39
2
10
9.185762
20
917.931201
11
11.604021
21
912.845555
0
LINE
8
boundary
62
5
39
2
10
11.604021
20
912.845555
11
15.085879
21
904.952979
0
LINE
8
annotation
62
1
39
211
10
47.743603
20
901.615962
11
49.164800
21
901.615962
0
LINE
8
annotation
62
1
39
211
10
49.164800
20
901.615962
11
49.164800
21
901.615962
0
LINE
8
annotation
62
1
39
211
10
49.164800
20
901.615962
11
49.419877
21
901.638896
0
LINE
8
annotation
62
1
39
211
10
49.419877
20
901.638896
11
49.660112
21
901.705015
0
LINE
8
annotation
62
1
39
211
10
49.660112
20
901.705015
11
49.881455
21
901.810292
0
LINE
8
annotation
62
1
39
211
10
49.881455
20
901.810292
11
50.079857
21
901.950699
0
LINE
8
annotation
62
1
39
211
10
50.079857
20
901.950699
11
50.251267
21
902.122211
0
LINE
8
annotation
62
1
39
211
10
50.251267
20
902.122211
11
50.391636
21
902.320800
0
LINE
8
annotation
62
1
39
211
10
50.391636
20
902.320800
11
50.496914
21
902.542439
0
LINE
8
annotation
62
1
39
211
10
50.496914
20
902.542439
11
50.563051
21
902.783103
0
LINE
8
annotation
62
1
39
211
10
50.563051
20
902.783103
11
50.585996
21
903.038764
0
LINE
8
annotation
62
1
39
211
10
50.585996
20
903.038764
11
50.585996
21
903.746753
0
LINE
8
annotation
62
1
39
211
10
50.585996
20
903.746753
11
50.585996
21
903.746753
0
LINE
8
annotation
62
1
39
211
10
50.585996
20
903.746753
11
50.563064
21
904.002290
0
LINE
8
annotation
62
1
39
211
10
50.563064
20
904.002290
11
50.496960
21
904.242621
0
LINE
8
annotation
62
1
39
211
10
50.496960
20
904.242621
11
50.391726
21
904.463780
0
LINE
8
annotation
62
1
39
211
10
50.391726
20
904.463780
11
50.251400
21
904.661800
0
LINE
8
annotation
62
1
39
211
10
50.251400
20
904.661800
11
50.080022
21
904.832712
0
LINE
8
annotation
62
1
39
211
10
50.080022
20
904.832712
11
49.881634
21
904.972549
0
LINE
8
annotation
62
1
39
211
10
49.881634
20
904.972549
11
49.660274
21
905.077345
0
LINE
8
annotation
62
1
39
211
10
49.660274
20
905.077345
11
49.419982
21
905.143132
0
LINE
8
annotation
62
1
39
211
10
49.419982
20
905.143132
11
49.164800
21
905.165943
0
LINE
8
annotation
62
1
39
211
10
49.164800
20
905.165943
11
47.743603
21
905.165943
0
LINE
8
annotation
62
1
39
211
10
47.743603
20
905.165943
11
47.743603
21
908.015962
0
LINE
8
annotation
62
1
39
211
10
47.743603
20
908.015962
11
50.585996
21
908.015962
0
LINE
8
annotation
62
1
39
211
10
48.253492
20
933.235580
11
48.253492
21
933.235580
0
LINE
8
annotation
62
1
39
211
10
48.253492
20
933.235580
11
47.846355
21
933.082929
0
LINE
8
annotation
62
1
39
211
10
47.846355
20
933.082929
11
47.472753
21
932.877248
0
LINE
8
annotation
62
1
39
211
10
47.472753
20
932.877248
11
47.136522
21
932.623693
0
LINE
8
annotation
62
1
39
211
10
47.136522
20
932.623693
11
46.841497
21
932.327416
0
LINE
8
annotation
62
1
39
211
10
46.841497
20
932.327416
11
46.591512
21
931.993570
0
LINE
8
annotation
62
1
39
211
10
46.591512
20
931.993570
11
46.390404
21
931.627308
0
LINE
8
annotation
62
1
39
211
10
46.390404
20
931.627308
11
46.242007
21
931.233784
0
LINE
8
annotation
62
1
39
211
10
46.242007
20
931.233784
11
46.150156
21
930.818151
0
LINE
8
annotation
62
1
39
211
10
46.150156
20
930.818151
11
46.118687
21
930.385562
0
LINE
8
annotation
62
1
39
211
10
46.118687
20
930.385562
11
46.118687
21
928.258382
0
LINE
8
annotation
62
1
39
211
10
46.118687
20
928.258382
11
46.118687
21
928.258382
0
LINE
8
annotation
62
1
39
211
10
46.118687
20
928.258382
11
46.141632
21
928.002722
0
LINE
8
annotation
62
1
39
211
10
46.141632
20
928.002722
11
46.207769
21
927.762058
0
LINE
8
annotation
62
1
39
211
10
46.207769
20
927.762058
11
46.313046
21
927.540418
0
LINE
8
annotation
62
1
39
211
10
46.313046
20
927.540418
11
46.453415
21
927.341829
0
LINE
8
annotation
62
1
39
211
10
46.453415
20
927.341829
11
46.624826
21
927.170318
0
LINE
8
annotation
62
1
39
211
10
46.624826
20
927.170318
11
46.823228
21
927.029910
0
LINE
8
annotation
62
1
39
211
10
46.823228
20
927.029910
11
47.044571
21
926.924634
0
LINE
8
annotation
62
1
39
211
10
47.044571
20
926.924634
11
47.284806
21
926.858515
0
LINE
8
annotation
62
1
39
211
10
47.284806
20
926.858515
11
47.539883
21
926.835580
0
LINE
8
annotation
62
1
39
211
10
47.539883
20
926.835580
11
47.539883
21
926.835580
0
LINE
8
annotation
62
1
39
211
10
47.539883
20
926.835580
11
47.795489
21
926.858515
0
LINE
8
annotation
62
1
39
211
10
47.795489
20
926.858515
11
48.036005
21
926.924634
0
LINE
8
annotation
62
1
39
211
10
48.036005
20
926.924634
11
48.257431
21
927.029910
0
LINE
8
annotation
62
1
39
211
10
48.257431
20
927.029910
11
48.455767
21
927.170318
0
LINE
8
annotation
62
1
39
211
10
48.455767
20
927.170318
11
48.627012
21
927.341829
0
LINE
8
annotation
62
1
39
211
10
48.627012
20
927.341829
11
48.767166
21
927.540418
0
LINE
8
annotation
62
1
39
211
10
48.767166
20
927.540418
11
48.872229
21
927.762058
0
LINE
8
annotation
62
1
39
211
10
48.872229
20
927.762058
11
48.938200
21
928.002722
0
LINE
8
annotation
62
1
39
211
10
48.938200
20
928.002722
11
48.961080
21
928.258382
0
LINE
8
annotation
62
1
39
211
10
48.961080
20
928.258382
11
48.961080
21
928.966372
0
LINE
8
annotation
62
1
39
211
10
48.961080
20
928.966372
11
48.961080
21
928.966372
0
LINE
8
annotation
62
1
39
211
10
48.961080
20
928.966372
11
48.938200
21
929.221909
0
LINE
8
annotation
62
1
39
211
10
48.938200
20
929.221909
11
48.872229
21
929.462240
0
LINE
8
annotation
62
1
39
211
10
48.872229
20
929.462240
11
48.767166
21
929.683399
0
LINE
8
annotation
62
1
39
211
10
48.767166
20
929.683399
11
48.627012
21
929.881418
0
LINE
8
annotation
62
1
39
211
10
48.627012
20
929.881418
11
48.455767
21
930.052330
0
LINE
8
annotation
62
1
39
211
10
48.455767
20
930.052330
11
48.257431
21
930.192168
0
LINE
8
annotation
62
1
39
211
10
48.257431
20
930.192168
11
48.036005
21
930.296964
0
LINE
8
annotation
62
1
39
211
10
48.036005
20
930.296964
11
47.795489
21
930.362751
0
LINE
8
annotation
62
1
39
211
10
47.795489
20
930.362751
11
47.539883
21
930.385562
0
LINE
8
annotation
62
1
39
211
10
47.539883
20
930.385562
11
46.118687
21
930.385562
0
LINE
8
annotation
62
1
39
211
10
45.940686
20
926.035580
11
49.140686
21
926.035580
0
LINE
8
annotation
62
1
39
211
10
46.994880
20
947.429846
11
48.417682
21
953.829846
0
LINE
8
annotation
62
1
39
211
10
48.417682
20
953.829846
11
45.571676
21
953.829846
0
LINE
8
annotation
62
1
39
211
10
48.417682
20
950.979827
11
46.994880
21
950.979827
0
LINE
8
annotation
62
1
39
211
10
27.124015
20
925.716977
11
20.731030
21
925.716977
0
LINE
8
annotation
62
1
39
211
10
20.731030
20
925.716977
11
27.124015
21
937.230704
0
LINE
8
annotation
62
1
39
211
10
27.124015
20
937.230704
11
20.731030
21
937.230704
0
LINE
8
annotation
62
1
39
211
10
37.738255
20
931.473841
11
31.442746
21
931.473841
0
LINE
8
annotation
62
1
39
211
10
43.331395
20
925.716977
11
43.331395
21
925.716977
0
LINE
8
annotation
62
1
39
211
10
43.331395
20
925.716977
11
44.062554
21
925.989442
0
LINE
8
annotation
62
1
39
211
10
44.062554
20
925.989442
11
44.733666
21
926.357729
0
LINE
8
annotation
62
1
39
211
10
44.733666
20
926.357729
11
45.337798
21
926.812452
0
LINE
8
annotation
62
1
39
211
10
45.337798
20
926.812452
11
45.868013
21
927.344230
0
LINE
8
annotation
62
1
39
211
10
45.868013
20
927.344230
11
46.317378
21
927.943678
0
LINE
8
annotation
62
1
39
211
10
46.317378
20
927.943678
11
46.678956
21
928.601412
0
LINE
8
annotation
62
1
39
211
10
46.678956
20
928.601412
11
46.945813
21
929.308050
0
LINE
8
annotation
62
1
39
211
10
46.945813
20
929.308050
11
47.111012
21
930.054206
0
LINE
8
annotation
62
1
39
211
10
47.111012
20
930.054206
11
47.167620
21
930.830499
0
LINE
8
annotation
62
1
39
211
10
47.167620
20
930.830499
11
47.167620
21
934.670333
0
LINE
8
annotation
62
1
39
211
10
47.167620
20
934.670333
11
47.167620
21
934.670333
0
LINE
8
annotation
62
1
39
211
10
47.167620
20
934.670333
11
47.126459
21
935.130297
0
LINE
8
annotation
62
1
39
211
10
47.126459
20
935.130297
11
47.007776
21
935.563322
0
LINE
8
annotation
62
1
39
211
10
47.007776
20
935.563322
11
46.818765
21
935.962152
0
LINE
8
annotation
62
1
39
211
10
46.818765
20
935.962152
11
46.566625
21
936.319531
0
LINE
8
annotation
62
1
39
211
10
46.566625
20
936.319531
11
46.258552
21
936.628204
0
LINE
8
annotation
62
1
39
211
10
46.258552
20
936.628204
11
45.901742
21
936.880914
0
LINE
8
annotation
62
1
39
211
10
45.901742
20
936.880914
11
45.503392
21
937.070405
0
LINE
8
annotation
62
1
39
211
10
45.503392
20
937.070405
11
45.070699
21
937.189420
0
LINE
8
annotation
62
1
39
211
10
45.070699
20
937.189420
11
44.610859
21
937.230704
0
LINE
8
annotation
62
1
39
211
10
44.610859
20
937.230704
11
44.610859
21
937.230704
0
LINE
8
annotation
62
1
39
211
10
44.610859
20
937.230704
11
44.151970
21
937.189420
0
LINE
8
annotation
62
1
39
211
10
44.151970
20
937.189420
11
43.719782
21
937.070405
0
LINE
8
annotation
62
1
39
211
10
43.719782
20
937.070405
11
43.321581
21
936.880914
0
LINE
8
annotation
62
1
39
211
10
43.321581
20
936.880914
11
42.964652
21
936.628204
0
LINE
8
annotation
62
1
39
211
10
42.964652
20
936.628204
11
42.656282
21
936.319531
0
LINE
8
annotation
62
1
39
211
10
42.656282
20
936.319531
11
42.403755
21
935.962152
0
LINE
8
annotation
62
1
39
211
10
42.403755
20
935.962152
11
42.214358
21
935.563322
0
LINE
8
annotation
62
1
39
211
10
42.214358
20
935.563322
11
42.095377
21
935.130297
0
LINE
8
annotation
62
1
39
211
10
42.095377
20
935.130297
11
42.054098
21
934.670333
0
LINE
8
annotation
62
1
39
211
10
42.054098
20
934.670333
11
42.054098
21
933.390148
0
LINE
8
annotation
62
1
39
211
10
42.054098
20
933.390148
11
42.054098
21
933.390148
0
LINE
8
annotation
62
1
39
211
10
42.054098
20
933.390148
11
42.095377
21
932.930209
0
LINE
8
annotation
62
1
39
211
10
42.095377
20
932.930209
11
42.214358
21
932.497251
0
LINE
8
annotation
62
1
39
211
10
42.214358
20
932.497251
11
42.403755
21
932.098516
0
LINE
8
annotation
62
1
39
211
10
42.403755
20
932.098516
11
42.656282
21
931.741251
0
LINE
8
annotation
62
1
39
211
10
42.656282
20
931.741251
11
42.964652
21
931.432698
0
LINE
8
annotation
62
1
39
211
10
42.964652
20
931.432698
11
43.321581
21
931.180102
0
LINE
8
annotation
62
1
39
211
10
43.321581
20
931.180102
11
43.719782
21
930.990707
0
LINE
8
annotation
62
1
39
211
10
43.719782
20
930.990707
11
44.151970
21
930.871758
0
LINE
8
annotation
62
1
39
211
10
44.151970
20
930.871758
11
44.610859
21
930.830499
0
LINE
8
annotation
62
1
39
211
10
44.610859
20
930.830499
11
47.167620
21
930.830499
0
LINE
8
annotation
62
1
39
211
10
41.734593
20
924.277761
11
47.491457
21
924.277761
0
LINE
8
boundary
62
5
39
2
10
170.319984
20
17.345443
11
171.621212
21
14.351198
0
LINE
8
boundary
62
5
39
2
10
171.621212
20
14.351198
11
174.546519
21
10.222434
0
LINE
8
boundary
62
5
39
2
10
174.546519
20
10.222434
11
176.534752
21
8.833641
0
LINE
8
boundary
62
5
39
2
10
176.534752
20
8.833641
11
191.063982
21
6.587500
0
LINE
8
boundary
62
5
39
2
10
191.063982
20
6.587500
11
191.812682
21
6.623965
0
LINE
8
boundary
62
5
39
2
10
191.812682
20
6.623965
11
199.545478
21
7.857172
0
LINE
8
boundary
62
5
39
2
10
199.545478
20
7.857172
11
200.482204
21
7.960374
0
LINE
8
boundary
62
5
39
2
10
200.482204
20
7.960374
11
205.332058
21
9.647576
0
LINE
8
boundary
62
5
39
2
10
205.332058
20
9.647576
11
206.607869
21
10.277140
0
LINE
8
boundary
62
5
39
2
10
206.607869
20
10.277140
11
207.293444
21
10.905714
0
LINE
8
boundary
62
5
39
2
10
207.293444
20
10.905714
11
209.123319
21
13.417942
0
LINE
8
boundary
62
5
39
2
10
209.123319
20
13.417942
11
209.836694
21
14.725509
0
LINE
8
boundary
62
5
39
2
10
209.836694
20
14.725509
11
210.313728
21
16.920185
0
LINE
8
boundary
62
5
39
2
10
210.313728
20
16.920185
11
211.798610
21
20.420790
0
LINE
8
boundary
62
5
39
2
10
211.798610
20
20.420790
11
211.116438
21
23.916902
0
LINE
8
boundary
62
5
39
2
10
211.116438
20
23.916902
11
211.271102
21
27.938725
0
LINE
8
boundary
62
5
39
2
10
211.271102
20
27.938725
11
210.807298
21
32.347300
0
LINE
8
boundary
62
5
39
2
10
210.807298
20
32.347300
11
209.869520
21
36.189264
0
LINE
8
boundary
62
5
39
2
10
209.869520
20
36.189264
11
209.151418
21
39.118139
0
LINE
8
boundary
62
5
39
2
10
209.151418
20
39.118139
11
208.231257
21
44.893664
0
LINE
8
boundary
62
5
39
2
10
208.231257
20
44.893664
11
207.898496
21
46.795422
0
LINE
8
boundary
62
5
39
2
10
207.898496
20
46.795422
11
206.161137
21
54.217390
0
LINE
8
boundary
62
5
39
2
10
206.161137
20
54.217390
11
205.995313
21
54.752473
0
LINE
8
boundary
62
5
39
2
10
205.995313
20
54.752473
11
203.093724
21
65.722834
0
LINE
8
boundary
62
5
39
2
10
203.093724
20
65.722834
11
202.231853
21
68.813251
0
LINE
8
boundary
62
5
39
2
10
202.231853
20
68.813251
11
200.210885
21
74.527195
0
LINE
8
boundary
62
5
39
2
10
200.210885
20
74.527195
11
199.463789
21
82.117390
0
LINE
8
boundary
62
5
39
2
10
199.463789
20
82.117390
11
199.152307
21
89.382997
0
LINE
8
boundary
62
5
39
2
10
199.152307
20
89.382997
11
198.801327
21
96.753141
0
LINE
8
boundary
62
5
39
2
10
198.801327
20
96.753141
11
199.093478
21
105.945598
0
LINE
8
boundary
62
5
39
2
10
199.093478
20
105.945598
11
197.788132
21
114.476091
0
LINE
8
boundary
62
5
39
2
10
197.788132
20
114.476091
11
200.151531
21
132.370957
0
LINE
8
boundary
62
5
39
2
10
200.151531
20
132.370957
11
201.102080
21
139.071943
0
LINE
8
boundary
62
5
39
2
10
201.102080
20
139.071943
11
201.621195
21
142.374109
0
LINE
8
boundary
62
5
39
2
10
201.621195
20
142.374109
11
202.408000
21
146.062146
0
LINE
8
boundary
62
5
39
2
10
202.408000
20
146.062146
11
203.570110
21
165.251447
0
LINE
8
boundary
62
5
39
2
10
203.570110
20
165.251447
11
204.211821
21
178.938141
0
LINE
8
boundary
62
5
39
2
10
204.211821
20
178.938141
11
208.250722
21
214.796684
0
LINE
8
boundary
62
5
39
2
10
208.250722
20
214.796684
11
209.442696
21
231.973196
0
LINE
8
boundary
62
5
39
2
10
209.442696
20
231.973196
11
210.892863
21
256.242134
0
LINE
8
boundary
62
5
39
2
10
210.892863
20
256.242134
11
215.083494
21
289.509979
0
LINE
8
boundary
62
5
39
2
10
215.083494
20
289.509979
11
215.164260
21
294.843855
0
LINE
8
boundary
62
5
39
2
10
215.164260
20
294.843855
11
216.293608
21
325.168087
0
LINE
8
boundary
62
5
39
2
10
216.293608
20
325.168087
11
216.502820
21
343.740982
0
LINE
8
boundary
62
5
39
2
10
216.502820
20
343.740982
11
216.613859
21
346.322446
0
LINE
8
boundary
62
5
39
2
10
216.613859
20
346.322446
11
216.286328
21
351.180517
0
LINE
8
boundary
62
5
39
2
10
216.286328
20
351.180517
11
216.179462
21
352.766322
0
LINE
8
boundary
62
5
39
2
10
216.179462
20
352.766322
11
214.335101
21
380.126007
0
LINE
8
boundary
62
5
39
2
10
214.335101
20
380.126007
11
212.880560
21
380.126102
0
LINE
8
boundary
62
5
39
2
10
212.880560
20
380.126102
11
194.854186
21
380.126256
0
LINE
8
boundary
62
5
39
2
10
194.854186
20
380.126256
11
173.746561
21
380.126280
0
LINE
8
boundary
62
5
39
2
10
173.746561
20
380.126280
11
157.126512
21
380.126297
0
LINE
8
boundary
62
5
39
2
10
157.126512
20
380.126297
11
124.825434
21
380.126228
0
LINE
8
boundary
62
5
39
2
10
124.825434
20
380.126228
11
124.037863
21
380.126157
0
LINE
8
boundary
62
5
39
2
10
124.037863
20
380.126157
11
117.367585
21
380.126335
0
LINE
8
boundary
62
5
39
2
10
117.367585
20
380.126335
11
117.510398
21
378.457829
0
LINE
8
boundary
62
5
39
2
10
117.510398
20
378.457829
11
118.599994
21
363.392243
0
LINE
8
boundary
62
5
39
2
10
118.599994
20
363.392243
11
167.044808
21
363.192244
0
LINE
8
boundary
62
5
39
2
10
167.044808
20
363.192244
11
167.044808
21
359.446244
0
LINE
8
boundary
62
5
39
2
10
167.044808
20
359.446244
11
118.960148
21
359.446244
0
LINE
8
boundary
62
5
39
2
10
118.960148
20
359.446244
11
119.432103
21
351.886865
0
LINE
8
boundary
62
5
39
2
10
119.432103
20
351.886865
11
119.995584
21
348.033506
0
LINE
8
boundary
62
5
39
2
10
119.995584
20
348.033506
11
123.848456
21
325.773608
0
LINE
8
boundary
62
5
39
2
10
123.848456
20
325.773608
11
169.963625
21
325.573608
0
LINE
8
boundary
62
5
39
2
10
169.963625
20
325.573608
11
169.963624
21
321.827609
0
LINE
8
boundary
62
5
39
2
10
169.963624
20
321.827609
11
124.626370
21
321.827609
0
LINE
8
boundary
62
5
39
2
10
124.626370
20
321.827609
11
126.348928
21
311.327179
0
LINE
8
boundary
62
5
39
2
10
126.348928
20
311.327179
11
127.429272
21
307.236119
0
LINE
8
boundary
62
5
39
2
10
127.429272
20
307.236119
11
132.330737
21
288.154966
0
LINE
8
boundary
62
5
39
2
10
132.330737
20
288.154966
11
173.507863
21
287.954974
0
LINE
8
boundary
62
5
39
2
10
173.507863
20
287.954974
11
173.507862
21
284.208974
0
LINE
8
boundary
62
5
39
2
10
173.507862
20
284.208974
11
133.456038
21
284.208973
0
LINE
8
boundary
62
5
39
2
10
133.456038
20
284.208973
11
136.941753
21
270.204518
0
LINE
8
boundary
62
5
39
2
10
136.941753
20
270.204518
11
140.307862
21
257.035889
0
LINE
8
boundary
62
5
39
2
10
140.307862
20
257.035889
11
141.942035
21
250.536338
0
LINE
8
boundary
62
5
39
2
10
141.942035
20
250.536338
11
176.139144
21
250.336338
0
LINE
8
boundary
62
5
39
2
10
176.139144
20
250.336338
11
176.139144
21
246.590338
0
LINE
8
boundary
62
5
39
2
10
176.139144
20
246.590338
11
143.044758
21
246.590338
0
LINE
8
boundary
62
5
39
2
10
143.044758
20
246.590338
11
149.607780
21
220.047586
0
LINE
8
boundary
62
5
39
2
10
149.607780
20
220.047586
11
150.863605
21
212.917700
0
LINE
8
boundary
62
5
39
2
10
150.863605
20
212.917700
11
179.330694
21
212.717703
0
LINE
8
boundary
62
5
39
2
10
179.330694
20
212.717703
11
179.330694
21
208.971703
0
LINE
8
boundary
62
5
39
2
10
179.330694
20
208.971703
11
151.654161
21
208.971703
0
LINE
8
boundary
62
5
39
2
10
151.654161
20
208.971703
11
154.970303
21
189.602112
0
LINE
8
boundary
62
5
39
2
10
154.970303
20
189.602112
11
157.908338
21
175.669409
0
LINE
8
boundary
62
5
39
2
10
157.908338
20
175.669409
11
158.031285
21
175.099068
0
LINE
8
boundary
62
5
39
2
10
158.031285
20
175.099068
11
180.891319
21
175.099068
0
LINE
8
boundary
62
5
39
2
10
180.891319
20
175.099068
11
180.891320
21
171.353068
0
LINE
8
boundary
62
5
39
2
10
180.891320
20
171.353068
11
158.732616
21
171.353068
0
LINE
8
boundary
62
5
39
2
10
158.732616
20
171.353068
11
160.268226
21
161.718664
0
LINE
8
boundary
62
5
39
2
10
160.268226
20
161.718664
11
164.476685
21
141.663103
0
LINE
8
boundary
62
5
39
2
10
164.476685
20
141.663103
11
165.607468
21
137.680432
0
LINE
8
boundary
62
5
39
2
10
165.607468
20
137.680432
11
183.143287
21
137.480433
0
LINE
8
boundary
62
5
39
2
10
183.143287
20
137.480433
11
183.143287
21
133.734433
0
LINE
8
boundary
62
5
39
2
10
183.143287
20
133.734433
11
166.844923
21
133.734433
0
LINE
8
boundary
62
5
39
2
10
166.844923
20
133.734433
11
167.693649
21
130.332800
0
LINE
8
boundary
62
5
39
2
10
167.693649
20
130.332800
11
170.386592
21
119.061617
0
LINE
8
boundary
62
5
39
2
10
170.386592
20
119.061617
11
171.547289
21
114.586739
0
LINE
8
boundary
62
5
39
2
10
171.547289
20
114.586739
11
173.565367
21
103.258419
0
LINE
8
boundary
62
5
39
2
10
173.565367
20
103.258419
11
173.567883
21
101.589070
0
LINE
8
boundary
62
5
39
2
10
173.567883
20
101.589070
11
173.586877
21
100.061797
0
LINE
8
boundary
62
5
39
2
10
173.586877
20
100.061797
11
186.117745
21
99.861797
0
LINE
8
boundary
62
5
39
2
10
186.117745
20
99.861797
11
186.117744
21
96.115798
0
LINE
8
boundary
62
5
39
2
10
186.117744
20
96.115798
11
173.698740
21
96.115797
0
LINE
8
boundary
62
5
39
2
10
173.698740
20
96.115797
11
173.723829
21
89.049935
0
LINE
8
boundary
62
5
39
2
10
173.723829
20
89.049935
11
173.770380
21
86.997958
0
LINE
8
boundary
62
5
39
2
10
173.770380
20
86.997958
11
172.687861
21
75.386476
0
LINE
8
boundary
62
5
39
2
10
172.687861
20
75.386476
11
172.077603
21
66.143886
0
LINE
8
boundary
62
5
39
2
10
172.077603
20
66.143886
11
172.143548
21
62.443162
0
LINE
8
boundary
62
5
39
2
10
172.143548
20
62.443162
11
188.102709
21
62.243162
0
LINE
8
boundary
62
5
39
2
10
188.102709
20
62.243162
11
188.102709
21
58.497162
0
LINE
8
boundary
62
5
39
2
10
188.102709
20
58.497162
11
171.473925
21
58.497162
0
LINE
8
boundary
62
5
39
2
10
171.473925
20
58.497162
11
170.875552
21
55.667723
0
LINE
8
boundary
62
5
39
2
10
170.875552
20
55.667723
11
170.291292
21
50.059434
0
LINE
8
boundary
62
5
39
2
10
170.291292
20
50.059434
11
169.134976
21
42.731367
0
LINE
8
boundary
62
5
39
2
10
169.134976
20
42.731367
11
168.606010
21
38.331010
0
LINE
8
boundary
62
5
39
2
10
168.606010
20
38.331010
11
169.013574
21
34.202041
0
LINE
8
boundary
62
5
39
2
10
169.013574
20
34.202041
11
168.870593
21
27.070036
0
LINE
8
boundary
62
5
39
2
10
168.870593
20
27.070036
11
169.295269
21
22.945324
0
LINE
8
boundary
62
5
39
2
10
169.295269
20
22.945324
11
190.386183
21
22.745325
0
LINE
8
boundary
62
5
39
2
10
190.386183
20
22.745325
11
190.386183
21
18.999324
0
LINE
8
boundary
62
5
39
2
10
190.386183
20
18.999324
11
170.048727
21
18.999324
0
LINE
8
boundary
62
5
39
2
10
170.048727
20
18.999324
11
170.319984
21
17.345443
0
LINE
8
annotation
62
1
39
211
10
199.223982
20
17.672324
11
199.223982
21
24.072324
0
LINE
8
annotation
62
1
39
211
10
199.223982
20
24.072324
11
197.801180
21
22.649121
0
LINE
8
annotation
62
1
39
211
10
197.650103
20
57.170110
11
194.807710
21
57.170110
0
LINE
8
annotation
62
1
39
211
10
194.807710
20
57.170110
11
197.434175
21
61.398380
0
LINE
8
annotation
62
1
39
211
10
197.434175
20
61.398380
11
197.434175
21
61.398380
0
LINE
8
annotation
62
1
39
211
10
197.434175
20
61.398380
11
197.437314
21
61.402266
0
LINE
8
annotation
62
1
39
211
10
197.437314
20
61.402266
11
197.440325
21
61.406184
0
LINE
8
annotation
62
1
39
211
10
197.440325
20
61.406184
11
197.443227
21
61.410168
0
LINE
8
annotation
62
1
39
211
10
197.443227
20
61.410168
11
197.446040
21
61.414252
0
LINE
8
annotation
62
1
39
211
10
197.446040
20
61.414252
11
197.448784
21
61.418467
0
LINE
8
annotation
62
1
39
211
10
197.448784
20
61.418467
11
197.451477
21
61.422848
0
LINE
8
annotation
62
1
39
211
10
197.451477
20
61.422848
11
197.454142
21
61.427427
0
LINE
8
annotation
62
1
39
211
10
197.454142
20
61.427427
11
197.456796
21
61.432237
0
LINE
8
annotation
62
1
39
211
10
197.456796
20
61.432237
11
197.459460
21
61.437312
0
LINE
8
annotation
62
1
39
211
10
197.459460
20
61.437312
11
197.459460
21
61.437312
0
LINE
8
annotation
62
1
39
211
10
197.459460
20
61.437312
11
197.567906
21
61.670155
0
LINE
8
annotation
62
1
39
211
10
197.567906
20
61.670155
11
197.631258
21
61.911517
0
LINE
8
annotation
62
1
39
211
10
197.631258
20
61.911517
11
197.651070
21
62.155945
0
LINE
8
annotation
62
1
39
211
10
197.651070
20
62.155945
11
197.628892
21
62.397984
0
LINE
8
annotation
62
1
39
211
10
197.628892
20
62.397984
11
197.566279
21
62.632181
0
LINE
8
annotation
62
1
39
211
10
197.566279
20
62.632181
11
197.464782
21
62.853083
0
LINE
8
annotation
62
1
39
211
10
197.464782
20
62.853083
11
197.325954
21
63.055234
0
LINE
8
annotation
62
1
39
211
10
197.325954
20
63.055234
11
197.151347
21
63.233183
0
LINE
8
annotation
62
1
39
211
10
197.151347
20
63.233183
11
196.942515
21
63.381473
0
LINE
8
annotation
62
1
39
211
10
196.942515
20
63.381473
11
196.942515
21
63.381473
0
LINE
8
annotation
62
1
39
211
10
196.942515
20
63.381473
11
196.709025
21
63.488379
0
LINE
8
annotation
62
1
39
211
10
196.709025
20
63.488379
11
196.467293
21
63.550755
0
LINE
8
annotation
62
1
39
211
10
196.467293
20
63.550755
11
196.222723
21
63.570006
0
LINE
8
annotation
62
1
39
211
10
196.222723
20
63.570006
11
195.980720
21
63.547536
0
LINE
8
annotation
62
1
39
211
10
195.980720
20
63.547536
11
195.746688
21
63.484749
0
LINE
8
annotation
62
1
39
211
10
195.746688
20
63.484749
11
195.526031
21
63.383049
0
LINE
8
annotation
62
1
39
211
10
195.526031
20
63.383049
11
195.324153
21
63.243840
0
LINE
8
annotation
62
1
39
211
10
195.324153
20
63.243840
11
195.146460
21
63.068525
0
LINE
8
annotation
62
1
39
211
10
195.146460
20
63.068525
11
194.998354
21
62.858508
0
LINE
8
annotation
62
1
39
211
10
194.998354
20
62.858508
11
194.811724
21
62.500500
0
LINE
8
annotation
62
1
39
211
10
192.822745
20
94.788998
11
194.243942
21
94.788998
0
LINE
8
annotation
62
1
39
211
10
194.243942
20
94.788998
11
194.243942
21
94.788998
0
LINE
8
annotation
62
1
39
211
10
194.243942
20
94.788998
11
194.499548
21
94.811928
0
LINE
8
annotation
62
1
39
211
10
194.499548
20
94.811928
11
194.740064
21
94.878012
0
LINE
8
annotation
62
1
39
211
10
194.740064
20
94.878012
11
194.961490
21
94.983194
0
LINE
8
annotation
62
1
39
211
10
194.961490
20
94.983194
11
195.159825
21
95.123418
0
LINE
8
annotation
62
1
39
211
10
195.159825
20
95.123418
11
195.331071
21
95.294628
0
LINE
8
annotation
62
1
39
211
10
195.331071
20
95.294628
11
195.471225
21
95.492766
0
LINE
8
annotation
62
1
39
211
10
195.471225
20
95.492766
11
195.576288
21
95.713776
0
LINE
8
annotation
62
1
39
211
10
195.576288
20
95.713776
11
195.642259
21
95.953602
0
LINE
8
annotation
62
1
39
211
10
195.642259
20
95.953602
11
195.665139
21
96.208188
0
LINE
8
annotation
62
1
39
211
10
195.665139
20
96.208188
11
195.665139
21
96.919789
0
LINE
8
annotation
62
1
39
211
10
195.665139
20
96.919789
11
195.665139
21
96.919789
0
LINE
8
annotation
62
1
39
211
10
195.665139
20
96.919789
11
195.642259
21
97.174269
0
LINE
8
annotation
62
1
39
211
10
195.642259
20
97.174269
11
195.576288
21
97.414039
0
LINE
8
annotation
62
1
39
211
10
195.576288
20
97.414039
11
195.471225
21
97.635033
0
LINE
8
annotation
62
1
39
211
10
195.471225
20
97.635033
11
195.331071
21
97.833184
0
LINE
8
annotation
62
1
39
211
10
195.331071
20
97.833184
11
195.159825
21
98.004427
0
LINE
8
annotation
62
1
39
211
10
195.159825
20
98.004427
11
194.961490
21
98.144694
0
LINE
8
annotation
62
1
39
211
10
194.961490
20
98.144694
11
194.740064
21
98.249919
0
LINE
8
annotation
62
1
39
211
10
194.740064
20
98.249919
11
194.499548
21
98.316036
0
LINE
8
annotation
62
1
39
211
10
194.499548
20
98.316036
11
194.243942
21
98.338979
0
LINE
8
annotation
62
1
39
211
10
194.243942
20
98.338979
11
193.532340
21
98.338979
0
LINE
8
annotation
62
1
39
211
10
193.532340
20
98.338979
11
194.243942
21
98.338979
0
LINE
8
annotation
62
1
39
211
10
194.243942
20
98.338979
11
194.243942
21
98.338979
0
LINE
8
annotation
62
1
39
211
10
194.243942
20
98.338979
11
194.499548
21
98.361927
0
LINE
8
annotation
62
1
39
211
10
194.499548
20
98.361927
11
194.740064
21
98.428083
0
LINE
8
annotation
62
1
39
211
10
194.740064
20
98.428083
11
194.961490
21
98.533413
0
LINE
8
annotation
62
1
39
211
10
194.961490
20
98.533413
11
195.159825
21
98.673884
0
LINE
8
annotation
62
1
39
211
10
195.159825
20
98.673884
11
195.331071
21
98.845462
0
LINE
8
annotation
62
1
39
211
10
195.331071
20
98.845462
11
195.471225
21
99.044115
0
LINE
8
annotation
62
1
39
211
10
195.471225
20
99.044115
11
195.576288
21
99.265808
0
LINE
8
annotation
62
1
39
211
10
195.576288
20
99.265808
11
195.642259
21
99.506508
0
LINE
8
annotation
62
1
39
211
10
195.642259
20
99.506508
11
195.665139
21
99.762182
0
LINE
8
annotation
62
1
39
211
10
195.665139
20
99.762182
11
195.665139
21
99.762182
0
LINE
8
annotation
62
1
39
211
10
195.665139
20
99.762182
11
195.642259
21
100.016662
0
LINE
8
annotation
62
1
39
211
10
195.642259
20
100.016662
11
195.576288
21
100.256432
0
LINE
8
annotation
62
1
39
211
10
195.576288
20
100.256432
11
195.471225
21
100.477426
0
LINE
8
annotation
62
1
39
211
10
195.471225
20
100.477426
11
195.331071
21
100.675577
0
LINE
8
annotation
62
1
39
211
10
195.331071
20
100.675577
11
195.159825
21
100.846820
0
LINE
8
annotation
62
1
39
211
10
195.159825
20
100.846820
11
194.961490
21
100.987087
0
LINE
8
annotation
62
1
39
211
10
194.961490
20
100.987087
11
194.740064
21
101.092312
0
LINE
8
annotation
62
1
39
211
10
194.740064
20
101.092312
11
194.499548
21
101.158430
0
LINE
8
annotation
62
1
39
211
10
194.499548
20
101.158430
11
194.243942
21
101.181372
0
LINE
8
annotation
62
1
39
211
10
194.243942
20
101.181372
11
192.822745
21
101.181372
0
LINE
8
annotation
62
1
39
211
10
193.046281
20
133.830235
11
189.492687
21
133.830235
0
LINE
8
annotation
62
1
39
211
10
189.492687
20
133.830235
11
190.911877
21
138.807433
0
LINE
8
annotation
62
1
39
211
10
191.981086
20
132.407433
11
191.981086
21
135.249826
0
LINE
8
annotation
62
1
39
211
10
187.596320
20
170.026068
11
189.017517
21
170.026068
0
LINE
8
annotation
62
1
39
211
10
189.017517
20
170.026068
11
189.017517
21
170.026068
0
LINE
8
annotation
62
1
39
211
10
189.017517
20
170.026068
11
189.272594
21
170.049002
0
LINE
8
annotation
62
1
39
211
10
189.272594
20
170.049002
11
189.512829
21
170.115121
0
LINE
8
annotation
62
1
39
211
10
189.512829
20
170.115121
11
189.734173
21
170.220398
0
LINE
8
annotation
62
1
39
211
10
189.734173
20
170.220398
11
189.932575
21
170.360805
0
LINE
8
annotation
62
1
39
211
10
189.932575
20
170.360805
11
190.103985
21
170.532317
0
LINE
8
annotation
62
1
39
211
10
190.103985
20
170.532317
11
190.244354
21
170.730906
0
LINE
8
annotation
62
1
39
211
10
190.244354
20
170.730906
11
190.349632
21
170.952546
0
LINE
8
annotation
62
1
39
211
10
190.349632
20
170.952546
11
190.415768
21
171.193209
0
LINE
8
annotation
62
1
39
211
10
190.415768
20
171.193209
11
190.438714
21
171.448870
0
LINE
8
annotation
62
1
39
211
10
190.438714
20
171.448870
11
190.438714
21
172.156859
0
LINE
8
annotation
62
1
39
211
10
190.438714
20
172.156859
11
190.438714
21
172.156859
0
LINE
8
annotation
62
1
39
211
10
190.438714
20
172.156859
11
190.415781
21
172.412396
0
LINE
8
annotation
62
1
39
211
10
190.415781
20
172.412396
11
190.349678
21
172.652728
0
LINE
8
annotation
62
1
39
211
10
190.349678
20
172.652728
11
190.244443
21
172.873887
0
LINE
8
annotation
62
1
39
211
10
190.244443
20
172.873887
11
190.104117
21
173.071906
0
LINE
8
annotation
62
1
39
211
10
190.104117
20
173.071906
11
189.932740
21
173.242818
0
LINE
8
annotation
62
1
39
211
10
189.932740
20
173.242818
11
189.734351
21
173.382656
0
LINE
8
annotation
62
1
39
211
10
189.734351
20
173.382656
11
189.512991
21
173.487451
0
LINE
8
annotation
62
1
39
211
10
189.512991
20
173.487451
11
189.272700
21
173.553238
0
LINE
8
annotation
62
1
39
211
10
189.272700
20
173.553238
11
189.017517
21
173.576049
0
LINE
8
annotation
62
1
39
211
10
189.017517
20
173.576049
11
187.596320
21
173.576049
0
LINE
8
annotation
62
1
39
211
10
187.596320
20
173.576049
11
187.596320
21
176.426068
0
LINE
8
annotation
62
1
39
211
10
187.596320
20
176.426068
11
190.438714
21
176.426068
0
LINE
8
annotation
62
1
39
211
10
188.170500
20
214.044703
11
188.170500
21
214.044703
0
LINE
8
annotation
62
1
39
211
10
188.170500
20
214.044703
11
187.763363
21
213.892051
0
LINE
8
annotation
62
1
39
211
10
187.763363
20
213.892051
11
187.389761
21
213.686371
0
LINE
8
annotation
62
1
39
211
10
187.389761
20
213.686371
11
187.053530
21
213.432816
0
LINE
8
annotation
62
1
39
211
10
187.053530
20
213.432816
11
186.758505
21
213.136538
0
LINE
8
annotation
62
1
39
211
10
186.758505
20
213.136538
11
186.508520
21
212.802692
0
LINE
8
annotation
62
1
39
211
10
186.508520
20
212.802692
11
186.307412
21
212.436431
0
LINE
8
annotation
62
1
39
211
10
186.307412
20
212.436431
11
186.159015
21
212.042907
0
LINE
8
annotation
62
1
39
211
10
186.159015
20
212.042907
11
186.067164
21
211.627273
0
LINE
8
annotation
62
1
39
211
10
186.067164
20
211.627273
11
186.035695
21
211.194684
0
LINE
8
annotation
62
1
39
211
10
186.035695
20
211.194684
11
186.035695
21
209.067505
0
LINE
8
annotation
62
1
39
211
10
186.035695
20
209.067505
11
186.035695
21
209.067505
0
LINE
8
annotation
62
1
39
211
10
186.035695
20
209.067505
11
186.058640
21
208.811844
0
LINE
8
annotation
62
1
39
211
10
186.058640
20
208.811844
11
186.124777
21
208.571181
0
LINE
8
annotation
62
1
39
211
10
186.124777
20
208.571181
11
186.230054
21
208.349541
0
LINE
8
annotation
62
1
39
211
10
186.230054
20
208.349541
11
186.370423
21
208.150952
0
LINE
8
annotation
62
1
39
211
10
186.370423
20
208.150952
11
186.541834
21
207.979440
0
LINE
8
annotation
62
1
39
211
10
186.541834
20
207.979440
11
186.740236
21
207.839033
0
LINE
8
annotation
62
1
39
211
10
186.740236
20
207.839033
11
186.961579
21
207.733756
0
LINE
8
annotation
62
1
39
211
10
186.961579
20
207.733756
11
187.201814
21
207.667638
0
LINE
8
annotation
62
1
39
211
10
187.201814
20
207.667638
11
187.456891
21
207.644703
0
LINE
8
annotation
62
1
39
211
10
187.456891
20
207.644703
11
187.456891
21
207.644703
0
LINE
8
annotation
62
1
39
211
10
187.456891
20
207.644703
11
187.712497
21
207.667638
0
LINE
8
annotation
62
1
39
211
10
187.712497
20
207.667638
11
187.953013
21
207.733756
0
LINE
8
annotation
62
1
39
211
10
187.953013
20
207.733756
11
188.174439
21
207.839033
0
LINE
8
annotation
62
1
39
211
10
188.174439
20
207.839033
11
188.372775
21
207.979440
0
LINE
8
annotation
62
1
39
211
10
188.372775
20
207.979440
11
188.544020
21
208.150952
0
LINE
8
annotation
62
1
39
211
10
188.544020
20
208.150952
11
188.684174
21
208.349541
0
LINE
8
annotation
62
1
39
211
10
188.684174
20
208.349541
11
188.789237
21
208.571181
0
LINE
8
annotation
62
1
39
211
10
188.789237
20
208.571181
11
188.855208
21
208.811844
0
LINE
8
annotation
62
1
39
211
10
188.855208
20
208.811844
11
188.878088
21
209.067505
0
LINE
8
annotation
62
1
39
211
10
188.878088
20
209.067505
11
188.878088
21
209.775494
0
LINE
8
annotation
62
1
39
211
10
188.878088
20
209.775494
11
188.878088
21
209.775494
0
LINE
8
annotation
62
1
39
211
10
188.878088
20
209.775494
11
188.855208
21
210.031031
0
LINE
8
annotation
62
1
39
211
10
188.855208
20
210.031031
11
188.789237
21
210.271363
0
LINE
8
annotation
62
1
39
211
10
188.789237
20
210.271363
11
188.684174
21
210.492522
0
LINE
8
annotation
62
1
39
211
10
188.684174
20
210.492522
11
188.544020
21
210.690541
0
LINE
8
annotation
62
1
39
211
10
188.544020
20
210.690541
11
188.372775
21
210.861453
0
LINE
8
annotation
62
1
39
211
10
188.372775
20
210.861453
11
188.174439
21
211.001291
0
LINE
8
annotation
62
1
39
211
10
188.174439
20
211.001291
11
187.953013
21
211.106087
0
LINE
8
annotation
62
1
39
211
10
187.953013
20
211.106087
11
187.712497
21
211.171874
0
LINE
8
annotation
62
1
39
211
10
187.712497
20
211.171874
11
187.456891
21
211.194684
0
LINE
8
annotation
62
1
39
211
10
187.456891
20
211.194684
11
186.035695
21
211.194684
0
LINE
8
annotation
62
1
39
211
10
185.857694
20
206.844703
11
189.057694
21
206.844703
0
LINE
8
annotation
62
1
39
211
10
184.265341
20
245.263338
11
185.688143
21
251.663338
0
LINE
8
annotation
62
1
39
211
10
185.688143
20
251.663338
11
182.842138
21
251.663338
0
LINE
8
annotation
62
1
39
211
10
185.688143
20
248.813319
11
184.265341
21
248.813319
0
LINE
8
annotation
62
1
39
211
10
180.212864
20
284.300963
11
180.212864
21
284.300963
0
LINE
8
annotation
62
1
39
211
10
180.212864
20
284.300963
11
180.235809
21
284.045426
0
LINE
8
annotation
62
1
39
211
10
180.235809
20
284.045426
11
180.301946
21
283.805094
0
LINE
8
annotation
62
1
39
211
10
180.301946
20
283.805094
11
180.407223
21
283.583935
0
LINE
8
annotation
62
1
39
211
10
180.407223
20
283.583935
11
180.547592
21
283.385916
0
LINE
8
annotation
62
1
39
211
10
180.547592
20
283.385916
11
180.719002
21
283.215004
0
LINE
8
annotation
62
1
39
211
10
180.719002
20
283.215004
11
180.917404
21
283.075166
0
LINE
8
annotation
62
1
39
211
10
180.917404
20
283.075166
11
181.138748
21
282.970370
0
LINE
8
annotation
62
1
39
211
10
181.138748
20
282.970370
11
181.378983
21
282.904583
0
LINE
8
annotation
62
1
39
211
10
181.378983
20
282.904583
11
181.634060
21
282.881773
0
LINE
8
annotation
62
1
39
211
10
181.634060
20
282.881773
11
181.634060
21
282.881773
0
LINE
8
annotation
62
1
39
211
10
181.634060
20
282.881773
11
181.889137
21
282.904583
0
LINE
8
annotation
62
1
39
211
10
181.889137
20
282.904583
11
182.129372
21
282.970370
0
LINE
8
annotation
62
1
39
211
10
182.129372
20
282.970370
11
182.350716
21
283.075166
0
LINE
8
annotation
62
1
39
211
10
182.350716
20
283.075166
11
182.549118
21
283.215004
0
LINE
8
annotation
62
1
39
211
10
182.549118
20
283.215004
11
182.720528
21
283.385916
0
LINE
8
annotation
62
1
39
211
10
182.720528
20
283.385916
11
182.860897
21
283.583935
0
LINE
8
annotation
62
1
39
211
10
182.860897
20
283.583935
11
182.966175
21
283.805094
0
LINE
8
annotation
62
1
39
211
10
182.966175
20
283.805094
11
183.032311
21
284.045426
0
LINE
8
annotation
62
1
39
211
10
183.032311
20
284.045426
11
183.055257
21
284.300963
0
LINE
8
annotation
62
1
39
211
10
183.055257
20
284.300963
11
183.055257
21
285.008952
0
LINE
8
annotation
62
1
39
211
10
183.055257
20
285.008952
11
183.055257
21
285.008952
0
LINE
8
annotation
62
1
39
211
10
183.055257
20
285.008952
11
183.032324
21
285.264613
0
LINE
8
annotation
62
1
39
211
10
183.032324
20
285.264613
11
182.966221
21
285.505276
0
LINE
8
annotation
62
1
39
211
10
182.966221
20
285.505276
11
182.860986
21
285.726916
0
LINE
8
annotation
62
1
39
211
10
182.860986
20
285.726916
11
182.720660
21
285.925505
0
LINE
8
annotation
62
1
39
211
10
182.720660
20
285.925505
11
182.549283
21
286.097017
0
LINE
8
annotation
62
1
39
211
10
182.549283
20
286.097017
11
182.350894
21
286.237424
0
LINE
8
annotation
62
1
39
211
10
182.350894
20
286.237424
11
182.129534
21
286.342701
0
LINE
8
annotation
62
1
39
211
10
182.129534
20
286.342701
11
181.889243
21
286.408820
0
LINE
8
annotation
62
1
39
211
10
181.889243
20
286.408820
11
181.634060
21
286.431754
0
LINE
8
annotation
62
1
39
211
10
181.634060
20
286.431754
11
181.634060
21
286.431754
0
LINE
8
annotation
62
1
39
211
10
181.634060
20
286.431754
11
181.378877
21
286.408806
0
LINE
8
annotation
62
1
39
211
10
181.378877
20
286.408806
11
181.138586
21
286.342654
0
LINE
8
annotation
62
1
39
211
10
181.138586
20
286.342654
11
180.917226
21
286.237335
0
LINE
8
annotation
62
1
39
211
10
180.917226
20
286.237335
11
180.718837
21
286.096884
0
LINE
8
annotation
62
1
39
211
10
180.718837
20
286.096884
11
180.547460
21
285.925340
0
LINE
8
annotation
62
1
39
211
10
180.547460
20
285.925340
11
180.407134
21
285.726738
0
LINE
8
annotation
62
1
39
211
10
180.407134
20
285.726738
11
180.301899
21
285.505114
0
LINE
8
annotation
62
1
39
211
10
180.301899
20
285.505114
11
180.235796
21
285.264507
0
LINE
8
annotation
62
1
39
211
10
180.235796
20
285.264507
11
180.212864
21
285.008952
0
LINE
8
annotation
62
1
39
211
10
180.212864
20
285.008952
11
180.212864
21
284.300963
0
LINE
8
annotation
62
1
39
211
10
183.055257
20
287.854957
11
183.055257
21
287.854957
0
LINE
8
annotation
62
1
39
211
10
183.055257
20
287.854957
11
183.032324
21
288.109437
0
LINE
8
annotation
62
1
39
211
10
183.032324
20
288.109437
11
182.966221
21
288.349207
0
LINE
8
annotation
62
1
39
211
10
182.966221
20
288.349207
11
182.860986
21
288.570201
0
LINE
8
annotation
62
1
39
211
10
182.860986
20
288.570201
11
182.720660
21
288.768352
0
LINE
8
annotation
62
1
39
211
10
182.720660
20
288.768352
11
182.549283
21
288.939595
0
LINE
8
annotation
62
1
39
211
10
182.549283
20
288.939595
11
182.350894
21
289.079862
0
LINE
8
annotation
62
1
39
211
10
182.350894
20
289.079862
11
182.129534
21
289.185087
0
LINE
8
annotation
62
1
39
211
10
182.129534
20
289.185087
11
181.889243
21
289.251204
0
LINE
8
annotation
62
1
39
211
10
181.889243
20
289.251204
11
181.634060
21
289.274147
0
LINE
8
annotation
62
1
39
211
10
181.634060
20
289.274147
11
181.634060
21
289.274147
0
LINE
8
annotation
62
1
39
211
10
181.634060
20
289.274147
11
181.378877
21
289.251204
0
LINE
8
annotation
62
1
39
211
10
181.378877
20
289.251204
11
181.138586
21
289.185087
0
LINE
8
annotation
62
1
39
211
10
181.138586
20
289.185087
11
180.917226
21
289.079862
0
LINE
8
annotation
62
1
39
211
10
180.917226
20
289.079862
11
180.718837
21
288.939595
0
LINE
8
annotation
62
1
39
211
10
180.718837
20
288.939595
11
180.547460
21
288.768352
0
LINE
8
annotation
62
1
39
211
10
180.547460
20
288.768352
11
180.407134
21
288.570201
0
LINE
8
annotation
62
1
39
211
10
180.407134
20
288.570201
11
180.301899
21
288.349207
0
LINE
8
annotation
62
1
39
211
10
180.301899
20
288.349207
11
180.235796
21
288.109437
0
LINE
8
annotation
62
1
39
211
10
180.235796
20
288.109437
11
180.212864
21
287.854957
0
LINE
8
annotation
62
1
39
211
10
180.212864
20
287.854957
11
180.212864
21
287.854957
0
LINE
8
annotation
62
1
39
211
10
180.212864
20
287.854957
11
180.235809
21
287.599283
0
LINE
8
annotation
62
1
39
211
10
180.235809
20
287.599283
11
180.301946
21
287.358583
0
LINE
8
annotation
62
1
39
211
10
180.301946
20
287.358583
11
180.407223
21
287.136889
0
LINE
8
annotation
62
1
39
211
10
180.407223
20
287.136889
11
180.547592
21
286.938237
0
LINE
8
annotation
62
1
39
211
10
180.547592
20
286.938237
11
180.719002
21
286.766659
0
LINE
8
annotation
62
1
39
211
10
180.719002
20
286.766659
11
180.917404
21
286.626188
0
LINE
8
annotation
62
1
39
211
10
180.917404
20
286.626188
11
181.138748
21
286.520858
0
LINE
8
annotation
62
1
39
211
10
181.138748
20
286.520858
11
181.378983
21
286.454702
0
LINE
8
annotation
62
1
39
211
10
181.378983
20
286.454702
11
181.634060
21
286.431754
0
LINE
8
annotation
62
1
39
211
10
181.634060
20
286.431754
11
181.634060
21
286.431754
0
LINE
8
annotation
62
1
39
211
10
181.634060
20
286.431754
11
181.889137
21
286.454702
0
LINE
8
annotation
62
1
39
211
10
181.889137
20
286.454702
11
182.129372
21
286.520858
0
LINE
8
annotation
62
1
39
211
10
182.129372
20
286.520858
11
182.350716
21
286.626188
0
LINE
8
annotation
62
1
39
211
10
182.350716
20
286.626188
11
182.549118
21
286.766659
0
LINE
8
annotation
62
1
39
211
10
182.549118
20
286.766659
11
182.720528
21
286.938237
0
LINE
8
annotation
62
1
39
211
10
182.720528
20
286.938237
11
182.860897
21
287.136889
0
LINE
8
annotation
62
1
39
211
10
182.860897
20
287.136889
11
182.966175
21
287.358583
0
LINE
8
annotation
62
1
39
211
10
182.966175
20
287.358583
11
183.032311
21
287.599283
0
LINE
8
annotation
62
1
39
211
10
183.032311
20
287.599283
11
183.055257
21
287.854957
0
LINE
8
annotation
62
1
39
211
10
177.378220
20
320.500609
11
177.378220
21
320.500609
0
LINE
8
annotation
62
1
39
211
10
177.378220
20
320.500609
11
177.784641
21
320.652061
0
LINE
8
annotation
62
1
39
211
10
177.784641
20
320.652061
11
178.157684
21
320.856776
0
LINE
8
annotation
62
1
39
211
10
178.157684
20
320.856776
11
178.493496
21
321.109538
0
LINE
8
annotation
62
1
39
211
10
178.493496
20
321.109538
11
178.788220
21
321.405131
0
LINE
8
annotation
62
1
39
211
10
178.788220
20
321.405131
11
179.038003
21
321.738339
0
LINE
8
annotation
62
1
39
211
10
179.038003
20
321.738339
11
179.238989
21
322.103946
0
LINE
8
annotation
62
1
39
211
10
179.238989
20
322.103946
11
179.387324
21
322.496736
0
LINE
8
annotation
62
1
39
211
10
179.387324
20
322.496736
11
179.479151
21
322.911493
0
LINE
8
annotation
62
1
39
211
10
179.479151
20
322.911493
11
179.510617
21
323.343002
0
LINE
8
annotation
62
1
39
211
10
179.510617
20
323.343002
11
179.510617
21
325.477405
0
LINE
8
annotation
62
1
39
211
10
179.510617
20
325.477405
11
179.510617
21
325.477405
0
LINE
8
annotation
62
1
39
211
10
179.510617
20
325.477405
11
179.487738
21
325.733080
0
LINE
8
annotation
62
1
39
211
10
179.487738
20
325.733080
11
179.421766
21
325.973780
0
LINE
8
annotation
62
1
39
211
10
179.421766
20
325.973780
11
179.316704
21
326.195473
0
LINE
8
annotation
62
1
39
211
10
179.316704
20
326.195473
11
179.176549
21
326.394126
0
LINE
8
annotation
62
1
39
211
10
179.176549
20
326.394126
11
179.005304
21
326.565704
0
LINE
8
annotation
62
1
39
211
10
179.005304
20
326.565704
11
178.806968
21
326.706175
0
LINE
8
annotation
62
1
39
211
10
178.806968
20
326.706175
11
178.585542
21
326.811505
0
LINE
8
annotation
62
1
39
211
10
178.585542
20
326.811505
11
178.345026
21
326.877661
0
LINE
8
annotation
62
1
39
211
10
178.345026
20
326.877661
11
178.089421
21
326.900609
0
LINE
8
annotation
62
1
39
211
10
178.089421
20
326.900609
11
178.089421
21
326.900609
0
LINE
8
annotation
62
1
39
211
10
178.089421
20
326.900609
11
177.834344
21
326.877661
0
LINE
8
annotation
62
1
39
211
10
177.834344
20
326.877661
11
177.594108
21
326.811505
0
LINE
8
annotation
62
1
39
211
10
177.594108
20
326.811505
11
177.372765
21
326.706175
0
LINE
8
annotation
62
1
39
211
10
177.372765
20
326.706175
11
177.174363
21
326.565704
0
LINE
8
annotation
62
1
39
211
10
177.174363
20
326.565704
11
177.002953
21
326.394126
0
LINE
8
annotation
62
1
39
211
10
177.002953
20
326.394126
11
176.862584
21
326.195473
0
LINE
8
annotation
62
1
39
211
10
176.862584
20
326.195473
11
176.757306
21
325.973780
0
LINE
8
annotation
62
1
39
211
10
176.757306
20
325.973780
11
176.691170
21
325.733080
0
LINE
8
annotation
62
1
39
211
10
176.691170
20
325.733080
11
176.668224
21
325.477405
0
LINE
8
annotation
62
1
39
211
10
176.668224
20
325.477405
11
176.668224
21
324.765804
0
LINE
8
annotation
62
1
39
211
10
176.668224
20
324.765804
11
176.668224
21
324.765804
0
LINE
8
annotation
62
1
39
211
10
176.668224
20
324.765804
11
176.691170
21
324.510143
0
LINE
8
annotation
62
1
39
211
10
176.691170
20
324.510143
11
176.757306
21
324.269480
0
LINE
8
annotation
62
1
39
211
10
176.757306
20
324.269480
11
176.862584
21
324.047840
0
LINE
8
annotation
62
1
39
211
10
176.862584
20
324.047840
11
177.002953
21
323.849251
0
LINE
8
annotation
62
1
39
211
10
177.002953
20
323.849251
11
177.174363
21
323.677739
0
LINE
8
annotation
62
1
39
211
10
177.174363
20
323.677739
11
177.372765
21
323.537332
0
LINE
8
annotation
62
1
39
211
10
177.372765
20
323.537332
11
177.594108
21
323.432055
0
LINE
8
annotation
62
1
39
211
10
177.594108
20
323.432055
11
177.834344
21
323.365936
0
LINE
8
annotation
62
1
39
211
10
177.834344
20
323.365936
11
178.089421
21
323.343002
0
LINE
8
annotation
62
1
39
211
10
178.089421
20
323.343002
11
179.510617
21
323.343002
0
LINE
8
annotation
62
1
39
211
10
176.490625
20
319.700609
11
179.690625
21
319.700609
0
LINE
8
annotation
62
1
39
211
10
173.340000
20
358.240764
11
173.340000
21
364.397724
0
LINE
8
annotation
62
1
39
211
10
173.340000
20
364.397724
11
171.971229
21
363.028567
0
LINE
8
annotation
62
1
39
211
10
176.637638
20
358.321977
11
176.637638
21
358.321977
0
LINE
8
annotation
62
1
39
211
10
176.637638
20
358.321977
11
176.780734
21
358.268484
0
LINE
8
annotation
62
1
39
211
10
176.780734
20
358.268484
11
176.927490
21
358.241908
0
LINE
8
annotation
62
1
39
211
10
176.927490
20
358.241908
11
177.074590
21
358.241165
0
LINE
8
annotation
62
1
39
211
10
177.074590
20
358.241165
11
177.218715
21
358.265171
0
LINE
8
annotation
62
1
39
211
10
177.218715
20
358.265171
11
177.356548
21
358.312843
0
LINE
8
annotation
62
1
39
211
10
177.356548
20
358.312843
11
177.484770
21
358.383097
0
LINE
8
annotation
62
1
39
211
10
177.484770
20
358.383097
11
177.600066
21
358.474849
0
LINE
8
annotation
62
1
39
211
10
177.600066
20
358.474849
11
177.699116
21
358.587017
0
LINE
8
annotation
62
1
39
211
10
177.699116
20
358.587017
11
177.778603
21
358.718515
0
LINE
8
annotation
62
1
39
211
10
177.778603
20
358.718515
11
177.778603
21
358.718515
0
LINE
8
annotation
62
1
39
211
10
177.778603
20
358.718515
11
178.015762
21
359.273644
0
LINE
8
annotation
62
1
39
211
10
178.015762
20
359.273644
11
178.193631
21
359.844841
0
LINE
8
annotation
62
1
39
211
10
178.193631
20
359.844841
11
178.312211
21
360.427552
0
LINE
8
annotation
62
1
39
211
10
178.312211
20
360.427552
11
178.371501
21
361.017221
0
LINE
8
annotation
62
1
39
211
10
178.371501
20
361.017221
11
178.371501
21
361.609297
0
LINE
8
annotation
62
1
39
211
10
178.371501
20
361.609297
11
178.312211
21
362.199224
0
LINE
8
annotation
62
1
39
211
10
178.312211
20
362.199224
11
178.193631
21
362.782450
0
LINE
8
annotation
62
1
39
211
10
178.193631
20
362.782450
11
178.015762
21
363.354419
0
LINE
8
annotation
62
1
39
211
10
178.015762
20
363.354419
11
177.778603
21
363.910578
0
LINE
8
annotation
62
1
39
211
10
177.778603
20
363.910578
11
177.778603
21
363.910578
0
LINE
8
annotation
62
1
39
211
10
177.778603
20
363.910578
11
177.748443
21
363.966706
0
LINE
8
annotation
62
1
39
211
10
177.748443
20
363.966706
11
177.714250
21
364.020368
0
LINE
8
annotation
62
1
39
211
10
177.714250
20
364.020368
11
177.676283
21
364.071301
0
LINE
8
annotation
62
1
39
211
10
177.676283
20
364.071301
11
177.634797
21
364.119240
0
LINE
8
annotation
62
1
39
211
10
177.634797
20
364.119240
11
177.590051
21
364.163922
0
LINE
8
annotation
62
1
39
211
10
177.590051
20
364.163922
11
177.542301
21
364.205082
0
LINE
8
annotation
62
1
39
211
10
177.542301
20
364.205082
11
177.491806
21
364.242458
0
LINE
8
annotation
62
1
39
211
10
177.491806
20
364.242458
11
177.438823
21
364.275785
0
LINE
8
annotation
62
1
39
211
10
177.438823
20
364.275785
11
177.383609
21
364.304799
0
LINE
8
annotation
62
1
39
211
10
177.383609
20
364.304799
11
177.383609
21
364.304799
0
LINE
8
annotation
62
1
39
211
10
177.383609
20
364.304799
11
177.239377
21
364.359452
0
LINE
8
annotation
62
1
39
211
10
177.239377
20
364.359452
11
177.091761
21
364.386936
0
LINE
8
annotation
62
1
39
211
10
177.091761
20
364.386936
11
176.944040
21
364.388343
0
LINE
8
annotation
62
1
39
211
10
176.944040
20
364.388343
11
176.799494
21
364.364762
0
LINE
8
annotation
62
1
39
211
10
176.799494
20
364.364762
11
176.661403
21
364.317283
0
LINE
8
annotation
62
1
39
211
10
176.661403
20
364.317283
11
176.533045
21
364.246997
0
LINE
8
annotation
62
1
39
211
10
176.533045
20
364.246997
11
176.417700
21
364.154993
0
LINE
8
annotation
62
1
39
211
10
176.417700
20
364.154993
11
176.318648
21
364.042361
0
LINE
8
annotation
62
1
39
211
10
176.318648
20
364.042361
11
176.239170
21
363.910192
0
LINE
8
annotation
62
1
39
211
10
176.239170
20
363.910192
11
176.239170
21
363.910192
0
LINE
8
annotation
62
1
39
211
10
176.239170
20
363.910192
11
176.003154
21
363.355177
0
LINE
8
annotation
62
1
39
211
10
176.003154
20
363.355177
11
175.826143
21
362.784066
0
LINE
8
annotation
62
1
39
211
10
175.826143
20
362.784066
11
175.708135
21
362.201412
0
LINE
8
annotation
62
1
39
211
10
175.708135
20
362.201412
11
175.649132
21
361.611771
0
LINE
8
annotation
62
1
39
211
10
175.649132
20
361.611771
11
175.649132
21
361.019695
0
LINE
8
annotation
62
1
39
211
10
175.649132
20
361.019695
11
175.708135
21
360.429740
0
LINE
8
annotation
62
1
39
211
10
175.708135
20
360.429740
11
175.826143
21
359.846457
0
LINE
8
annotation
62
1
39
211
10
175.826143
20
359.846457
11
176.003154
21
359.274402
0
LINE
8
annotation
62
1
39
211
10
176.003154
20
359.274402
11
176.239170
21
358.718129
0
LINE
8
annotation
62
1
39
211
10
176.239170
20
358.718129
11
176.239170
21
358.718129
0
LINE
8
annotation
62
1
39
211
10
176.239170
20
358.718129
11
176.269220
21
358.662112
0
LINE
8
annotation
62
1
39
211
10
176.269220
20
358.662112
11
176.303159
21
358.608717
0
LINE
8
annotation
62
1
39
211
10
176.303159
20
358.608717
11
176.340846
21
358.558106
0
LINE
8
annotation
62
1
39
211
10
176.340846
20
358.558106
11
176.382136
21
358.510441
0
LINE
8
annotation
62
1
39
211
10
176.382136
20
358.510441
11
176.426887
21
358.465884
0
LINE
8
annotation
62
1
39
211
10
176.426887
20
358.465884
11
176.474956
21
358.424597
0
LINE
8
annotation
62
1
39
211
10
176.474956
20
358.424597
11
176.526199
21
358.386742
0
LINE
8
annotation
62
1
39
211
10
176.526199
20
358.386742
11
176.580474
21
358.352481
0
LINE
8
annotation
62
1
39
211
10
176.580474
20
358.352481
11
176.637638
21
358.321977
0
LINE
8
annotation
62
1
39
211
10
183.112411
20
299.312885
11
178.627248
21
292.825507
0
LINE
8
annotation
62
1
39
211
10
178.627248
20
292.825507
11
174.141241
21
299.312885
0
LINE
8
annotation
62
1
39
211
10
178.627248
20
293.347568
11
178.627248
21
285.863299
0
LINE
8
annotation
62
1
39
211
10
195.510919
20
292.588092
11
188.157377
21
292.588092
0
LINE
8
annotation
62
1
39
211
10
203.543182
20
285.863721
11
206.533010
21
299.312464
0
LINE
8
annotation
62
1
39
211
10
206.533010
20
299.312464
11
200.552511
21
299.312464
0
LINE
8
annotation
62
1
39
211
10
206.533010
20
293.323531
11
203.543182
21
293.323531
0
LINE
8
boundary
62
5
39
2
10
129.456361
20
385.997820
11
130.569745
21
384.323052
0
LINE
8
boundary
62
5
39
2
10
130.569745
20
384.323052
11
131.063753
21
384.066670
0
LINE
8
boundary
62
5
39
2
10
131.063753
20
384.066670
11
134.602260
21
383.593456
0
LINE
8
boundary
62
5
39
2
10
134.602260
20
383.593456
11
136.180461
21
383.342035
0
LINE
8
boundary
62
5
39
2
10
136.180461
20
383.342035
11
137.949390
21
383.400235
0
LINE
8
boundary
62
5
39
2
10
137.949390
20
383.400235
11
139.877484
21
383.301334
0
LINE
8
boundary
62
5
39
2
10
139.877484
20
383.301334
11
140.810634
21
383.912574
0
LINE
8
boundary
62
5
39
2
10
140.810634
20
383.912574
11
141.946340
21
384.417493
0
LINE
8
boundary
62
5
39
2
10
141.946340
20
384.417493
11
142.679416
21
385.379347
0
LINE
8
boundary
62
5
39
2
10
142.679416
20
385.379347
11
143.201549
21
386.675731
0
LINE
8
boundary
62
5
39
2
10
143.201549
20
386.675731
11
143.702965
21
387.678349
0
LINE
8
boundary
62
5
39
2
10
143.702965
20
387.678349
11
144.131410
21
390.534606
0
LINE
8
boundary
62
5
39
2
10
144.131410
20
390.534606
11
144.455424
21
391.213357
0
LINE
8
boundary
62
5
39
2
10
144.455424
20
391.213357
11
144.853187
21
392.620004
0
LINE
8
boundary
62
5
39
2
10
144.853187
20
392.620004
11
145.293460
21
396.033171
0
LINE
8
boundary
62
5
39
2
10
145.293460
20
396.033171
11
145.596004
21
397.832640
0
LINE
8
boundary
62
5
39
2
10
145.596004
20
397.832640
11
146.063640
21
399.525119
0
LINE
8
boundary
62
5
39
2
10
146.063640
20
399.525119
11
146.330410
21
402.667499
0
LINE
8
boundary
62
5
39
2
10
146.330410
20
402.667499
11
146.218148
21
405.622775
0
LINE
8
boundary
62
5
39
2
10
146.218148
20
405.622775
11
145.938441
21
407.962069
0
LINE
8
boundary
62
5
39
2
10
145.938441
20
407.962069
11
145.672785
21
409.529463
0
LINE
8
boundary
62
5
39
2
10
145.672785
20
409.529463
11
145.170208
21
411.121592
0
LINE
8
boundary
62
5
39
2
10
145.170208
20
411.121592
11
144.936307
21
412.497570
0
LINE
8
boundary
62
5
39
2
10
144.936307
20
412.497570
11
144.521059
21
414.115649
0
LINE
8
boundary
62
5
39
2
10
144.521059
20
414.115649
11
144.114648
21
415.463080
0
LINE
8
boundary
62
5
39
2
10
144.114648
20
415.463080
11
143.771701
21
416.533504
0
LINE
8
boundary
62
5
39
2
10
143.771701
20
416.533504
11
133.192000
21
416.533504
0
LINE
8
boundary
62
5
39
2
10
133.192000
20
416.533504
11
133.192000
21
420.279504
0
LINE
8
boundary
62
5
39
2
10
133.192000
20
420.279504
11
142.605197
21
420.279504
0
LINE
8
boundary
62
5
39
2
10
142.605197
20
420.279504
11
142.553099
21
420.999524
0
LINE
8
boundary
62
5
39
2
10
142.553099
20
420.999524
11
142.238860
21
422.549893
0
LINE
8
boundary
62
5
39
2
10
142.238860
20
422.549893
11
142.304266
21
423.361683
0
LINE
8
boundary
62
5
39
2
10
142.304266
20
423.361683
11
142.438057
21
424.871391
0
LINE
8
boundary
62
5
39
2
10
142.438057
20
424.871391
11
142.973595
21
426.019624
0
LINE
8
boundary
62
5
39
2
10
142.973595
20
426.019624
11
143.819023
21
425.321054
0
LINE
8
boundary
62
5
39
2
10
143.819023
20
425.321054
11
144.531376
21
425.432837
0
LINE
8
boundary
62
5
39
2
10
144.531376
20
425.432837
11
145.382983
21
423.596691
0
LINE
8
boundary
62
5
39
2
10
145.382983
20
423.596691
11
146.296082
21
422.822015
0
LINE
8
boundary
62
5
39
2
10
146.296082
20
422.822015
11
146.640913
21
421.334258
0
LINE
8
boundary
62
5
39
2
10
146.640913
20
421.334258
11
146.770338
21
420.542511
0
LINE
8
boundary
62
5
39
2
10
146.770338
20
420.542511
11
147.785001
21
417.819610
0
LINE
8
boundary
62
5
39
2
10
147.785001
20
417.819610
11
148.028892
21
416.647450
0
LINE
8
boundary
62
5
39
2
10
148.028892
20
416.647450
11
148.483852
21
415.084080
0
LINE
8
boundary
62
5
39
2
10
148.483852
20
415.084080
11
148.522518
21
413.766675
0
LINE
8
boundary
62
5
39
2
10
148.522518
20
413.766675
11
148.793157
21
412.288451
0
LINE
8
boundary
62
5
39
2
10
148.793157
20
412.288451
11
148.846337
21
410.550867
0
LINE
8
boundary
62
5
39
2
10
148.846337
20
410.550867
11
149.307140
21
408.564273
0
LINE
8
boundary
62
5
39
2
10
149.307140
20
408.564273
11
149.728638
21
406.788702
0
LINE
8
boundary
62
5
39
2
10
149.728638
20
406.788702
11
150.070145
21
403.684351
0
LINE
8
boundary
62
5
39
2
10
150.070145
20
403.684351
11
150.337437
21
399.666664
0
LINE
8
boundary
62
5
39
2
10
150.337437
20
399.666664
11
150.215830
21
398.301375
0
LINE
8
boundary
62
5
39
2
10
150.215830
20
398.301375
11
150.160969
21
395.616207
0
LINE
8
boundary
62
5
39
2
10
150.160969
20
395.616207
11
150.201823
21
394.581274
0
LINE
8
boundary
62
5
39
2
10
150.201823
20
394.581274
11
150.536949
21
392.624712
0
LINE
8
boundary
62
5
39
2
10
150.536949
20
392.624712
11
150.762743
21
392.026688
0
LINE
8
boundary
62
5
39
2
10
150.762743
20
392.026688
11
152.043833
21
390.618059
0
LINE
8
boundary
62
5
39
2
10
152.043833
20
390.618059
11
153.059121
21
390.695015
0
LINE
8
boundary
62
5
39
2
10
153.059121
20
390.695015
11
153.673911
21
390.649451
0
LINE
8
boundary
62
5
39
2
10
153.673911
20
390.649451
11
155.214278
21
390.504999
0
LINE
8
boundary
62
5
39
2
10
155.214278
20
390.504999
11
156.718826
21
390.243856
0
LINE
8
boundary
62
5
39
2
10
156.718826
20
390.243856
11
158.286193
21
390.380528
0
LINE
8
boundary
62
5
39
2
10
158.286193
20
390.380528
11
160.102826
21
390.504175
0
LINE
8
boundary
62
5
39
2
10
160.102826
20
390.504175
11
161.233864
21
390.369114
0
LINE
8
boundary
62
5
39
2
10
161.233864
20
390.369114
11
161.948065
21
392.771330
0
LINE
8
boundary
62
5
39
2
10
161.948065
20
392.771330
11
162.569527
21
394.819544
0
LINE
8
boundary
62
5
39
2
10
162.569527
20
394.819544
11
162.839889
21
395.512012
0
LINE
8
boundary
62
5
39
2
10
162.839889
20
395.512012
11
162.372916
21
397.987735
0
LINE
8
boundary
62
5
39
2
10
162.372916
20
397.987735
11
162.553256
21
398.773205
0
LINE
8
boundary
62
5
39
2
10
162.553256
20
398.773205
11
162.564976
21
399.470358
0
LINE
8
boundary
62
5
39
2
10
162.564976
20
399.470358
11
162.874201
21
401.995200
0
LINE
8
boundary
62
5
39
2
10
162.874201
20
401.995200
11
162.965570
21
405.060700
0
LINE
8
boundary
62
5
39
2
10
162.965570
20
405.060700
11
162.979847
21
406.024121
0
LINE
8
boundary
62
5
39
2
10
162.979847
20
406.024121
11
163.139806
21
408.387678
0
LINE
8
boundary
62
5
39
2
10
163.139806
20
408.387678
11
163.190811
21
408.981350
0
LINE
8
boundary
62
5
39
2
10
163.190811
20
408.981350
11
163.090561
21
409.636038
0
LINE
8
boundary
62
5
39
2
10
163.090561
20
409.636038
11
163.071661
21
412.416870
0
LINE
8
boundary
62
5
39
2
10
163.071661
20
412.416870
11
162.479153
21
415.520945
0
LINE
8
boundary
62
5
39
2
10
162.479153
20
415.520945
11
162.312797
21
416.333505
0
LINE
8
boundary
62
5
39
2
10
162.312797
20
416.333505
11
154.697098
21
416.533504
0
LINE
8
boundary
62
5
39
2
10
154.697098
20
416.533504
11
154.697098
21
420.279504
0
LINE
8
boundary
62
5
39
2
10
154.697098
20
420.279504
11
161.934340
21
420.279504
0
LINE
8
boundary
62
5
39
2
10
161.934340
20
420.279504
11
161.935435
21
421.521234
0
LINE
8
boundary
62
5
39
2
10
161.935435
20
421.521234
11
161.804999
21
422.151752
0
LINE
8
boundary
62
5
39
2
10
161.804999
20
422.151752
11
161.785065
21
423.711533
0
LINE
8
boundary
62
5
39
2
10
161.785065
20
423.711533
11
161.809040
21
424.727916
0
LINE
8
boundary
62
5
39
2
10
161.809040
20
424.727916
11
162.061231
21
426.223415
0
LINE
8
boundary
62
5
39
2
10
162.061231
20
426.223415
11
162.953999
21
425.851220
0
LINE
8
boundary
62
5
39
2
10
162.953999
20
425.851220
11
163.514689
21
425.912058
0
LINE
8
boundary
62
5
39
2
10
163.514689
20
425.912058
11
163.888834
21
425.281789
0
LINE
8
boundary
62
5
39
2
10
163.888834
20
425.281789
11
164.585079
21
424.050112
0
LINE
8
boundary
62
5
39
2
10
164.585079
20
424.050112
11
164.978522
21
423.068957
0
LINE
8
boundary
62
5
39
2
10
164.978522
20
423.068957
11
165.143849
21
421.521122
0
LINE
8
boundary
62
5
39
2
10
165.143849
20
421.521122
11
165.636244
21
419.594138
0
LINE
8
boundary
62
5
39
2
10
165.636244
20
419.594138
11
165.845050
21
417.349035
0
LINE
8
boundary
62
5
39
2
10
165.845050
20
417.349035
11
165.814771
21
415.385191
0
LINE
8
boundary
62
5
39
2
10
165.814771
20
415.385191
11
165.822705
21
414.469308
0
LINE
8
boundary
62
5
39
2
10
165.822705
20
414.469308
11
165.974952
21
413.708942
0
LINE
8
boundary
62
5
39
2
10
165.974952
20
413.708942
11
166.059900
21
411.898457
0
LINE
8
boundary
62
5
39
2
10
166.059900
20
411.898457
11
166.246617
21
410.023228
0
LINE
8
boundary
62
5
39
2
10
166.246617
20
410.023228
11
166.345308
21
409.349586
0
LINE
8
boundary
62
5
39
2
10
166.345308
20
409.349586
11
166.234254
21
408.139711
0
LINE
8
boundary
62
5
39
2
10
166.234254
20
408.139711
11
166.182597
21
404.783804
0
LINE
8
boundary
62
5
39
2
10
166.182597
20
404.783804
11
166.930955
21
402.432016
0
LINE
8
boundary
62
5
39
2
10
166.930955
20
402.432016
11
167.062438
21
401.866427
0
LINE
8
boundary
62
5
39
2
10
167.062438
20
401.866427
11
167.292482
21
400.158532
0
LINE
8
boundary
62
5
39
2
10
167.292482
20
400.158532
11
168.845692
21
399.098660
0
LINE
8
boundary
62
5
39
2
10
168.845692
20
399.098660
11
169.706945
21
398.512023
0
LINE
8
boundary
62
5
39
2
10
169.706945
20
398.512023
11
170.428073
21
398.387762
0
LINE
8
boundary
62
5
39
2
10
170.428073
20
398.387762
11
171.780477
21
398.664717
0
LINE
8
boundary
62
5
39
2
10
171.780477
20
398.664717
11
172.534698
21
398.561251
0
LINE
8
boundary
62
5
39
2
10
172.534698
20
398.561251
11
174.139140
21
398.481408
0
LINE
8
boundary
62
5
39
2
10
174.139140
20
398.481408
11
175.308026
21
398.639239
0
LINE
8
boundary
62
5
39
2
10
175.308026
20
398.639239
11
175.990104
21
399.189869
0
LINE
8
boundary
62
5
39
2
10
175.990104
20
399.189869
11
176.025491
21
400.471232
0
LINE
8
boundary
62
5
39
2
10
176.025491
20
400.471232
11
176.158866
21
401.351328
0
LINE
8
boundary
62
5
39
2
10
176.158866
20
401.351328
11
176.628515
21
402.296403
0
LINE
8
boundary
62
5
39
2
10
176.628515
20
402.296403
11
176.701108
21
403.561514
0
LINE
8
boundary
62
5
39
2
10
176.701108
20
403.561514
11
177.090992
21
404.950242
0
LINE
8
boundary
62
5
39
2
10
177.090992
20
404.950242
11
177.528926
21
406.413855
0
LINE
8
boundary
62
5
39
2
10
177.528926
20
406.413855
11
178.311393
21
409.726297
0
LINE
8
boundary
62
5
39
2
10
178.311393
20
409.726297
11
178.650773
21
411.619963
0
LINE
8
boundary
62
5
39
2
10
178.650773
20
411.619963
11
178.724365
21
412.769545
0
LINE
8
boundary
62
5
39
2
10
178.724365
20
412.769545
11
178.778795
21
415.905615
0
LINE
8
boundary
62
5
39
2
10
178.778795
20
415.905615
11
178.680935
21
416.533504
0
LINE
8
boundary
62
5
39
2
10
178.680935
20
416.533504
11
172.276163
21
416.533504
0
LINE
8
boundary
62
5
39
2
10
172.276163
20
416.533504
11
172.276163
21
420.279504
0
LINE
8
boundary
62
5
39
2
10
172.276163
20
420.279504
11
178.366458
21
420.279504
0
LINE
8
boundary
62
5
39
2
10
178.366458
20
420.279504
11
177.942091
21
423.723239
0
LINE
8
boundary
62
5
39
2
10
177.942091
20
423.723239
11
177.690831
21
426.071796
0
LINE
8
boundary
62
5
39
2
10
177.690831
20
426.071796
11
177.756825
21
427.018743
0
LINE
8
boundary
62
5
39
2
10
177.756825
20
427.018743
11
177.780340
21
428.511514
0
LINE
8
boundary
62
5
39
2
10
177.780340
20
428.511514
11
177.929888
21
429.884266
0
LINE
8
boundary
62
5
39
2
10
177.929888
20
429.884266
11
178.193052
21
431.286448
0
LINE
8
boundary
62
5
39
2
10
178.193052
20
431.286448
11
178.721894
21
432.326027
0
LINE
8
boundary
62
5
39
2
10
178.721894
20
432.326027
11
179.515705
21
432.630190
0
LINE
8
boundary
62
5
39
2
10
179.515705
20
432.630190
11
180.061401
21
432.138097
0
LINE
8
boundary
62
5
39
2
10
180.061401
20
432.138097
11
180.609628
21
430.805948
0
LINE
8
boundary
62
5
39
2
10
180.609628
20
430.805948
11
180.776752
21
429.803468
0
LINE
8
boundary
62
5
39
2
10
180.776752
20
429.803468
11
180.892164
21
429.204542
0
LINE
8
boundary
62
5
39
2
10
180.892164
20
429.204542
11
181.152212
21
427.045668
0
LINE
8
boundary
62
5
39
2
10
181.152212
20
427.045668
11
181.169282
21
426.254135
0
LINE
8
boundary
62
5
39
2
10
181.169282
20
426.254135
11
181.112529
21
424.849501
0
LINE
8
boundary
62
5
39
2
10
181.112529
20
424.849501
11
181.086487
21
424.155413
0
LINE
8
boundary
62
5
39
2
10
181.086487
20
424.155413
11
181.131175
21
422.320517
0
LINE
8
boundary
62
5
39
2
10
181.131175
20
422.320517
11
181.254816
21
421.680105
0
LINE
8
boundary
62
5
39
2
10
181.254816
20
421.680105
11
181.446936
21
418.514046
0
LINE
8
boundary
62
5
39
2
10
181.446936
20
418.514046
11
181.325380
21
416.328392
0
LINE
8
boundary
62
5
39
2
10
181.325380
20
416.328392
11
181.569577
21
414.244523
0
LINE
8
boundary
62
5
39
2
10
181.569577
20
414.244523
11
181.477729
21
413.061265
0
LINE
8
boundary
62
5
39
2
10
181.477729
20
413.061265
11
181.641049
21
412.341510
0
LINE
8
boundary
62
5
39
2
10
181.641049
20
412.341510
11
181.843549
21
411.340268
0
LINE
8
boundary
62
5
39
2
10
181.843549
20
411.340268
11
182.185933
21
410.846269
0
LINE
8
boundary
62
5
39
2
10
182.185933
20
410.846269
11
182.415901
21
409.812165
0
LINE
8
boundary
62
5
39
2
10
182.415901
20
409.812165
11
182.591102
21
409.284228
0
LINE
8
boundary
62
5
39
2
10
182.591102
20
409.284228
11
182.794860
21
408.519558
0
LINE
8
boundary
62
5
39
2
10
182.794860
20
408.519558
11
183.260787
21
407.563511
0
LINE
8
boundary
62
5
39
2
10
183.260787
20
407.563511
11
183.804694
21
406.951140
0
LINE
8
boundary
62
5
39
2
10
183.804694
20
406.951140
11
185.225815
21
406.324762
0
LINE
8
boundary
62
5
39
2
10
185.225815
20
406.324762
11
186.436779
21
405.890480
0
LINE
8
boundary
62
5
39
2
10
186.436779
20
405.890480
11
187.716692
21
405.826697
0
LINE
8
boundary
62
5
39
2
10
187.716692
20
405.826697
11
189.335237
21
405.809094
0
LINE
8
boundary
62
5
39
2
10
189.335237
20
405.809094
11
189.753484
21
406.774310
0
LINE
8
boundary
62
5
39
2
10
189.753484
20
406.774310
11
190.620769
21
407.123453
0
LINE
8
boundary
62
5
39
2
10
190.620769
20
407.123453
11
190.750024
21
408.251986
0
LINE
8
boundary
62
5
39
2
10
190.750024
20
408.251986
11
191.159136
21
408.571676
0
LINE
8
boundary
62
5
39
2
10
191.159136
20
408.571676
11
191.841818
21
410.609545
0
LINE
8
boundary
62
5
39
2
10
191.841818
20
410.609545
11
191.933202
21
411.109490
0
LINE
8
boundary
62
5
39
2
10
191.933202
20
411.109490
11
192.110511
21
412.528256
0
LINE
8
boundary
62
5
39
2
10
192.110511
20
412.528256
11
192.356328
21
414.359594
0
LINE
8
boundary
62
5
39
2
10
192.356328
20
414.359594
11
192.802871
21
416.070140
0
LINE
8
boundary
62
5
39
2
10
192.802871
20
416.070140
11
187.448942
21
416.533504
0
LINE
8
boundary
62
5
39
2
10
187.448942
20
416.533504
11
187.448942
21
420.279504
0
LINE
8
boundary
62
5
39
2
10
187.448942
20
420.279504
11
193.287604
21
420.279504
0
LINE
8
boundary
62
5
39
2
10
193.287604
20
420.279504
11
193.453387
21
421.007889
0
LINE
8
boundary
62
5
39
2
10
193.453387
20
421.007889
11
193.641365
21
422.062510
0
LINE
8
boundary
62
5
39
2
10
193.641365
20
422.062510
11
193.716590
21
423.041109
0
LINE
8
boundary
62
5
39
2
10
193.716590
20
423.041109
11
193.688217
21
425.169813
0
LINE
8
boundary
62
5
39
2
10
193.688217
20
425.169813
11
193.345774
21
427.308653
0
LINE
8
boundary
62
5
39
2
10
193.345774
20
427.308653
11
193.179638
21
428.168966
0
LINE
8
boundary
62
5
39
2
10
193.179638
20
428.168966
11
193.041629
21
429.015584
0
LINE
8
boundary
62
5
39
2
10
193.041629
20
429.015584
11
192.945950
21
429.728945
0
LINE
8
boundary
62
5
39
2
10
192.945950
20
429.728945
11
192.759633
21
431.033704
0
LINE
8
boundary
62
5
39
2
10
192.759633
20
431.033704
11
192.579327
21
434.438445
0
LINE
8
boundary
62
5
39
2
10
192.579327
20
434.438445
11
192.566439
21
435.991215
0
LINE
8
boundary
62
5
39
2
10
192.566439
20
435.991215
11
192.560551
21
438.265473
0
LINE
8
boundary
62
5
39
2
10
192.560551
20
438.265473
11
192.202426
21
440.791314
0
LINE
8
boundary
62
5
39
2
10
192.202426
20
440.791314
11
192.250472
21
442.839835
0
LINE
8
boundary
62
5
39
2
10
192.250472
20
442.839835
11
192.833894
21
443.111163
0
LINE
8
boundary
62
5
39
2
10
192.833894
20
443.111163
11
193.432427
21
443.353072
0
LINE
8
boundary
62
5
39
2
10
193.432427
20
443.353072
11
194.091653
21
442.554332
0
LINE
8
boundary
62
5
39
2
10
194.091653
20
442.554332
11
194.320328
21
441.726587
0
LINE
8
boundary
62
5
39
2
10
194.320328
20
441.726587
11
194.564575
21
440.878971
0
LINE
8
boundary
62
5
39
2
10
194.564575
20
440.878971
11
194.588685
21
439.421833
0
LINE
8
boundary
62
5
39
2
10
194.588685
20
439.421833
11
194.451787
21
438.113053
0
LINE
8
boundary
62
5
39
2
10
194.451787
20
438.113053
11
194.592174
21
437.305597
0
LINE
8
boundary
62
5
39
2
10
194.592174
20
437.305597
11
194.564950
21
436.526842
0
LINE
8
boundary
62
5
39
2
10
194.564950
20
436.526842
11
194.698128
21
435.547914
0
LINE
8
boundary
62
5
39
2
10
194.698128
20
435.547914
11
194.779660
21
435.022552
0
LINE
8
boundary
62
5
39
2
10
194.779660
20
435.022552
11
194.657515
21
433.509596
0
LINE
8
boundary
62
5
39
2
10
194.657515
20
433.509596
11
194.629216
21
432.921895
0
LINE
8
boundary
62
5
39
2
10
194.629216
20
432.921895
11
194.598685
21
432.369165
0
LINE
8
boundary
62
5
39
2
10
194.598685
20
432.369165
11
194.516386
21
430.809452
0
LINE
8
boundary
62
5
39
2
10
194.516386
20
430.809452
11
195.068676
21
428.870984
0
LINE
8
boundary
62
5
39
2
10
195.068676
20
428.870984
11
195.489234
21
428.048503
0
LINE
8
boundary
62
5
39
2
10
195.489234
20
428.048503
11
195.852237
21
427.596508
0
LINE
8
boundary
62
5
39
2
10
195.852237
20
427.596508
11
196.204889
21
427.019545
0
LINE
8
boundary
62
5
39
2
10
196.204889
20
427.019545
11
196.483668
21
426.522171
0
LINE
8
boundary
62
5
39
2
10
196.483668
20
426.522171
11
198.437236
21
426.549064
0
LINE
8
boundary
62
5
39
2
10
198.437236
20
426.549064
11
199.466136
21
426.535901
0
LINE
8
boundary
62
5
39
2
10
199.466136
20
426.535901
11
202.005731
21
426.376885
0
LINE
8
boundary
62
5
39
2
10
202.005731
20
426.376885
11
203.239869
21
425.667280
0
LINE
8
boundary
62
5
39
2
10
203.239869
20
425.667280
11
203.531820
21
426.502461
0
LINE
8
boundary
62
5
39
2
10
203.531820
20
426.502461
11
204.035806
21
427.188474
0
LINE
8
boundary
62
5
39
2
10
204.035806
20
427.188474
11
204.452950
21
427.493386
0
LINE
8
boundary
62
5
39
2
10
204.452950
20
427.493386
11
204.867688
21
428.445166
0
LINE
8
boundary
62
5
39
2
10
204.867688
20
428.445166
11
205.235296
21
428.937566
0
LINE
8
boundary
62
5
39
2
10
205.235296
20
428.937566
11
205.417668
21
429.655534
0
LINE
8
boundary
62
5
39
2
10
205.417668
20
429.655534
11
205.646468
21
430.399024
0
LINE
8
boundary
62
5
39
2
10
205.646468
20
430.399024
11
206.005886
21
431.663748
0
LINE
8
boundary
62
5
39
2
10
206.005886
20
431.663748
11
206.607497
21
433.248202
0
LINE
8
boundary
62
5
39
2
10
206.607497
20
433.248202
11
206.757393
21
433.745959
0
LINE
8
boundary
62
5
39
2
10
206.757393
20
433.745959
11
207.009517
21
435.043608
0
LINE
8
boundary
62
5
39
2
10
207.009517
20
435.043608
11
207.348458
21
437.845400
0
LINE
8
boundary
62
5
39
2
10
207.348458
20
437.845400
11
207.328064
21
438.608184
0
LINE
8
boundary
62
5
39
2
10
207.328064
20
438.608184
11
206.407341
21
444.589281
0
LINE
8
boundary
62
5
39
2
10
206.407341
20
444.589281
11
206.395894
21
446.900967
0
LINE
8
boundary
62
5
39
2
10
206.395894
20
446.900967
11
206.736845
21
448.796699
0
LINE
8
boundary
62
5
39
2
10
206.736845
20
448.796699
11
207.666785
21
452.070347
0
LINE
8
boundary
62
5
39
2
10
207.666785
20
452.070347
11
163.014092
21
452.270346
0
LINE
8
boundary
62
5
39
2
10
163.014092
20
452.270346
11
163.014092
21
456.016347
0
LINE
8
boundary
62
5
39
2
10
163.014092
20
456.016347
11
208.228916
21
456.016347
0
LINE
8
boundary
62
5
39
2
10
208.228916
20
456.016347
11
208.395333
21
459.281492
0
LINE
8
boundary
62
5
39
2
10
208.395333
20
459.281492
11
209.006209
21
465.443127
0
LINE
8
boundary
62
5
39
2
10
209.006209
20
465.443127
11
208.933874
21
469.432814
0
LINE
8
boundary
62
5
39
2
10
208.933874
20
469.432814
11
209.602851
21
475.747381
0
LINE
8
boundary
62
5
39
2
10
209.602851
20
475.747381
11
209.417844
21
481.742271
0
LINE
8
boundary
62
5
39
2
10
209.417844
20
481.742271
11
207.922124
21
487.525201
0
LINE
8
boundary
62
5
39
2
10
207.922124
20
487.525201
11
207.585107
21
493.959667
0
LINE
8
boundary
62
5
39
2
10
207.585107
20
493.959667
11
206.962600
21
498.008052
0
LINE
8
boundary
62
5
39
2
10
206.962600
20
498.008052
11
170.668627
21
498.208052
0
LINE
8
boundary
62
5
39
2
10
170.668627
20
498.208052
11
170.668627
21
501.954052
0
LINE
8
boundary
62
5
39
2
10
170.668627
20
501.954052
11
206.751864
21
501.954052
0
LINE
8
boundary
62
5
39
2
10
206.751864
20
501.954052
11
203.908078
21
516.944675
0
LINE
8
boundary
62
5
39
2
10
203.908078
20
516.944675
11
170.741954
21
517.144675
0
LINE
8
boundary
62
5
39
2
10
170.741954
20
517.144675
11
170.741954
21
520.890675
0
LINE
8
boundary
62
5
39
2
10
170.741954
20
520.890675
11
202.940421
21
520.890675
0
LINE
8
boundary
62
5
39
2
10
202.940421
20
520.890675
11
202.811259
21
521.899785
0
LINE
8
boundary
62
5
39
2
10
202.811259
20
521.899785
11
202.336941
21
524.277283
0
LINE
8
boundary
62
5
39
2
10
202.336941
20
524.277283
11
198.932885
21
541.561479
0
LINE
8
boundary
62
5
39
2
10
198.932885
20
541.561479
11
197.452306
21
548.851504
0
LINE
8
boundary
62
5
39
2
10
197.452306
20
548.851504
11
197.282029
21
549.885631
0
LINE
8
boundary
62
5
39
2
10
197.282029
20
549.885631
11
196.712081
21
555.739716
0
LINE
8
boundary
62
5
39
2
10
196.712081
20
555.739716
11
165.753085
21
555.939715
0
LINE
8
boundary
62
5
39
2
10
165.753085
20
555.939715
11
165.753085
21
559.685715
0
LINE
8
boundary
62
5
39
2
10
165.753085
20
559.685715
11
196.248130
21
559.685715
0
LINE
8
boundary
62
5
39
2
10
196.248130
20
559.685715
11
195.481934
21
568.374866
0
LINE
8
boundary
62
5
39
2
10
195.481934
20
568.374866
11
193.579721
21
577.723094
0
LINE
8
boundary
62
5
39
2
10
193.579721
20
577.723094
11
193.049472
21
580.959334
0
LINE
8
boundary
62
5
39
2
10
193.049472
20
580.959334
11
164.786141
21
581.159334
0
LINE
8
boundary
62
5
39
2
10
164.786141
20
581.159334
11
164.786141
21
584.905333
0
LINE
8
boundary
62
5
39
2
10
164.786141
20
584.905333
11
192.197297
21
584.905333
0
LINE
8
boundary
62
5
39
2
10
192.197297
20
584.905333
11
188.557946
21
596.760382
0
LINE
8
boundary
62
5
39
2
10
188.557946
20
596.760382
11
188.010348
21
598.343787
0
LINE
8
boundary
62
5
39
2
10
188.010348
20
598.343787
11
187.519111
21
598.961684
0
LINE
8
boundary
62
5
39
2
10
187.519111
20
598.961684
11
186.245355
21
601.016807
0
LINE
8
boundary
62
5
39
2
10
186.245355
20
601.016807
11
185.855136
21
601.553599
0
LINE
8
boundary
62
5
39
2
10
185.855136
20
601.553599
11
163.277859
21
601.753599
0
LINE
8
boundary
62
5
39
2
10
163.277859
20
601.753599
11
163.277859
21
605.499598
0
LINE
8
boundary
62
5
39
2
10
163.277859
20
605.499598
11
182.780925
21
605.499599
0
LINE
8
boundary
62
5
39
2
10
182.780925
20
605.499599
11
181.664397
21
607.318468
0
LINE
8
boundary
62
5
39
2
10
181.664397
20
607.318468
11
180.677674
21
609.165162
0
LINE
8
boundary
62
5
39
2
10
180.677674
20
609.165162
11
174.181656
21
613.749054
0
LINE
8
boundary
62
5
39
2
10
174.181656
20
613.749054
11
170.308859
21
617.324624
0
LINE
8
boundary
62
5
39
2
10
170.308859
20
617.324624
11
165.046185
21
618.149485
0
LINE
8
boundary
62
5
39
2
10
165.046185
20
618.149485
11
160.163886
21
619.130415
0
LINE
8
boundary
62
5
39
2
10
160.163886
20
619.130415
11
153.150948
21
615.745307
0
LINE
8
boundary
62
5
39
2
10
153.150948
20
615.745307
11
147.060638
21
612.914900
0
LINE
8
boundary
62
5
39
2
10
147.060638
20
612.914900
11
142.076584
21
603.481288
0
LINE
8
boundary
62
5
39
2
10
142.076584
20
603.481288
11
139.017415
21
597.112181
0
LINE
8
boundary
62
5
39
2
10
139.017415
20
597.112181
11
138.395411
21
592.804799
0
LINE
8
boundary
62
5
39
2
10
138.395411
20
592.804799
11
136.278471
21
581.687129
0
LINE
8
boundary
62
5
39
2
10
136.278471
20
581.687129
11
135.786324
21
578.306998
0
LINE
8
boundary
62
5
39
2
10
135.786324
20
578.306998
11
135.516654
21
576.807437
0
LINE
8
boundary
62
5
39
2
10
135.516654
20
576.807437
11
134.692581
21
558.191222
0
LINE
8
boundary
62
5
39
2
10
134.692581
20
558.191222
11
134.991951
21
555.894352
0
LINE
8
boundary
62
5
39
2
10
134.991951
20
555.894352
11
135.644027
21
551.731502
0
LINE
8
boundary
62
5
39
2
10
135.644027
20
551.731502
11
137.571380
21
538.762870
0
LINE
8
boundary
62
5
39
2
10
137.571380
20
538.762870
11
137.937221
21
526.553241
0
LINE
8
boundary
62
5
39
2
10
137.937221
20
526.553241
11
137.943353
21
522.736061
0
LINE
8
boundary
62
5
39
2
10
137.943353
20
522.736061
11
136.660300
21
508.158622
0
LINE
8
boundary
62
5
39
2
10
136.660300
20
508.158622
11
135.121036
21
500.444379
0
LINE
8
boundary
62
5
39
2
10
135.121036
20
500.444379
11
132.475896
21
494.343695
0
LINE
8
boundary
62
5
39
2
10
132.475896
20
494.343695
11
130.087568
21
491.442136
0
LINE
8
boundary
62
5
39
2
10
130.087568
20
491.442136
11
122.910684
21
476.914925
0
LINE
8
boundary
62
5
39
2
10
122.910684
20
476.914925
11
117.744093
21
461.859888
0
LINE
8
boundary
62
5
39
2
10
117.744093
20
461.859888
11
117.367585
21
461.076673
0
LINE
8
boundary
62
5
39
2
10
117.367585
20
461.076673
11
117.428486
21
456.117717
0
LINE
8
boundary
62
5
39
2
10
117.428486
20
456.117717
11
117.622589
21
450.073671
0
LINE
8
boundary
62
5
39
2
10
117.622589
20
450.073671
11
117.540760
21
446.667723
0
LINE
8
boundary
62
5
39
2
10
117.540760
20
446.667723
11
117.552865
21
440.677105
0
LINE
8
boundary
62
5
39
2
10
117.552865
20
440.677105
11
117.614439
21
440.142317
0
LINE
8
boundary
62
5
39
2
10
117.614439
20
440.142317
11
118.032656
21
437.318852
0
LINE
8
boundary
62
5
39
2
10
118.032656
20
437.318852
11
118.798622
21
434.061096
0
LINE
8
boundary
62
5
39
2
10
118.798622
20
434.061096
11
118.891564
21
433.549756
0
LINE
8
boundary
62
5
39
2
10
118.891564
20
433.549756
11
120.432353
21
428.526051
0
LINE
8
boundary
62
5
39
2
10
120.432353
20
428.526051
11
120.754671
21
427.226309
0
LINE
8
boundary
62
5
39
2
10
120.754671
20
427.226309
11
121.445560
21
424.120133
0
LINE
8
boundary
62
5
39
2
10
121.445560
20
424.120133
11
123.123423
21
417.291535
0
LINE
8
boundary
62
5
39
2
10
123.123423
20
417.291535
11
122.896686
21
415.196172
0
LINE
8
boundary
62
5
39
2
10
122.896686
20
415.196172
11
122.993121
21
413.242840
0
LINE
8
boundary
62
5
39
2
10
122.993121
20
413.242840
11
122.842584
21
411.386635
0
LINE
8
boundary
62
5
39
2
10
122.842584
20
411.386635
11
122.731677
21
410.047056
0
LINE
8
boundary
62
5
39
2
10
122.731677
20
410.047056
11
122.566667
21
408.765850
0
LINE
8
boundary
62
5
39
2
10
122.566667
20
408.765850
11
122.812940
21
406.719563
0
LINE
8
boundary
62
5
39
2
10
122.812940
20
406.719563
11
123.801722
21
402.913684
0
LINE
8
boundary
62
5
39
2
10
123.801722
20
402.913684
11
123.943505
21
402.172653
0
LINE
8
boundary
62
5
39
2
10
123.943505
20
402.172653
11
124.093839
21
401.614244
0
LINE
8
boundary
62
5
39
2
10
124.093839
20
401.614244
11
125.279916
21
398.689043
0
LINE
8
boundary
62
5
39
2
10
125.279916
20
398.689043
11
126.574843
21
393.776780
0
LINE
8
boundary
62
5
39
2
10
126.574843
20
393.776780
11
126.836961
21
392.652059
0
LINE
8
boundary
62
5
39
2
10
126.836961
20
392.652059
11
127.556203
21
390.578660
0
LINE
8
boundary
62
5
39
2
10
127.556203
20
390.578660
11
128.154755
21
389.410093
0
LINE
8
boundary
62
5
39
2
10
128.154755
20
389.410093
11
129.456361
21
385.997820
0
LINE
8
annotation
62
1
39
211
10
125.775799
20
415.206504
11
125.775799
21
421.606504
0
LINE
8
annotation
62
1
39
211
10
125.775799
20
421.606504
11
124.352997
21
420.183301
0
LINE
8
annotation
62
1
39
211
10
149.699719
20
416.268381
11
149.699719
21
420.544628
0
LINE
8
annotation
62
1
39
211
10
149.699719
20
420.544628
11
148.749054
21
419.593695
0
LINE
8
annotation
62
1
39
211
10
167.225940
20
416.245182
11
167.225940
21
420.567827
0
LINE
8
annotation
62
1
39
211
10
167.225940
20
420.567827
11
166.264961
21
419.606576
0
LINE
8
annotation
62
1
39
211
10
182.733832
20
416.392298
11
182.733832
21
420.420710
0
LINE
8
annotation
62
1
39
211
10
182.733832
20
420.420710
11
181.838265
21
419.524890
0
LINE
8
annotation
62
1
39
211
10
156.307486
20
450.943295
11
153.465093
21
450.943295
0
LINE
8
annotation
62
1
39
211
10
153.465093
20
450.943295
11
156.091557
21
455.171565
0
LINE
8
annotation
62
1
39
211
10
156.091557
20
455.171565
11
156.091557
21
455.171565
0
LINE
8
annotation
62
1
39
211
10
156.091557
20
455.171565
11
156.094697
21
455.175450
0
LINE
8
annotation
62
1
39
211
10
156.094697
20
455.175450
11
156.097708
21
455.179369
0
LINE
8
annotation
62
1
39
211
10
156.097708
20
455.179369
11
156.100610
21
455.183353
0
LINE
8
annotation
62
1
39
211
10
156.100610
20
455.183353
11
156.103423
21
455.187436
0
LINE
8
annotation
62
1
39
211
10
156.103423
20
455.187436
11
156.106166
21
455.191652
0
LINE
8
annotation
62
1
39
211
10
156.106166
20
455.191652
11
156.108860
21
455.196033
0
LINE
8
annotation
62
1
39
211
10
156.108860
20
455.196033
11
156.111524
21
455.200612
0
LINE
8
annotation
62
1
39
211
10
156.111524
20
455.200612
11
156.114179
21
455.205422
0
LINE
8
annotation
62
1
39
211
10
156.114179
20
455.205422
11
156.116843
21
455.210496
0
LINE
8
annotation
62
1
39
211
10
156.116843
20
455.210496
11
156.116843
21
455.210496
0
LINE
8
annotation
62
1
39
211
10
156.116843
20
455.210496
11
156.225289
21
455.443339
0
LINE
8
annotation
62
1
39
211
10
156.225289
20
455.443339
11
156.288641
21
455.684702
0
LINE
8
annotation
62
1
39
211
10
156.288641
20
455.684702
11
156.308452
21
455.929129
0
LINE
8
annotation
62
1
39
211
10
156.308452
20
455.929129
11
156.286275
21
456.171169
0
LINE
8
annotation
62
1
39
211
10
156.286275
20
456.171169
11
156.223661
21
456.405366
0
LINE
8
annotation
62
1
39
211
10
156.223661
20
456.405366
11
156.122164
21
456.626267
0
LINE
8
annotation
62
1
39
211
10
156.122164
20
456.626267
11
155.983336
21
456.828419
0
LINE
8
annotation
62
1
39
211
10
155.983336
20
456.828419
11
155.808730
21
457.006367
0
LINE
8
annotation
62
1
39
211
10
155.808730
20
457.006367
11
155.599898
21
457.154658
0
LINE
8
annotation
62
1
39
211
10
155.599898
20
457.154658
11
155.599898
21
457.154658
0
LINE
8
annotation
62
1
39
211
10
155.599898
20
457.154658
11
155.366408
21
457.261563
0
LINE
8
annotation
62
1
39
211
10
155.366408
20
457.261563
11
155.124675
21
457.323939
0
LINE
8
annotation
62
1
39
211
10
155.124675
20
457.323939
11
154.880106
21
457.343191
0
LINE
8
annotation
62
1
39
211
10
154.880106
20
457.343191
11
154.638103
21
457.320721
0
LINE
8
annotation
62
1
39
211
10
154.638103
20
457.320721
11
154.404071
21
457.257934
0
LINE
8
annotation
62
1
39
211
10
154.404071
20
457.257934
11
154.183414
21
457.156234
0
LINE
8
annotation
62
1
39
211
10
154.183414
20
457.156234
11
153.981536
21
457.017024
0
LINE
8
annotation
62
1
39
211
10
153.981536
20
457.017024
11
153.803842
21
456.841709
0
LINE
8
annotation
62
1
39
211
10
153.803842
20
456.841709
11
153.655736
21
456.631693
0
LINE
8
annotation
62
1
39
211
10
153.655736
20
456.631693
11
153.469107
21
456.273685
0
LINE
8
annotation
62
1
39
211
10
161.119628
20
496.881252
11
162.540824
21
496.881252
0
LINE
8
annotation
62
1
39
211
10
162.540824
20
496.881252
11
162.540824
21
496.881252
0
LINE
8
annotation
62
1
39
211
10
162.540824
20
496.881252
11
162.796430
21
496.904182
0
LINE
8
annotation
62
1
39
211
10
162.796430
20
496.904182
11
163.036946
21
496.970266
0
LINE
8
annotation
62
1
39
211
10
163.036946
20
496.970266
11
163.258372
21
497.075449
0
LINE
8
annotation
62
1
39
211
10
163.258372
20
497.075449
11
163.456708
21
497.215673
0
LINE
8
annotation
62
1
39
211
10
163.456708
20
497.215673
11
163.627953
21
497.386882
0
LINE
8
annotation
62
1
39
211
10
163.627953
20
497.386882
11
163.768107
21
497.585020
0
LINE
8
annotation
62
1
39
211
10
163.768107
20
497.585020
11
163.873170
21
497.806031
0
LINE
8
annotation
62
1
39
211
10
163.873170
20
497.806031
11
163.939142
21
498.045857
0
LINE
8
annotation
62
1
39
211
10
163.939142
20
498.045857
11
163.962021
21
498.300442
0
LINE
8
annotation
62
1
39
211
10
163.962021
20
498.300442
11
163.962021
21
499.012044
0
LINE
8
annotation
62
1
39
211
10
163.962021
20
499.012044
11
163.962021
21
499.012044
0
LINE
8
annotation
62
1
39
211
10
163.962021
20
499.012044
11
163.939142
21
499.266524
0
LINE
8
annotation
62
1
39
211
10
163.939142
20
499.266524
11
163.873170
21
499.506294
0
LINE
8
annotation
62
1
39
211
10
163.873170
20
499.506294
11
163.768107
21
499.727287
0
LINE
8
annotation
62
1
39
211
10
163.768107
20
499.727287
11
163.627953
21
499.925439
0
LINE
8
annotation
62
1
39
211
10
163.627953
20
499.925439
11
163.456708
21
500.096681
0
LINE
8
annotation
62
1
39
211
10
163.456708
20
500.096681
11
163.258372
21
500.236948
0
LINE
8
annotation
62
1
39
211
10
163.258372
20
500.236948
11
163.036946
21
500.342174
0
LINE
8
annotation
62
1
39
211
10
163.036946
20
500.342174
11
162.796430
21
500.408291
0
LINE
8
annotation
62
1
39
211
10
162.796430
20
500.408291
11
162.540824
21
500.431234
0
LINE
8
annotation
62
1
39
211
10
162.540824
20
500.431234
11
161.829223
21
500.431234
0
LINE
8
annotation
62
1
39
211
10
161.829223
20
500.431234
11
162.540824
21
500.431234
0
LINE
8
annotation
62
1
39
211
10
162.540824
20
500.431234
11
162.540824
21
500.431234
0
LINE
8
annotation
62
1
39
211
10
162.540824
20
500.431234
11
162.796430
21
500.454182
0
LINE
8
annotation
62
1
39
211
10
162.796430
20
500.454182
11
163.036946
21
500.520338
0
LINE
8
annotation
62
1
39
211
10
163.036946
20
500.520338
11
163.258372
21
500.625668
0
LINE
8
annotation
62
1
39
211
10
163.258372
20
500.625668
11
163.456708
21
500.766138
0
LINE
8
annotation
62
1
39
211
10
163.456708
20
500.766138
11
163.627953
21
500.937717
0
LINE
8
annotation
62
1
39
211
10
163.627953
20
500.937717
11
163.768107
21
501.136369
0
LINE
8
annotation
62
1
39
211
10
163.768107
20
501.136369
11
163.873170
21
501.358062
0
LINE
8
annotation
62
1
39
211
10
163.873170
20
501.358062
11
163.939142
21
501.598763
0
LINE
8
annotation
62
1
39
211
10
163.939142
20
501.598763
11
163.962021
21
501.854437
0
LINE
8
annotation
62
1
39
211
10
163.962021
20
501.854437
11
163.962021
21
501.854437
0
LINE
8
annotation
62
1
39
211
10
163.962021
20
501.854437
11
163.939142
21
502.108917
0
LINE
8
annotation
62
1
39
211
10
163.939142
20
502.108917
11
163.873170
21
502.348687
0
LINE
8
annotation
62
1
39
211
10
163.873170
20
502.348687
11
163.768107
21
502.569681
0
LINE
8
annotation
62
1
39
211
10
163.768107
20
502.569681
11
163.627953
21
502.767832
0
LINE
8
annotation
62
1
39
211
10
163.627953
20
502.767832
11
163.456708
21
502.939074
0
LINE
8
annotation
62
1
39
211
10
163.456708
20
502.939074
11
163.258372
21
503.079341
0
LINE
8
annotation
62
1
39
211
10
163.258372
20
503.079341
11
163.036946
21
503.184567
0
LINE
8
annotation
62
1
39
211
10
163.036946
20
503.184567
11
162.796430
21
503.250684
0
LINE
8
annotation
62
1
39
211
10
162.796430
20
503.250684
11
162.540824
21
503.273627
0
LINE
8
annotation
62
1
39
211
10
162.540824
20
503.273627
11
161.119628
21
503.273627
0
LINE
8
annotation
62
1
39
211
10
164.390948
20
517.240477
11
160.837355
21
517.240477
0
LINE
8
annotation
62
1
39
211
10
160.837355
20
517.240477
11
162.256544
21
522.217675
0
LINE
8
annotation
62
1
39
211
10
163.325753
20
515.817675
11
163.325753
21
518.660068
0
LINE
8
annotation
62
1
39
211
10
156.204086
20
554.612715
11
157.625283
21
554.612715
0
LINE
8
annotation
62
1
39
211
10
157.625283
20
554.612715
11
157.625283
21
554.612715
0
LINE
8
annotation
62
1
39
211
10
157.625283
20
554.612715
11
157.880360
21
554.635649
0
LINE
8
annotation
62
1
39
211
10
157.880360
20
554.635649
11
158.120595
21
554.701768
0
LINE
8
annotation
62
1
39
211
10
158.120595
20
554.701768
11
158.341938
21
554.807045
0
LINE
8
annotation
62
1
39
211
10
158.341938
20
554.807045
11
158.540340
21
554.947452
0
LINE
8
annotation
62
1
39
211
10
158.540340
20
554.947452
11
158.711751
21
555.118964
0
LINE
8
annotation
62
1
39
211
10
158.711751
20
555.118964
11
158.852120
21
555.317553
0
LINE
8
annotation
62
1
39
211
10
158.852120
20
555.317553
11
158.957397
21
555.539192
0
LINE
8
annotation
62
1
39
211
10
158.957397
20
555.539192
11
159.023534
21
555.779856
0
LINE
8
annotation
62
1
39
211
10
159.023534
20
555.779856
11
159.046479
21
556.035517
0
LINE
8
annotation
62
1
39
211
10
159.046479
20
556.035517
11
159.046479
21
556.743506
0
LINE
8
annotation
62
1
39
211
10
159.046479
20
556.743506
11
159.046479
21
556.743506
0
LINE
8
annotation
62
1
39
211
10
159.046479
20
556.743506
11
159.023547
21
556.999043
0
LINE
8
annotation
62
1
39
211
10
159.023547
20
556.999043
11
158.957443
21
557.239374
0
LINE
8
annotation
62
1
39
211
10
158.957443
20
557.239374
11
158.852209
21
557.460534
0
LINE
8
annotation
62
1
39
211
10
158.852209
20
557.460534
11
158.711883
21
557.658553
0
LINE
8
annotation
62
1
39
211
10
158.711883
20
557.658553
11
158.540505
21
557.829465
0
LINE
8
annotation
62
1
39
211
10
158.540505
20
557.829465
11
158.342117
21
557.969302
0
LINE
8
annotation
62
1
39
211
10
158.342117
20
557.969302
11
158.120757
21
558.074098
0
LINE
8
annotation
62
1
39
211
10
158.120757
20
558.074098
11
157.880465
21
558.139885
0
LINE
8
annotation
62
1
39
211
10
157.880465
20
558.139885
11
157.625283
21
558.162696
0
LINE
8
annotation
62
1
39
211
10
157.625283
20
558.162696
11
156.204086
21
558.162696
0
LINE
8
annotation
62
1
39
211
10
156.204086
20
558.162696
11
156.204086
21
561.012715
0
LINE
8
annotation
62
1
39
211
10
156.204086
20
561.012715
11
159.046479
21
561.012715
0
LINE
8
annotation
62
1
39
211
10
157.371947
20
586.232333
11
157.371947
21
586.232333
0
LINE
8
annotation
62
1
39
211
10
157.371947
20
586.232333
11
156.964810
21
586.079682
0
LINE
8
annotation
62
1
39
211
10
156.964810
20
586.079682
11
156.591208
21
585.874001
0
LINE
8
annotation
62
1
39
211
10
156.591208
20
585.874001
11
156.254977
21
585.620446
0
LINE
8
annotation
62
1
39
211
10
156.254977
20
585.620446
11
155.959952
21
585.324169
0
LINE
8
annotation
62
1
39
211
10
155.959952
20
585.324169
11
155.709967
21
584.990323
0
LINE
8
annotation
62
1
39
211
10
155.709967
20
584.990323
11
155.508859
21
584.624061
0
LINE
8
annotation
62
1
39
211
10
155.508859
20
584.624061
11
155.360462
21
584.230537
0
LINE
8
annotation
62
1
39
211
10
155.360462
20
584.230537
11
155.268611
21
583.814904
0
LINE
8
annotation
62
1
39
211
10
155.268611
20
583.814904
11
155.237142
21
583.382315
0
LINE
8
annotation
62
1
39
211
10
155.237142
20
583.382315
11
155.237142
21
581.255135
0
LINE
8
annotation
62
1
39
211
10
155.237142
20
581.255135
11
155.237142
21
581.255135
0
LINE
8
annotation
62
1
39
211
10
155.237142
20
581.255135
11
155.260087
21
580.999475
0
LINE
8
annotation
62
1
39
211
10
155.260087
20
580.999475
11
155.326224
21
580.758811
0
LINE
8
annotation
62
1
39
211
10
155.326224
20
580.758811
11
155.431502
21
580.537172
0
LINE
8
annotation
62
1
39
211
10
155.431502
20
580.537172
11
155.571871
21
580.338583
0
LINE
8
annotation
62
1
39
211
10
155.571871
20
580.338583
11
155.743281
21
580.167071
0
LINE
8
annotation
62
1
39
211
10
155.743281
20
580.167071
11
155.941683
21
580.026663
0
LINE
8
annotation
62
1
39
211
10
155.941683
20
580.026663
11
156.163026
21
579.921387
0
LINE
8
annotation
62
1
39
211
10
156.163026
20
579.921387
11
156.403261
21
579.855268
0
LINE
8
annotation
62
1
39
211
10
156.403261
20
579.855268
11
156.658339
21
579.832333
0
LINE
8
annotation
62
1
39
211
10
156.658339
20
579.832333
11
156.658339
21
579.832333
0
LINE
8
annotation
62
1
39
211
10
156.658339
20
579.832333
11
156.913944
21
579.855268
0
LINE
8
annotation
62
1
39
211
10
156.913944
20
579.855268
11
157.154460
21
579.921387
0
LINE
8
annotation
62
1
39
211
10
157.154460
20
579.921387
11
157.375886
21
580.026663
0
LINE
8
annotation
62
1
39
211
10
157.375886
20
580.026663
11
157.574222
21
580.167071
0
LINE
8
annotation
62
1
39
211
10
157.574222
20
580.167071
11
157.745467
21
580.338583
0
LINE
8
annotation
62
1
39
211
10
157.745467
20
580.338583
11
157.885621
21
580.537172
0
LINE
8
annotation
62
1
39
211
10
157.885621
20
580.537172
11
157.990684
21
580.758811
0
LINE
8
annotation
62
1
39
211
10
157.990684
20
580.758811
11
158.056656
21
580.999475
0
LINE
8
annotation
62
1
39
211
10
158.056656
20
580.999475
11
158.079535
21
581.255135
0
LINE
8
annotation
62
1
39
211
10
158.079535
20
581.255135
11
158.079535
21
581.963125
0
LINE
8
annotation
62
1
39
211
10
158.079535
20
581.963125
11
158.079535
21
581.963125
0
LINE
8
annotation
62
1
39
211
10
158.079535
20
581.963125
11
158.056656
21
582.218662
0
LINE
8
annotation
62
1
39
211
10
158.056656
20
582.218662
11
157.990684
21
582.458993
0
LINE
8
annotation
62
1
39
211
10
157.990684
20
582.458993
11
157.885621
21
582.680152
0
LINE
8
annotation
62
1
39
211
10
157.885621
20
582.680152
11
157.745467
21
582.878171
0
LINE
8
annotation
62
1
39
211
10
157.745467
20
582.878171
11
157.574222
21
583.049084
0
LINE
8
annotation
62
1
39
211
10
157.574222
20
583.049084
11
157.375886
21
583.188921
0
LINE
8
annotation
62
1
39
211
10
157.375886
20
583.188921
11
157.154460
21
583.293717
0
LINE
8
annotation
62
1
39
211
10
157.154460
20
583.293717
11
156.913944
21
583.359504
0
LINE
8
annotation
62
1
39
211
10
156.913944
20
583.359504
11
156.658339
21
583.382315
0
LINE
8
annotation
62
1
39
211
10
156.658339
20
583.382315
11
155.237142
21
583.382315
0
LINE
8
annotation
62
1
39
211
10
155.059141
20
579.032333
11
158.259141
21
579.032333
0
LINE
8
annotation
62
1
39
211
10
155.150056
20
600.426599
11
156.572858
21
606.826599
0
LINE
8
annotation
62
1
39
211
10
156.572858
20
606.826599
11
153.726853
21
606.826599
0
LINE
8
annotation
62
1
39
211
10
156.572858
20
603.976580
11
155.150056
21
603.976580
0
LINE
8
annotation
62
1
39
211
10
162.669754
20
474.299190
11
153.240854
21
474.299190
0
LINE
8
annotation
62
1
39
211
10
153.240854
20
474.299190
11
162.669754
21
491.280581
0
LINE
8
annotation
62
1
39
211
10
162.669754
20
491.280581
11
153.240854
21
491.280581
0
LINE
8
annotation
62
1
39
211
10
178.324508
20
482.789885
11
169.039374
21
482.789885
0
LINE
8
annotation
62
1
39
211
10
188.466646
20
474.299190
11
188.466646
21
491.280581
0
LINE
8
annotation
62
1
39
211
10
188.466646
20
491.280581
11
184.691465
21
487.504336
0
LINE
8
boundary
62
5
39
2
10
125.127059
20
646.735816
11
129.279067
21
642.063979
0
LINE
8
boundary
62
5
39
2
10
129.279067
20
642.063979
11
133.119883
21
637.973442
0
LINE
8
boundary
62
5
39
2
10
133.119883
20
637.973442
11
136.565131
21
634.523140
0
LINE
8
boundary
62
5
39
2
10
136.565131
20
634.523140
11
140.160319
21
630.266418
0
LINE
8
boundary
62
5
39
2
10
140.160319
20
630.266418
11
144.487576
21
627.865423
0
LINE
8
boundary
62
5
39
2
10
144.487576
20
627.865423
11
150.252235
21
625.268814
0
LINE
8
boundary
62
5
39
2
10
150.252235
20
625.268814
11
156.888776
21
623.415239
0
LINE
8
boundary
62
5
39
2
10
156.888776
20
623.415239
11
160.391618
21
622.404534
0
LINE
8
boundary
62
5
39
2
10
160.391618
20
622.404534
11
167.648039
21
622.327455
0
LINE
8
boundary
62
5
39
2
10
167.648039
20
622.327455
11
170.387299
21
622.305415
0
LINE
8
boundary
62
5
39
2
10
170.387299
20
622.305415
11
172.998509
21
623.055164
0
LINE
8
boundary
62
5
39
2
10
172.998509
20
623.055164
11
182.098740
21
625.471962
0
LINE
8
boundary
62
5
39
2
10
182.098740
20
625.471962
11
183.767263
21
627.031697
0
LINE
8
boundary
62
5
39
2
10
183.767263
20
627.031697
11
193.296119
21
635.149106
0
LINE
8
boundary
62
5
39
2
10
193.296119
20
635.149106
11
194.154581
21
636.705248
0
LINE
8
boundary
62
5
39
2
10
194.154581
20
636.705248
11
199.312699
21
645.606567
0
LINE
8
boundary
62
5
39
2
10
199.312699
20
645.606567
11
162.615713
21
645.806567
0
LINE
8
boundary
62
5
39
2
10
162.615713
20
645.806567
11
162.615713
21
649.552567
0
LINE
8
boundary
62
5
39
2
10
162.615713
20
649.552567
11
201.599319
21
649.552567
0
LINE
8
boundary
62
5
39
2
10
201.599319
20
649.552567
11
202.119295
21
650.449885
0
LINE
8
boundary
62
5
39
2
10
202.119295
20
650.449885
11
202.254611
21
651.459934
0
LINE
8
boundary
62
5
39
2
10
202.254611
20
651.459934
11
205.510383
21
666.925140
0
LINE
8
boundary
62
5
39
2
10
205.510383
20
666.925140
11
206.162018
21
670.050361
0
LINE
8
boundary
62
5
39
2
10
206.162018
20
670.050361
11
206.123005
21
670.826186
0
LINE
8
boundary
62
5
39
2
10
206.123005
20
670.826186
11
161.825515
21
671.026186
0
LINE
8
boundary
62
5
39
2
10
161.825515
20
671.026186
11
161.825515
21
674.772186
0
LINE
8
boundary
62
5
39
2
10
161.825515
20
674.772186
11
205.579010
21
674.772186
0
LINE
8
boundary
62
5
39
2
10
205.579010
20
674.772186
11
203.748446
21
691.179755
0
LINE
8
boundary
62
5
39
2
10
203.748446
20
691.179755
11
161.567806
21
691.620451
0
LINE
8
boundary
62
5
39
2
10
161.567806
20
691.620451
11
161.567806
21
695.366451
0
LINE
8
boundary
62
5
39
2
10
161.567806
20
695.366451
11
201.240787
21
695.366451
0
LINE
8
boundary
62
5
39
2
10
201.240787
20
695.366451
11
195.859550
21
705.319975
0
LINE
8
boundary
62
5
39
2
10
195.859550
20
705.319975
11
195.440691
21
706.391659
0
LINE
8
boundary
62
5
39
2
10
195.440691
20
706.391659
11
184.836132
21
715.463743
0
LINE
8
boundary
62
5
39
2
10
184.836132
20
715.463743
11
183.661605
21
716.836131
0
LINE
8
boundary
62
5
39
2
10
183.661605
20
716.836131
11
169.450532
21
721.807064
0
LINE
8
boundary
62
5
39
2
10
169.450532
20
721.807064
11
168.797655
21
722.074680
0
LINE
8
boundary
62
5
39
2
10
168.797655
20
722.074680
11
157.483283
21
721.014400
0
LINE
8
boundary
62
5
39
2
10
157.483283
20
721.014400
11
153.669911
21
720.644093
0
LINE
8
boundary
62
5
39
2
10
153.669911
20
720.644093
11
140.348594
21
715.189831
0
LINE
8
boundary
62
5
39
2
10
140.348594
20
715.189831
11
138.579515
21
713.624467
0
LINE
8
boundary
62
5
39
2
10
138.579515
20
713.624467
11
129.163895
21
706.223142
0
LINE
8
boundary
62
5
39
2
10
129.163895
20
706.223142
11
125.804445
21
701.096955
0
LINE
8
boundary
62
5
39
2
10
125.804445
20
701.096955
11
119.358579
21
691.552917
0
LINE
8
boundary
62
5
39
2
10
119.358579
20
691.552917
11
118.773210
21
684.010184
0
LINE
8
boundary
62
5
39
2
10
118.773210
20
684.010184
11
117.367585
21
673.312882
0
LINE
8
boundary
62
5
39
2
10
117.367585
20
673.312882
11
118.511879
21
667.332635
0
LINE
8
boundary
62
5
39
2
10
118.511879
20
667.332635
11
119.591746
21
659.266454
0
LINE
8
boundary
62
5
39
2
10
119.591746
20
659.266454
11
122.180328
21
653.398812
0
LINE
8
boundary
62
5
39
2
10
122.180328
20
653.398812
11
125.127059
21
646.735816
0
LINE
8
annotation
62
1
39
211
10
153.066714
20
644.479567
11
154.487910
21
644.479567
0
LINE
8
annotation
62
1
39
211
10
154.487910
20
644.479567
11
154.487910
21
644.479567
0
LINE
8
annotation
62
1
39
211
10
154.487910
20
644.479567
11
154.742987
21
644.502502
0
LINE
8
annotation
62
1
39
211
10
154.742987
20
644.502502
11
154.983222
21
644.568621
0
LINE
8
annotation
62
1
39
211
10
154.983222
20
644.568621
11
155.204566
21
644.673897
0
LINE
8
annotation
62
1
39
211
10
155.204566
20
644.673897
11
155.402968
21
644.814305
0
LINE
8
annotation
62
1
39
211
10
155.402968
20
644.814305
11
155.574378
21
644.985816
0
LINE
8
annotation
62
1
39
211
10
155.574378
20
644.985816
11
155.714747
21
645.184405
0
LINE
8
annotation
62
1
39
211
10
155.714747
20
645.184405
11
155.820025
21
645.406045
0
LINE
8
annotation
62
1
39
211
10
155.820025
20
645.406045
11
155.886161
21
645.646709
0
LINE
8
annotation
62
1
39
211
10
155.886161
20
645.646709
11
155.909107
21
645.902369
0
LINE
8
annotation
62
1
39
211
10
155.909107
20
645.902369
11
155.909107
21
646.610359
0
LINE
8
annotation
62
1
39
211
10
155.909107
20
646.610359
11
155.909107
21
646.610359
0
LINE
8
annotation
62
1
39
211
10
155.909107
20
646.610359
11
155.886174
21
646.865896
0
LINE
8
annotation
62
1
39
211
10
155.886174
20
646.865896
11
155.820071
21
647.106227
0
LINE
8
annotation
62
1
39
211
10
155.820071
20
647.106227
11
155.714836
21
647.327386
0
LINE
8
annotation
62
1
39
211
10
155.714836
20
647.327386
11
155.574510
21
647.525405
0
LINE
8
annotation
62
1
39
211
10
155.574510
20
647.525405
11
155.403133
21
647.696317
0
LINE
8
annotation
62
1
39
211
10
155.403133
20
647.696317
11
155.204744
21
647.836155
0
LINE
8
annotation
62
1
39
211
10
155.204744
20
647.836155
11
154.983384
21
647.940951
0
LINE
8
annotation
62
1
39
211
10
154.983384
20
647.940951
11
154.743093
21
648.006738
0
LINE
8
annotation
62
1
39
211
10
154.743093
20
648.006738
11
154.487910
21
648.029549
0
LINE
8
annotation
62
1
39
211
10
154.487910
20
648.029549
11
153.066714
21
648.029549
0
LINE
8
annotation
62
1
39
211
10
153.066714
20
648.029549
11
153.066714
21
650.879567
0
LINE
8
annotation
62
1
39
211
10
153.066714
20
650.879567
11
155.909107
21
650.879567
0
LINE
8
annotation
62
1
39
211
10
154.411320
20
676.099186
11
154.411320
21
676.099186
0
LINE
8
annotation
62
1
39
211
10
154.411320
20
676.099186
11
154.004183
21
675.946534
0
LINE
8
annotation
62
1
39
211
10
154.004183
20
675.946534
11
153.630582
21
675.740854
0
LINE
8
annotation
62
1
39
211
10
153.630582
20
675.740854
11
153.294351
21
675.487299
0
LINE
8
annotation
62
1
39
211
10
153.294351
20
675.487299
11
152.999325
21
675.191021
0
LINE
8
annotation
62
1
39
211
10
152.999325
20
675.191021
11
152.749341
21
674.857175
0
LINE
8
annotation
62
1
39
211
10
152.749341
20
674.857175
11
152.548232
21
674.490914
0
LINE
8
annotation
62
1
39
211
10
152.548232
20
674.490914
11
152.399835
21
674.097390
0
LINE
8
annotation
62
1
39
211
10
152.399835
20
674.097390
11
152.307985
21
673.681756
0
LINE
8
annotation
62
1
39
211
10
152.307985
20
673.681756
11
152.276515
21
673.249167
0
LINE
8
annotation
62
1
39
211
10
152.276515
20
673.249167
11
152.276515
21
671.121988
0
LINE
8
annotation
62
1
39
211
10
152.276515
20
671.121988
11
152.276515
21
671.121988
0
LINE
8
annotation
62
1
39
211
10
152.276515
20
671.121988
11
152.299461
21
670.866327
0
LINE
8
annotation
62
1
39
211
10
152.299461
20
670.866327
11
152.365597
21
670.625664
0
LINE
8
annotation
62
1
39
211
10
152.365597
20
670.625664
11
152.470875
21
670.404024
0
LINE
8
annotation
62
1
39
211
10
152.470875
20
670.404024
11
152.611244
21
670.205435
0
LINE
8
annotation
62
1
39
211
10
152.611244
20
670.205435
11
152.782654
21
670.033923
0
LINE
8
annotation
62
1
39
211
10
152.782654
20
670.033923
11
152.981056
21
669.893516
0
LINE
8
annotation
62
1
39
211
10
152.981056
20
669.893516
11
153.202400
21
669.788239
0
LINE
8
annotation
62
1
39
211
10
153.202400
20
669.788239
11
153.442635
21
669.722121
0
LINE
8
annotation
62
1
39
211
10
153.442635
20
669.722121
11
153.697712
21
669.699186
0
LINE
8
annotation
62
1
39
211
10
153.697712
20
669.699186
11
153.697712
21
669.699186
0
LINE
8
annotation
62
1
39
211
10
153.697712
20
669.699186
11
153.953318
21
669.722121
0
LINE
8
annotation
62
1
39
211
10
153.953318
20
669.722121
11
154.193834
21
669.788239
0
LINE
8
annotation
62
1
39
211
10
154.193834
20
669.788239
11
154.415260
21
669.893516
0
LINE
8
annotation
62
1
39
211
10
154.415260
20
669.893516
11
154.613595
21
670.033923
0
LINE
8
annotation
62
1
39
211
10
154.613595
20
670.033923
11
154.784841
21
670.205435
0
LINE
8
annotation
62
1
39
211
10
154.784841
20
670.205435
11
154.924995
21
670.404024
0
LINE
8
annotation
62
1
39
211
10
154.924995
20
670.404024
11
155.030058
21
670.625664
0
LINE
8
annotation
62
1
39
211
10
155.030058
20
670.625664
11
155.096029
21
670.866327
0
LINE
8
annotation
62
1
39
211
10
155.096029
20
670.866327
11
155.118908
21
671.121988
0
LINE
8
annotation
62
1
39
211
10
155.118908
20
671.121988
11
155.118908
21
671.829977
0
LINE
8
annotation
62
1
39
211
10
155.118908
20
671.829977
11
155.118908
21
671.829977
0
LINE
8
annotation
62
1
39
211
10
155.118908
20
671.829977
11
155.096029
21
672.085514
0
LINE
8
annotation
62
1
39
211
10
155.096029
20
672.085514
11
155.030058
21
672.325846
0
LINE
8
annotation
62
1
39
211
10
155.030058
20
672.325846
11
154.924995
21
672.547005
0
LINE
8
annotation
62
1
39
211
10
154.924995
20
672.547005
11
154.784841
21
672.745024
0
LINE
8
annotation
62
1
39
211
10
154.784841
20
672.745024
11
154.613595
21
672.915936
0
LINE
8
annotation
62
1
39
211
10
154.613595
20
672.915936
11
154.415260
21
673.055774
0
LINE
8
annotation
62
1
39
211
10
154.415260
20
673.055774
11
154.193834
21
673.160570
0
LINE
8
annotation
62
1
39
211
10
154.193834
20
673.160570
11
153.953318
21
673.226357
0
LINE
8
annotation
62
1
39
211
10
153.953318
20
673.226357
11
153.697712
21
673.249167
0
LINE
8
annotation
62
1
39
211
10
153.697712
20
673.249167
11
152.276515
21
673.249167
0
LINE
8
annotation
62
1
39
211
10
152.098515
20
668.899186
11
155.298515
21
668.899186
0
LINE
8
annotation
62
1
39
211
10
153.440004
20
690.293451
11
154.862805
21
696.693451
0
LINE
8
annotation
62
1
39
211
10
154.862805
20
696.693451
11
152.016800
21
696.693451
0
LINE
8
annotation
62
1
39
211
10
154.862805
20
693.843432
11
153.440004
21
693.843432
0
LINE
8
annotation
62
1
39
211
10
136.681649
20
668.361019
11
130.698198
21
668.361019
0
LINE
8
annotation
62
1
39
211
10
130.698198
20
668.361019
11
136.681649
21
679.137177
0
LINE
8
annotation
62
1
39
211
10
136.681649
20
679.137177
11
130.698198
21
679.137177
0
LINE
8
annotation
62
1
39
211
10
146.615941
20
673.749098
11
140.723722
21
673.749098
0
LINE
8
annotation
62
1
39
211
10
150.655986
20
670.750277
11
150.655986
21
670.750277
0
LINE
8
annotation
62
1
39
211
10
150.655986
20
670.750277
11
150.694621
21
670.320011
0
LINE
8
annotation
62
1
39
211
10
150.694621
20
670.320011
11
150.805980
21
669.915346
0
LINE
8
annotation
62
1
39
211
10
150.805980
20
669.915346
11
150.983244
21
669.542964
0
LINE
8
annotation
62
1
39
211
10
150.983244
20
669.542964
11
151.219594
21
669.209545
0
LINE
8
annotation
62
1
39
211
10
151.219594
20
669.209545
11
151.508210
21
668.921767
0
LINE
8
annotation
62
1
39
211
10
151.508210
20
668.921767
11
151.842274
21
668.686312
0
LINE
8
annotation
62
1
39
211
10
151.842274
20
668.686312
11
152.214967
21
668.509859
0
LINE
8
annotation
62
1
39
211
10
152.214967
20
668.509859
11
152.619469
21
668.399089
0
LINE
8
annotation
62
1
39
211
10
152.619469
20
668.399089
11
153.048961
21
668.360681
0
LINE
8
annotation
62
1
39
211
10
153.048961
20
668.360681
11
153.048961
21
668.360681
0
LINE
8
annotation
62
1
39
211
10
153.048961
20
668.360681
11
153.478453
21
668.399089
0
LINE
8
annotation
62
1
39
211
10
153.478453
20
668.399089
11
153.882955
21
668.509859
0
LINE
8
annotation
62
1
39
211
10
153.882955
20
668.509859
11
154.255648
21
668.686312
0
LINE
8
annotation
62
1
39
211
10
154.255648
20
668.686312
11
154.589712
21
668.921767
0
LINE
8
annotation
62
1
39
211
10
154.589712
20
668.921767
11
154.878328
21
669.209545
0
LINE
8
annotation
62
1
39
211
10
154.878328
20
669.209545
11
155.114678
21
669.542964
0
LINE
8
annotation
62
1
39
211
10
155.114678
20
669.542964
11
155.291942
21
669.915346
0
LINE
8
annotation
62
1
39
211
10
155.291942
20
669.915346
11
155.403301
21
670.320011
0
LINE
8
annotation
62
1
39
211
10
155.403301
20
670.320011
11
155.441936
21
670.750277
0
LINE
8
annotation
62
1
39
211
10
155.441936
20
670.750277
11
155.441936
21
671.942372
0
LINE
8
annotation
62
1
39
211
10
155.441936
20
671.942372
11
155.441936
21
671.942372
0
LINE
8
annotation
62
1
39
211
10
155.441936
20
671.942372
11
155.403323
21
672.372847
0
LINE
8
annotation
62
1
39
211
10
155.403323
20
672.372847
11
155.292020
21
672.778070
0
LINE
8
annotation
62
1
39
211
10
155.292020
20
672.778070
11
155.114828
21
673.151261
0
LINE
8
annotation
62
1
39
211
10
155.114828
20
673.151261
11
154.878551
21
673.485640
0
LINE
8
annotation
62
1
39
211
10
154.878551
20
673.485640
11
154.589990
21
673.774427
0
LINE
8
annotation
62
1
39
211
10
154.589990
20
673.774427
11
154.255948
21
674.010842
0
LINE
8
annotation
62
1
39
211
10
154.255948
20
674.010842
11
153.883228
21
674.188104
0
LINE
8
annotation
62
1
39
211
10
153.883228
20
674.188104
11
153.478631
21
674.299433
0
LINE
8
annotation
62
1
39
211
10
153.478631
20
674.299433
11
153.048961
21
674.338050
0
LINE
8
annotation
62
1
39
211
10
153.048961
20
674.338050
11
153.048961
21
674.338050
0
LINE
8
annotation
62
1
39
211
10
153.048961
20
674.338050
11
152.619291
21
674.299411
0
LINE
8
annotation
62
1
39
211
10
152.619291
20
674.299411
11
152.214694
21
674.188026
0
LINE
8
annotation
62
1
39
211
10
152.214694
20
674.188026
11
151.841974
21
674.010692
0
LINE
8
annotation
62
1
39
211
10
151.841974
20
674.010692
11
151.507932
21
673.774205
0
LINE
8
annotation
62
1
39
211
10
151.507932
20
673.774205
11
151.219371
21
673.485362
0
LINE
8
annotation
62
1
39
211
10
151.219371
20
673.485362
11
150.983094
21
673.150961
0
LINE
8
annotation
62
1
39
211
10
150.983094
20
673.150961
11
150.805902
21
672.777797
0
LINE
8
annotation
62
1
39
211
10
150.805902
20
672.777797
11
150.694599
21
672.372669
0
LINE
8
annotation
62
1
39
211
10
150.694599
20
672.372669
11
150.655986
21
671.942372
0
LINE
8
annotation
62
1
39
211
10
150.655986
20
671.942372
11
150.655986
21
670.750277
0
LINE
8
annotation
62
1
39
211
10
155.441936
20
676.734403
11
155.441936
21
676.734403
0
LINE
8
annotation
62
1
39
211
10
155.441936
20
676.734403
11
155.403323
21
677.162890
0
LINE
8
annotation
62
1
39
211
10
155.403323
20
677.162890
11
155.292020
21
677.566609
0
LINE
8
annotation
62
1
39
211
10
155.292020
20
677.566609
11
155.114828
21
677.938713
0
LINE
8
annotation
62
1
39
211
10
155.114828
20
677.938713
11
154.878551
21
678.272355
0
LINE
8
annotation
62
1
39
211
10
154.878551
20
678.272355
11
154.589990
21
678.560688
0
LINE
8
annotation
62
1
39
211
10
154.589990
20
678.560688
11
154.255948
21
678.796867
0
LINE
8
annotation
62
1
39
211
10
154.255948
20
678.796867
11
153.883228
21
678.974042
0
LINE
8
annotation
62
1
39
211
10
153.883228
20
678.974042
11
153.478631
21
679.085369
0
LINE
8
annotation
62
1
39
211
10
153.478631
20
679.085369
11
153.048961
21
679.123999
0
LINE
8
annotation
62
1
39
211
10
153.048961
20
679.123999
11
153.048961
21
679.123999
0
LINE
8
annotation
62
1
39
211
10
153.048961
20
679.123999
11
152.619291
21
679.085369
0
LINE
8
annotation
62
1
39
211
10
152.619291
20
679.085369
11
152.214694
21
678.974042
0
LINE
8
annotation
62
1
39
211
10
152.214694
20
678.974042
11
151.841974
21
678.796867
0
LINE
8
annotation
62
1
39
211
10
151.841974
20
678.796867
11
151.507932
21
678.560688
0
LINE
8
annotation
62
1
39
211
10
151.507932
20
678.560688
11
151.219371
21
678.272355
0
LINE
8
annotation
62
1
39
211
10
151.219371
20
678.272355
11
150.983094
21
677.938713
0
LINE
8
annotation
62
1
39
211
10
150.983094
20
677.938713
11
150.805902
21
677.566609
0
LINE
8
annotation
62
1
39
211
10
150.805902
20
677.566609
11
150.694599
21
677.162890
0
LINE
8
annotation
62
1
39
211
10
150.694599
20
677.162890
11
150.655986
21
676.734403
0
LINE
8
annotation
62
1
39
211
10
150.655986
20
676.734403
11
150.655986
21
676.734403
0
LINE
8
annotation
62
1
39
211
10
150.655986
20
676.734403
11
150.694621
21
676.303905
0
LINE
8
annotation
62
1
39
211
10
150.694621
20
676.303905
11
150.805980
21
675.898620
0
LINE
8
annotation
62
1
39
211
10
150.805980
20
675.898620
11
150.983244
21
675.525339
0
LINE
8
annotation
62
1
39
211
10
150.983244
20
675.525339
11
151.219594
21
675.190853
0
LINE
8
annotation
62
1
39
211
10
151.219594
20
675.190853
11
151.508210
21
674.901954
0
LINE
8
annotation
62
1
39
211
10
151.508210
20
674.901954
11
151.842274
21
674.665433
0
LINE
8
annotation
62
1
39
211
10
151.842274
20
674.665433
11
152.214967
21
674.488081
0
LINE
8
annotation
62
1
39
211
10
152.214967
20
674.488081
11
152.619469
21
674.376689
0
LINE
8
annotation
62
1
39
211
10
152.619469
20
674.376689
11
153.048961
21
674.338050
0
LINE
8
annotation
62
1
39
211
10
153.048961
20
674.338050
11
153.048961
21
674.338050
0
LINE
8
annotation
62
1
39
211
10
153.048961
20
674.338050
11
153.478453
21
674.376689
0
LINE
8
annotation
62
1
39
211
10
153.478453
20
674.376689
11
153.882955
21
674.488081
0
LINE
8
annotation
62
1
39
211
10
153.882955
20
674.488081
11
154.255648
21
674.665433
0
LINE
8
annotation
62
1
39
211
10
154.255648
20
674.665433
11
154.589712
21
674.901954
0
LINE
8
annotation
62
1
39
211
10
154.589712
20
674.901954
11
154.878328
21
675.190853
0
LINE
8
annotation
62
1
39
211
10
154.878328
20
675.190853
11
155.114678
21
675.525339
0
LINE
8
annotation
62
1
39
211
10
155.114678
20
675.525339
11
155.291942
21
675.898620
0
LINE
8
annotation
62
1
39
211
10
155.291942
20
675.898620
11
155.403301
21
676.303905
0
LINE
8
annotation
62
1
39
211
10
155.403301
20
676.303905
11
155.441936
21
676.734403
0
LINE
8
boundary
62
5
39
2
10
124.575944
20
737.826422
11
126.273229
21
733.995448
0
LINE
8
boundary
62
5
39
2
10
126.273229
20
733.995448
11
127.867614
21
733.235755
0
LINE
8
boundary
62
5
39
2
10
127.867614
20
733.235755
11
132.811336
21
726.295083
0
LINE
8
boundary
62
5
39
2
10
132.811336
20
726.295083
11
136.419491
21
727.147159
0
LINE
8
boundary
62
5
39
2
10
136.419491
20
727.147159
11
139.725279
21
725.270381
0
LINE
8
boundary
62
5
39
2
10
139.725279
20
725.270381
11
142.118208
21
725.249680
0
LINE
8
boundary
62
5
39
2
10
142.118208
20
725.249680
11
145.741830
21
726.572171
0
LINE
8
boundary
62
5
39
2
10
145.741830
20
726.572171
11
148.664852
21
728.076067
0
LINE
8
boundary
62
5
39
2
10
148.664852
20
728.076067
11
151.070759
21
729.418500
0
LINE
8
boundary
62
5
39
2
10
151.070759
20
729.418500
11
152.936106
21
730.884447
0
LINE
8
boundary
62
5
39
2
10
152.936106
20
730.884447
11
156.167022
21
732.863062
0
LINE
8
boundary
62
5
39
2
10
156.167022
20
732.863062
11
158.069520
21
734.973131
0
LINE
8
boundary
62
5
39
2
10
158.069520
20
734.973131
11
161.394994
21
738.228132
0
LINE
8
boundary
62
5
39
2
10
161.394994
20
738.228132
11
161.551930
21
738.806294
0
LINE
8
boundary
62
5
39
2
10
161.551930
20
738.806294
11
143.609119
21
738.806294
0
LINE
8
boundary
62
5
39
2
10
143.609119
20
738.806294
11
143.609119
21
742.552294
0
LINE
8
boundary
62
5
39
2
10
143.609119
20
742.552294
11
163.879023
21
742.552294
0
LINE
8
boundary
62
5
39
2
10
163.879023
20
742.552294
11
164.238466
21
743.178008
0
LINE
8
boundary
62
5
39
2
10
164.238466
20
743.178008
11
165.443590
21
744.789061
0
LINE
8
boundary
62
5
39
2
10
165.443590
20
744.789061
11
166.164926
21
746.162887
0
LINE
8
boundary
62
5
39
2
10
166.164926
20
746.162887
11
169.270926
21
753.002299
0
LINE
8
boundary
62
5
39
2
10
169.270926
20
753.002299
11
169.592477
21
753.804225
0
LINE
8
boundary
62
5
39
2
10
169.592477
20
753.804225
11
170.518993
21
757.542917
0
LINE
8
boundary
62
5
39
2
10
170.518993
20
757.542917
11
145.621916
21
757.742917
0
LINE
8
boundary
62
5
39
2
10
145.621916
20
757.742917
11
145.621916
21
761.488917
0
LINE
8
boundary
62
5
39
2
10
145.621916
20
761.488917
11
171.828788
21
761.488917
0
LINE
8
boundary
62
5
39
2
10
171.828788
20
761.488917
11
172.927597
21
764.568055
0
LINE
8
boundary
62
5
39
2
10
172.927597
20
764.568055
11
175.638619
21
771.995363
0
LINE
8
boundary
62
5
39
2
10
175.638619
20
771.995363
11
177.437119
21
782.205822
0
LINE
8
boundary
62
5
39
2
10
177.437119
20
782.205822
11
177.956165
21
785.515103
0
LINE
8
boundary
62
5
39
2
10
177.956165
20
785.515103
11
177.763793
21
790.916624
0
LINE
8
boundary
62
5
39
2
10
177.763793
20
790.916624
11
177.930737
21
796.337957
0
LINE
8
boundary
62
5
39
2
10
177.930737
20
796.337957
11
147.880643
21
796.537957
0
LINE
8
boundary
62
5
39
2
10
147.880643
20
796.537957
11
147.880643
21
800.283957
0
LINE
8
boundary
62
5
39
2
10
147.880643
20
800.283957
11
177.998108
21
800.283957
0
LINE
8
boundary
62
5
39
2
10
177.998108
20
800.283957
11
178.185883
21
804.623580
0
LINE
8
boundary
62
5
39
2
10
178.185883
20
804.623580
11
177.831669
21
810.227307
0
LINE
8
boundary
62
5
39
2
10
177.831669
20
810.227307
11
176.098498
21
820.324583
0
LINE
8
boundary
62
5
39
2
10
176.098498
20
820.324583
11
175.427668
21
821.757576
0
LINE
8
boundary
62
5
39
2
10
175.427668
20
821.757576
11
148.494686
21
821.757576
0
LINE
8
boundary
62
5
39
2
10
148.494686
20
821.757576
11
148.494686
21
825.503576
0
LINE
8
boundary
62
5
39
2
10
148.494686
20
825.503576
11
173.520117
21
825.503576
0
LINE
8
boundary
62
5
39
2
10
173.520117
20
825.503576
11
173.205817
21
826.503777
0
LINE
8
boundary
62
5
39
2
10
173.205817
20
826.503777
11
169.871399
21
831.144400
0
LINE
8
boundary
62
5
39
2
10
169.871399
20
831.144400
11
166.739507
21
836.371206
0
LINE
8
boundary
62
5
39
2
10
166.739507
20
836.371206
11
164.163805
21
842.151841
0
LINE
8
boundary
62
5
39
2
10
164.163805
20
842.151841
11
146.736864
21
842.351841
0
LINE
8
boundary
62
5
39
2
10
146.736864
20
842.351841
11
146.736864
21
846.097841
0
LINE
8
boundary
62
5
39
2
10
146.736864
20
846.097841
11
161.462967
21
846.097841
0
LINE
8
boundary
62
5
39
2
10
161.462967
20
846.097841
11
157.379342
21
852.584889
0
LINE
8
boundary
62
5
39
2
10
157.379342
20
852.584889
11
155.504298
21
855.390432
0
LINE
8
boundary
62
5
39
2
10
155.504298
20
855.390432
11
145.218815
21
859.751085
0
LINE
8
boundary
62
5
39
2
10
145.218815
20
859.751085
11
144.679208
21
859.680935
0
LINE
8
boundary
62
5
39
2
10
144.679208
20
859.680935
11
140.690191
21
856.418234
0
LINE
8
boundary
62
5
39
2
10
140.690191
20
856.418234
11
133.674046
21
850.686706
0
LINE
8
boundary
62
5
39
2
10
133.674046
20
850.686706
11
133.026675
21
850.262222
0
LINE
8
boundary
62
5
39
2
10
133.026675
20
850.262222
11
127.237731
21
837.818673
0
LINE
8
boundary
62
5
39
2
10
127.237731
20
837.818673
11
125.746153
21
834.008542
0
LINE
8
boundary
62
5
39
2
10
125.746153
20
834.008542
11
121.884781
21
822.930861
0
LINE
8
boundary
62
5
39
2
10
121.884781
20
822.930861
11
119.735004
21
815.363660
0
LINE
8
boundary
62
5
39
2
10
119.735004
20
815.363660
11
118.365729
21
804.686106
0
LINE
8
boundary
62
5
39
2
10
118.365729
20
804.686106
11
117.367585
21
797.808376
0
LINE
8
boundary
62
5
39
2
10
117.367585
20
797.808376
11
118.242614
21
789.781878
0
LINE
8
boundary
62
5
39
2
10
118.242614
20
789.781878
11
118.115853
21
780.011252
0
LINE
8
boundary
62
5
39
2
10
118.115853
20
780.011252
11
119.030792
21
764.582199
0
LINE
8
boundary
62
5
39
2
10
119.030792
20
764.582199
11
119.245049
21
759.493914
0
LINE
8
boundary
62
5
39
2
10
119.245049
20
759.493914
11
120.024021
21
752.256828
0
LINE
8
boundary
62
5
39
2
10
120.024021
20
752.256828
11
124.575944
21
737.826422
0
LINE
8
annotation
62
1
39
211
10
134.060120
20
737.479495
11
135.481317
21
737.479495
0
LINE
8
annotation
62
1
39
211
10
135.481317
20
737.479495
11
135.481317
21
737.479495
0
LINE
8
annotation
62
1
39
211
10
135.481317
20
737.479495
11
135.736922
21
737.502424
0
LINE
8
annotation
62
1
39
211
10
135.736922
20
737.502424
11
135.977438
21
737.568509
0
LINE
8
annotation
62
1
39
211
10
135.977438
20
737.568509
11
136.198864
21
737.673691
0
LINE
8
annotation
62
1
39
211
10
136.198864
20
737.673691
11
136.397200
21
737.813915
0
LINE
8
annotation
62
1
39
211
10
136.397200
20
737.813915
11
136.568445
21
737.985125
0
LINE
8
annotation
62
1
39
211
10
136.568445
20
737.985125
11
136.708599
21
738.183263
0
LINE
8
annotation
62
1
39
211
10
136.708599
20
738.183263
11
136.813662
21
738.404273
0
LINE
8
annotation
62
1
39
211
10
136.813662
20
738.404273
11
136.879634
21
738.644099
0
LINE
8
annotation
62
1
39
211
10
136.879634
20
738.644099
11
136.902513
21
738.898685
0
LINE
8
annotation
62
1
39
211
10
136.902513
20
738.898685
11
136.902513
21
739.610286
0
LINE
8
annotation
62
1
39
211
10
136.902513
20
739.610286
11
136.902513
21
739.610286
0
LINE
8
annotation
62
1
39
211
10
136.902513
20
739.610286
11
136.879634
21
739.864766
0
LINE
8
annotation
62
1
39
211
10
136.879634
20
739.864766
11
136.813662
21
740.104536
0
LINE
8
annotation
62
1
39
211
10
136.813662
20
740.104536
11
136.708599
21
740.325530
0
LINE
8
annotation
62
1
39
211
10
136.708599
20
740.325530
11
136.568445
21
740.523681
0
LINE
8
annotation
62
1
39
211
10
136.568445
20
740.523681
11
136.397200
21
740.694924
0
LINE
8
annotation
62
1
39
211
10
136.397200
20
740.694924
11
136.198864
21
740.835191
0
LINE
8
annotation
62
1
39
211
10
136.198864
20
740.835191
11
135.977438
21
740.940416
0
LINE
8
annotation
62
1
39
211
10
135.977438
20
740.940416
11
135.736922
21
741.006533
0
LINE
8
annotation
62
1
39
211
10
135.736922
20
741.006533
11
135.481317
21
741.029476
0
LINE
8
annotation
62
1
39
211
10
135.481317
20
741.029476
11
134.769715
21
741.029476
0
LINE
8
annotation
62
1
39
211
10
134.769715
20
741.029476
11
135.481317
21
741.029476
0
LINE
8
annotation
62
1
39
211
10
135.481317
20
741.029476
11
135.481317
21
741.029476
0
LINE
8
annotation
62
1
39
211
10
135.481317
20
741.029476
11
135.736922
21
741.052424
0
LINE
8
annotation
62
1
39
211
10
135.736922
20
741.052424
11
135.977438
21
741.118580
0
LINE
8
annotation
62
1
39
211
10
135.977438
20
741.118580
11
136.198864
21
741.223910
0
LINE
8
annotation
62
1
39
211
10
136.198864
20
741.223910
11
136.397200
21
741.364381
0
LINE
8
annotation
62
1
39
211
10
136.397200
20
741.364381
11
136.568445
21
741.535959
0
LINE
8
annotation
62
1
39
211
10
136.568445
20
741.535959
11
136.708599
21
741.734612
0
LINE
8
annotation
62
1
39
211
10
136.708599
20
741.734612
11
136.813662
21
741.956305
0
LINE
8
annotation
62
1
39
211
10
136.813662
20
741.956305
11
136.879634
21
742.197005
0
LINE
8
annotation
62
1
39
211
10
136.879634
20
742.197005
11
136.902513
21
742.452679
0
LINE
8
annotation
62
1
39
211
10
136.902513
20
742.452679
11
136.902513
21
742.452679
0
LINE
8
annotation
62
1
39
211
10
136.902513
20
742.452679
11
136.879634
21
742.707159
0
LINE
8
annotation
62
1
39
211
10
136.879634
20
742.707159
11
136.813662
21
742.946929
0
LINE
8
annotation
62
1
39
211
10
136.813662
20
742.946929
11
136.708599
21
743.167923
0
LINE
8
annotation
62
1
39
211
10
136.708599
20
743.167923
11
136.568445
21
743.366074
0
LINE
8
annotation
62
1
39
211
10
136.568445
20
743.366074
11
136.397200
21
743.537317
0
LINE
8
annotation
62
1
39
211
10
136.397200
20
743.537317
11
136.198864
21
743.677584
0
LINE
8
annotation
62
1
39
211
10
136.198864
20
743.677584
11
135.977438
21
743.782809
0
LINE
8
annotation
62
1
39
211
10
135.977438
20
743.782809
11
135.736922
21
743.848927
0
LINE
8
annotation
62
1
39
211
10
135.736922
20
743.848927
11
135.481317
21
743.871869
0
LINE
8
annotation
62
1
39
211
10
135.481317
20
743.871869
11
134.060120
21
743.871869
0
LINE
8
annotation
62
1
39
211
10
139.270910
20
757.838719
11
135.717317
21
757.838719
0
LINE
8
annotation
62
1
39
211
10
135.717317
20
757.838719
11
137.136506
21
762.815917
0
LINE
8
annotation
62
1
39
211
10
138.205715
20
756.415917
11
138.205715
21
759.258310
0
LINE
8
annotation
62
1
39
211
10
138.331643
20
795.210957
11
139.752840
21
795.210957
0
LINE
8
annotation
62
1
39
211
10
139.752840
20
795.210957
11
139.752840
21
795.210957
0
LINE
8
annotation
62
1
39
211
10
139.752840
20
795.210957
11
140.007917
21
795.233892
0
LINE
8
annotation
62
1
39
211
10
140.007917
20
795.233892
11
140.248152
21
795.300011
0
LINE
8
annotation
62
1
39
211
10
140.248152
20
795.300011
11
140.469496
21
795.405287
0
LINE
8
annotation
62
1
39
211
10
140.469496
20
795.405287
11
140.667897
21
795.545695
0
LINE
8
annotation
62
1
39
211
10
140.667897
20
795.545695
11
140.839308
21
795.717206
0
LINE
8
annotation
62
1
39
211
10
140.839308
20
795.717206
11
140.979677
21
795.915795
0
LINE
8
annotation
62
1
39
211
10
140.979677
20
795.915795
11
141.084954
21
796.137435
0
LINE
8
annotation
62
1
39
211
10
141.084954
20
796.137435
11
141.151091
21
796.378099
0
LINE
8
annotation
62
1
39
211
10
141.151091
20
796.378099
11
141.174036
21
796.633759
0
LINE
8
annotation
62
1
39
211
10
141.174036
20
796.633759
11
141.174036
21
797.341749
0
LINE
8
annotation
62
1
39
211
10
141.174036
20
797.341749
11
141.174036
21
797.341749
0
LINE
8
annotation
62
1
39
211
10
141.174036
20
797.341749
11
141.151104
21
797.597285
0
LINE
8
annotation
62
1
39
211
10
141.151104
20
797.597285
11
141.085001
21
797.837617
0
LINE
8
annotation
62
1
39
211
10
141.085001
20
797.837617
11
140.979766
21
798.058776
0
LINE
8
annotation
62
1
39
211
10
140.979766
20
798.058776
11
140.839440
21
798.256795
0
LINE
8
annotation
62
1
39
211
10
140.839440
20
798.256795
11
140.668063
21
798.427707
0
LINE
8
annotation
62
1
39
211
10
140.668063
20
798.427707
11
140.469674
21
798.567545
0
LINE
8
annotation
62
1
39
211
10
140.469674
20
798.567545
11
140.248314
21
798.672341
0
LINE
8
annotation
62
1
39
211
10
140.248314
20
798.672341
11
140.008023
21
798.738128
0
LINE
8
annotation
62
1
39
211
10
140.008023
20
798.738128
11
139.752840
21
798.760938
0
LINE
8
annotation
62
1
39
211
10
139.752840
20
798.760938
11
138.331643
21
798.760938
0
LINE
8
annotation
62
1
39
211
10
138.331643
20
798.760938
11
138.331643
21
801.610957
0
LINE
8
annotation
62
1
39
211
10
138.331643
20
801.610957
11
141.174036
21
801.610957
0
LINE
8
annotation
62
1
39
211
10
141.080492
20
826.830576
11
141.080492
21
826.830576
0
LINE
8
annotation
62
1
39
211
10
141.080492
20
826.830576
11
140.673355
21
826.677924
0
LINE
8
annotation
62
1
39
211
10
140.673355
20
826.677924
11
140.299753
21
826.472244
0
LINE
8
annotation
62
1
39
211
10
140.299753
20
826.472244
11
139.963522
21
826.218689
0
LINE
8
annotation
62
1
39
211
10
139.963522
20
826.218689
11
139.668497
21
825.922411
0
LINE
8
annotation
62
1
39
211
10
139.668497
20
825.922411
11
139.418513
21
825.588565
0
LINE
8
annotation
62
1
39
211
10
139.418513
20
825.588565
11
139.217404
21
825.222304
0
LINE
8
annotation
62
1
39
211
10
139.217404
20
825.222304
11
139.069007
21
824.828780
0
LINE
8
annotation
62
1
39
211
10
139.069007
20
824.828780
11
138.977156
21
824.413146
0
LINE
8
annotation
62
1
39
211
10
138.977156
20
824.413146
11
138.945687
21
823.980557
0
LINE
8
annotation
62
1
39
211
10
138.945687
20
823.980557
11
138.945687
21
821.853378
0
LINE
8
annotation
62
1
39
211
10
138.945687
20
821.853378
11
138.945687
21
821.853378
0
LINE
8
annotation
62
1
39
211
10
138.945687
20
821.853378
11
138.968633
21
821.597717
0
LINE
8
annotation
62
1
39
211
10
138.968633
20
821.597717
11
139.034769
21
821.357054
0
LINE
8
annotation
62
1
39
211
10
139.034769
20
821.357054
11
139.140047
21
821.135414
0
LINE
8
annotation
62
1
39
211
10
139.140047
20
821.135414
11
139.280416
21
820.936825
0
LINE
8
annotation
62
1
39
211
10
139.280416
20
820.936825
11
139.451826
21
820.765313
0
LINE
8
annotation
62
1
39
211
10
139.451826
20
820.765313
11
139.650228
21
820.624906
0
LINE
8
annotation
62
1
39
211
10
139.650228
20
820.624906
11
139.871571
21
820.519629
0
LINE
8
annotation
62
1
39
211
10
139.871571
20
820.519629
11
140.111807
21
820.453510
0
LINE
8
annotation
62
1
39
211
10
140.111807
20
820.453510
11
140.366884
21
820.430576
0
LINE
8
annotation
62
1
39
211
10
140.366884
20
820.430576
11
140.366884
21
820.430576
0
LINE
8
annotation
62
1
39
211
10
140.366884
20
820.430576
11
140.622489
21
820.453510
0
LINE
8
annotation
62
1
39
211
10
140.622489
20
820.453510
11
140.863005
21
820.519629
0
LINE
8
annotation
62
1
39
211
10
140.863005
20
820.519629
11
141.084431
21
820.624906
0
LINE
8
annotation
62
1
39
211
10
141.084431
20
820.624906
11
141.282767
21
820.765313
0
LINE
8
annotation
62
1
39
211
10
141.282767
20
820.765313
11
141.454012
21
820.936825
0
LINE
8
annotation
62
1
39
211
10
141.454012
20
820.936825
11
141.594166
21
821.135414
0
LINE
8
annotation
62
1
39
211
10
141.594166
20
821.135414
11
141.699229
21
821.357054
0
LINE
8
annotation
62
1
39
211
10
141.699229
20
821.357054
11
141.765201
21
821.597717
0
LINE
8
annotation
62
1
39
211
10
141.765201
20
821.597717
11
141.788080
21
821.853378
0
LINE
8
annotation
62
1
39
211
10
141.788080
20
821.853378
11
141.788080
21
822.561367
0
LINE
8
annotation
62
1
39
211
10
141.788080
20
822.561367
11
141.788080
21
822.561367
0
LINE
8
annotation
62
1
39
211
10
141.788080
20
822.561367
11
141.765201
21
822.816904
0
LINE
8
annotation
62
1
39
211
10
141.765201
20
822.816904
11
141.699229
21
823.057236
0
LINE
8
annotation
62
1
39
211
10
141.699229
20
823.057236
11
141.594166
21
823.278395
0
LINE
8
annotation
62
1
39
211
10
141.594166
20
823.278395
11
141.454012
21
823.476414
0
LINE
8
annotation
62
1
39
211
10
141.454012
20
823.476414
11
141.282767
21
823.647326
0
LINE
8
annotation
62
1
39
211
10
141.282767
20
823.647326
11
141.084431
21
823.787164
0
LINE
8
annotation
62
1
39
211
10
141.084431
20
823.787164
11
140.863005
21
823.891960
0
LINE
8
annotation
62
1
39
211
10
140.863005
20
823.891960
11
140.622489
21
823.957747
0
LINE
8
annotation
62
1
39
211
10
140.622489
20
823.957747
11
140.366884
21
823.980557
0
LINE
8
annotation
62
1
39
211
10
140.366884
20
823.980557
11
138.945687
21
823.980557
0
LINE
8
annotation
62
1
39
211
10
138.767686
20
819.630576
11
141.967686
21
819.630576
0
LINE
8
annotation
62
1
39
211
10
138.609061
20
841.024841
11
140.031863
21
847.424841
0
LINE
8
annotation
62
1
39
211
10
140.031863
20
847.424841
11
137.185858
21
847.424841
0
LINE
8
annotation
62
1
39
211
10
140.031863
20
844.574822
11
138.609061
21
844.574822
0
LINE
8
annotation
62
1
39
211
10
134.943983
20
770.572965
11
126.868826
21
770.572965
0
LINE
8
annotation
62
1
39
211
10
126.868826
20
770.572965
11
134.943983
21
785.116275
0
LINE
8
annotation
62
1
39
211
10
134.943983
20
785.116275
11
126.868826
21
785.116275
0
LINE
8
annotation
62
1
39
211
10
148.351126
20
777.844620
11
140.399093
21
777.844620
0
LINE
8
annotation
62
1
39
211
10
160.263629
20
770.572846
11
153.804597
21
770.572846
0
LINE
8
annotation
62
1
39
211
10
153.804597
20
770.572846
11
159.772954
21
780.181135
0
LINE
8
annotation
62
1
39
211
10
159.772954
20
780.181135
11
159.772954
21
780.181135
0
LINE
8
annotation
62
1
39
211
10
159.772954
20
780.181135
11
159.780089
21
780.189964
0
LINE
8
annotation
62
1
39
211
10
159.780089
20
780.189964
11
159.786931
21
780.198868
0
LINE
8
annotation
62
1
39
211
10
159.786931
20
780.198868
11
159.793526
21
780.207922
0
LINE
8
annotation
62
1
39
211
10
159.793526
20
780.207922
11
159.799918
21
780.217201
0
LINE
8
annotation
62
1
39
211
10
159.799918
20
780.217201
11
159.806152
21
780.226781
0
LINE
8
annotation
62
1
39
211
10
159.806152
20
780.226781
11
159.812273
21
780.236735
0
LINE
8
annotation
62
1
39
211
10
159.812273
20
780.236735
11
159.818327
21
780.247141
0
LINE
8
annotation
62
1
39
211
10
159.818327
20
780.247141
11
159.824359
21
780.258071
0
LINE
8
annotation
62
1
39
211
10
159.824359
20
780.258071
11
159.830413
21
780.269603
0
LINE
8
annotation
62
1
39
211
10
159.830413
20
780.269603
11
159.830413
21
780.269603
0
LINE
8
annotation
62
1
39
211
10
159.830413
20
780.269603
11
160.076845
21
780.798713
0
LINE
8
annotation
62
1
39
211
10
160.076845
20
780.798713
11
160.220806
21
781.347183
0
LINE
8
annotation
62
1
39
211
10
160.220806
20
781.347183
11
160.265825
21
781.902618
0
LINE
8
annotation
62
1
39
211
10
160.265825
20
781.902618
11
160.215429
21
782.452627
0
LINE
8
annotation
62
1
39
211
10
160.215429
20
782.452627
11
160.073147
21
782.984815
0
LINE
8
annotation
62
1
39
211
10
160.073147
20
782.984815
11
159.842506
21
783.486789
0
LINE
8
annotation
62
1
39
211
10
159.842506
20
783.486789
11
159.527034
21
783.946157
0
LINE
8
annotation
62
1
39
211
10
159.527034
20
783.946157
11
159.130260
21
784.350525
0
LINE
8
annotation
62
1
39
211
10
159.130260
20
784.350525
11
158.655712
21
784.687500
0
LINE
8
annotation
62
1
39
211
10
158.655712
20
784.687500
11
158.655712
21
784.687500
0
LINE
8
annotation
62
1
39
211
10
158.655712
20
784.687500
11
158.125130
21
784.930430
0
LINE
8
annotation
62
1
39
211
10
158.125130
20
784.930430
11
157.575820
21
785.072174
0
LINE
8
annotation
62
1
39
211
10
157.575820
20
785.072174
11
157.020061
21
785.115920
0
LINE
8
annotation
62
1
39
211
10
157.020061
20
785.115920
11
156.470135
21
785.064860
0
LINE
8
annotation
62
1
39
211
10
156.470135
20
785.064860
11
155.938323
21
784.922183
0
LINE
8
annotation
62
1
39
211
10
155.938323
20
784.922183
11
155.436904
21
784.691081
0
LINE
8
annotation
62
1
39
211
10
155.436904
20
784.691081
11
154.978159
21
784.374742
0
LINE
8
annotation
62
1
39
211
10
154.978159
20
784.374742
11
154.574369
21
783.976358
0
LINE
8
annotation
62
1
39
211
10
154.574369
20
783.976358
11
154.237814
21
783.499119
0
LINE
8
annotation
62
1
39
211
10
154.237814
20
783.499119
11
153.813718
21
782.685583
0
LINE
8
boundary
62
5
39
2
10
181.360883
20
736.276509
11
181.443905
21
735.761133
0
LINE
8
boundary
62
5
39
2
10
181.443905
20
735.761133
11
182.182811
21
730.381612
0
LINE
8
boundary
62
5
39
2
10
182.182811
20
730.381612
11
182.846960
21
729.699136
0
LINE
8
boundary
62
5
39
2
10
182.846960
20
729.699136
11
185.790623
21
725.884269
0
LINE
8
boundary
62
5
39
2
10
185.790623
20
725.884269
11
187.219149
21
725.714895
0
LINE
8
boundary
62
5
39
2
10
187.219149
20
725.714895
11
190.794801
21
725.249680
0
LINE
8
boundary
62
5
39
2
10
190.794801
20
725.249680
11
193.877694
21
725.934746
0
LINE
8
boundary
62
5
39
2
10
193.877694
20
725.934746
11
195.442069
21
726.332654
0
LINE
8
boundary
62
5
39
2
10
195.442069
20
726.332654
11
196.902614
21
728.788002
0
LINE
8
boundary
62
5
39
2
10
196.902614
20
728.788002
11
198.688963
21
731.104379
0
LINE
8
boundary
62
5
39
2
10
198.688963
20
731.104379
11
201.064520
21
734.113162
0
LINE
8
boundary
62
5
39
2
10
201.064520
20
734.113162
11
202.725090
21
735.993377
0
LINE
8
boundary
62
5
39
2
10
202.725090
20
735.993377
11
201.919312
21
739.801541
0
LINE
8
boundary
62
5
39
2
10
201.919312
20
739.801541
11
201.349007
21
743.817255
0
LINE
8
boundary
62
5
39
2
10
201.349007
20
743.817255
11
200.153000
21
745.659924
0
LINE
8
boundary
62
5
39
2
10
200.153000
20
745.659924
11
198.364233
21
747.856819
0
LINE
8
boundary
62
5
39
2
10
198.364233
20
747.856819
11
194.537920
21
749.545646
0
LINE
8
boundary
62
5
39
2
10
194.537920
20
749.545646
11
192.340578
21
750.234301
0
LINE
8
boundary
62
5
39
2
10
192.340578
20
750.234301
11
187.506921
21
748.323861
0
LINE
8
boundary
62
5
39
2
10
187.506921
20
748.323861
11
185.571623
21
747.439815
0
LINE
8
boundary
62
5
39
2
10
185.571623
20
747.439815
11
182.910391
21
743.517237
0
LINE
8
boundary
62
5
39
2
10
182.910391
20
743.517237
11
182.394074
21
742.747762
0
LINE
8
boundary
62
5
39
2
10
182.394074
20
742.747762
11
182.219146
21
741.869945
0
LINE
8
boundary
62
5
39
2
10
182.219146
20
741.869945
11
182.091807
21
741.040059
0
LINE
8
boundary
62
5
39
2
10
182.091807
20
741.040059
11
191.862262
21
740.840059
0
LINE
8
boundary
62
5
39
2
10
191.862262
20
740.840059
11
191.862262
21
737.094059
0
LINE
8
boundary
62
5
39
2
10
191.862262
20
737.094059
11
181.515941
21
737.094059
0
LINE
8
boundary
62
5
39
2
10
181.515941
20
737.094059
11
181.360883
21
736.276509
0
LINE
8
annotation
62
1
39
211
10
200.700061
20
735.767059
11
200.700061
21
742.167059
0
LINE
8
annotation
62
1
39
211
10
200.700061
20
742.167059
11
199.277259
21
740.743856
0
LINE
8
annotation
62
1
39
211
10
186.891072
20
734.015871
11
185.991084
21
732.714121
0
LINE
8
annotation
62
1
39
211
10
185.991084
20
732.714121
11
185.090927
21
734.015871
0
LINE
8
annotation
62
1
39
211
10
185.991084
20
732.818877
11
185.991084
21
731.317093
0
LINE
8
annotation
62
1
39
211
10
189.378942
20
732.666482
11
187.903389
21
732.666482
0
LINE
8
annotation
62
1
39
211
10
190.990686
20
731.317177
11
190.990686
21
734.015786
0
LINE
8
annotation
62
1
39
211
10
190.990686
20
734.015786
11
190.390751
21
733.415682
0
LINE
8
annotation
62
1
39
211
10
193.478387
20
732.666482
11
192.002834
21
732.666482
0
LINE
8
annotation
62
1
39
211
10
195.090132
20
731.317177
11
195.090132
21
734.015786
0
LINE
8
annotation
62
1
39
211
10
195.090132
20
734.015786
11
194.490196
21
733.415682
0
LINE
8
boundary
62
5
39
2
10
124.577999
20
884.213095
11
129.342526
21
879.151026
0
LINE
8
boundary
62
5
39
2
10
129.342526
20
879.151026
11
131.639070
21
875.893896
0
LINE
8
boundary
62
5
39
2
10
131.639070
20
875.893896
11
135.659112
21
871.132818
0
LINE
8
boundary
62
5
39
2
10
135.659112
20
871.132818
11
138.098472
21
869.081905
0
LINE
8
boundary
62
5
39
2
10
138.098472
20
869.081905
11
143.827623
21
866.481840
0
LINE
8
boundary
62
5
39
2
10
143.827623
20
866.481840
11
147.073344
21
865.335663
0
LINE
8
boundary
62
5
39
2
10
147.073344
20
865.335663
11
152.471790
21
863.818593
0
LINE
8
boundary
62
5
39
2
10
152.471790
20
863.818593
11
155.915519
21
863.109887
0
LINE
8
boundary
62
5
39
2
10
155.915519
20
863.109887
11
159.652353
21
863.125069
0
LINE
8
boundary
62
5
39
2
10
159.652353
20
863.125069
11
164.544757
21
863.071496
0
LINE
8
boundary
62
5
39
2
10
164.544757
20
863.071496
11
169.752210
21
864.450712
0
LINE
8
boundary
62
5
39
2
10
169.752210
20
864.450712
11
174.346843
21
865.877172
0
LINE
8
boundary
62
5
39
2
10
174.346843
20
865.877172
11
178.947484
21
869.811056
0
LINE
8
boundary
62
5
39
2
10
178.947484
20
869.811056
11
184.356367
21
873.998711
0
LINE
8
boundary
62
5
39
2
10
184.356367
20
873.998711
11
187.775008
21
879.906018
0
LINE
8
boundary
62
5
39
2
10
187.775008
20
879.906018
11
190.126480
21
883.457046
0
LINE
8
boundary
62
5
39
2
10
190.126480
20
883.457046
11
157.740272
21
883.657046
0
LINE
8
boundary
62
5
39
2
10
157.740272
20
883.657046
11
157.740272
21
887.403046
0
LINE
8
boundary
62
5
39
2
10
157.740272
20
887.403046
11
192.739500
21
887.403046
0
LINE
8
boundary
62
5
39
2
10
192.739500
20
887.403046
11
194.371460
21
894.585247
0
LINE
8
boundary
62
5
39
2
10
194.371460
20
894.585247
11
196.366590
21
905.383825
0
LINE
8
boundary
62
5
39
2
10
196.366590
20
905.383825
11
196.015701
21
908.676664
0
LINE
8
boundary
62
5
39
2
10
196.015701
20
908.676664
11
156.834920
21
908.876664
0
LINE
8
boundary
62
5
39
2
10
156.834920
20
908.876664
11
156.834920
21
912.622664
0
LINE
8
boundary
62
5
39
2
10
156.834920
20
912.622664
11
195.513599
21
912.622664
0
LINE
8
boundary
62
5
39
2
10
195.513599
20
912.622664
11
195.107013
21
917.204066
0
LINE
8
boundary
62
5
39
2
10
195.107013
20
917.204066
11
194.339335
21
923.784220
0
LINE
8
boundary
62
5
39
2
10
194.339335
20
923.784220
11
191.841756
21
928.260933
0
LINE
8
boundary
62
5
39
2
10
191.841756
20
928.260933
11
191.447007
21
929.270930
0
LINE
8
boundary
62
5
39
2
10
191.447007
20
929.270930
11
156.601886
21
929.470930
0
LINE
8
boundary
62
5
39
2
10
156.601886
20
929.470930
11
156.601886
21
933.216930
0
LINE
8
boundary
62
5
39
2
10
156.601886
20
933.216930
11
189.766275
21
933.216930
0
LINE
8
boundary
62
5
39
2
10
189.766275
20
933.216930
11
188.466463
21
936.896879
0
LINE
8
boundary
62
5
39
2
10
188.466463
20
936.896879
11
185.265129
21
939.635585
0
LINE
8
boundary
62
5
39
2
10
185.265129
20
939.635585
11
177.202495
21
949.056457
0
LINE
8
boundary
62
5
39
2
10
177.202495
20
949.056457
11
173.048813
21
950.509385
0
LINE
8
boundary
62
5
39
2
10
173.048813
20
950.509385
11
163.681126
21
954.349221
0
LINE
8
boundary
62
5
39
2
10
163.681126
20
954.349221
11
158.736479
21
953.885854
0
LINE
8
boundary
62
5
39
2
10
158.736479
20
953.885854
11
149.836308
21
953.776697
0
LINE
8
boundary
62
5
39
2
10
149.836308
20
953.776697
11
144.742035
21
951.661360
0
LINE
8
boundary
62
5
39
2
10
144.742035
20
951.661360
11
138.402188
21
949.138148
0
LINE
8
boundary
62
5
39
2
10
138.402188
20
949.138148
11
133.325232
21
945.082693
0
LINE
8
boundary
62
5
39
2
10
133.325232
20
945.082693
11
129.036273
21
940.719112
0
LINE
8
boundary
62
5
39
2
10
129.036273
20
940.719112
11
123.812666
21
932.980610
0
LINE
8
boundary
62
5
39
2
10
123.812666
20
932.980610
11
120.226462
21
927.835013
0
LINE
8
boundary
62
5
39
2
10
120.226462
20
927.835013
11
118.793494
21
916.933978
0
LINE
8
boundary
62
5
39
2
10
118.793494
20
916.933978
11
117.367585
21
910.138398
0
LINE
8
boundary
62
5
39
2
10
117.367585
20
910.138398
11
118.496686
21
901.690609
0
LINE
8
boundary
62
5
39
2
10
118.496686
20
901.690609
11
119.546544
21
895.888473
0
LINE
8
boundary
62
5
39
2
10
119.546544
20
895.888473
11
123.038522
21
887.898876
0
LINE
8
boundary
62
5
39
2
10
123.038522
20
887.898876
11
124.577999
21
884.213095
0
LINE
8
annotation
62
1
39
211
10
148.191272
20
882.330046
11
149.612469
21
882.330046
0
LINE
8
annotation
62
1
39
211
10
149.612469
20
882.330046
11
149.612469
21
882.330046
0
LINE
8
annotation
62
1
39
211
10
149.612469
20
882.330046
11
149.867546
21
882.352980
0
LINE
8
annotation
62
1
39
211
10
149.867546
20
882.352980
11
150.107781
21
882.419099
0
LINE
8
annotation
62
1
39
211
10
150.107781
20
882.419099
11
150.329125
21
882.524376
0
LINE
8
annotation
62
1
39
211
10
150.329125
20
882.524376
11
150.527527
21
882.664783
0
LINE
8
annotation
62
1
39
211
10
150.527527
20
882.664783
11
150.698937
21
882.836295
0
LINE
8
annotation
62
1
39
211
10
150.698937
20
882.836295
11
150.839306
21
883.034884
0
LINE
8
annotation
62
1
39
211
10
150.839306
20
883.034884
11
150.944584
21
883.256523
0
LINE
8
annotation
62
1
39
211
10
150.944584
20
883.256523
11
151.010720
21
883.497187
0
LINE
8
annotation
62
1
39
211
10
151.010720
20
883.497187
11
151.033666
21
883.752848
0
LINE
8
annotation
62
1
39
211
10
151.033666
20
883.752848
11
151.033666
21
884.460837
0
LINE
8
annotation
62
1
39
211
10
151.033666
20
884.460837
11
151.033666
21
884.460837
0
LINE
8
annotation
62
1
39
211
10
151.033666
20
884.460837
11
151.010733
21
884.716374
0
LINE
8
annotation
62
1
39
211
10
151.010733
20
884.716374
11
150.944630
21
884.956705
0
LINE
8
annotation
62
1
39
211
10
150.944630
20
884.956705
11
150.839395
21
885.177864
0
LINE
8
annotation
62
1
39
211
10
150.839395
20
885.177864
11
150.699069
21
885.375884
0
LINE
8
annotation
62
1
39
211
10
150.699069
20
885.375884
11
150.527692
21
885.546796
0
LINE
8
annotation
62
1
39
211
10
150.527692
20
885.546796
11
150.329303
21
885.686633
0
LINE
8
annotation
62
1
39
211
10
150.329303
20
885.686633
11
150.107943
21
885.791429
0
LINE
8
annotation
62
1
39
211
10
150.107943
20
885.791429
11
149.867652
21
885.857216
0
LINE
8
annotation
62
1
39
211
10
149.867652
20
885.857216
11
149.612469
21
885.880027
0
LINE
8
annotation
62
1
39
211
10
149.612469
20
885.880027
11
148.191272
21
885.880027
0
LINE
8
annotation
62
1
39
211
10
148.191272
20
885.880027
11
148.191272
21
888.730046
0
LINE
8
annotation
62
1
39
211
10
148.191272
20
888.730046
11
151.033666
21
888.730046
0
LINE
8
annotation
62
1
39
211
10
149.420726
20
913.949664
11
149.420726
21
913.949664
0
LINE
8
annotation
62
1
39
211
10
149.420726
20
913.949664
11
149.013588
21
913.797012
0
LINE
8
annotation
62
1
39
211
10
149.013588
20
913.797012
11
148.639987
21
913.591332
0
LINE
8
annotation
62
1
39
211
10
148.639987
20
913.591332
11
148.303756
21
913.337777
0
LINE
8
annotation
62
1
39
211
10
148.303756
20
913.337777
11
148.008730
21
913.041500
0
LINE
8
annotation
62
1
39
211
10
148.008730
20
913.041500
11
147.758746
21
912.707654
0
LINE
8
annotation
62
1
39
211
10
147.758746
20
912.707654
11
147.557638
21
912.341392
0
LINE
8
annotation
62
1
39
211
10
147.557638
20
912.341392
11
147.409240
21
911.947868
0
LINE
8
annotation
62
1
39
211
10
147.409240
20
911.947868
11
147.317390
21
911.532235
0
LINE
8
annotation
62
1
39
211
10
147.317390
20
911.532235
11
147.285921
21
911.099645
0
LINE
8
annotation
62
1
39
211
10
147.285921
20
911.099645
11
147.285921
21
908.972466
0
LINE
8
annotation
62
1
39
211
10
147.285921
20
908.972466
11
147.285921
21
908.972466
0
LINE
8
annotation
62
1
39
211
10
147.285921
20
908.972466
11
147.308866
21
908.716806
0
LINE
8
annotation
62
1
39
211
10
147.308866
20
908.716806
11
147.375003
21
908.476142
0
LINE
8
annotation
62
1
39
211
10
147.375003
20
908.476142
11
147.480280
21
908.254502
0
LINE
8
annotation
62
1
39
211
10
147.480280
20
908.254502
11
147.620649
21
908.055913
0
LINE
8
annotation
62
1
39
211
10
147.620649
20
908.055913
11
147.792059
21
907.884402
0
LINE
8
annotation
62
1
39
211
10
147.792059
20
907.884402
11
147.990461
21
907.743994
0
LINE
8
annotation
62
1
39
211
10
147.990461
20
907.743994
11
148.211805
21
907.638718
0
LINE
8
annotation
62
1
39
211
10
148.211805
20
907.638718
11
148.452040
21
907.572599
0
LINE
8
annotation
62
1
39
211
10
148.452040
20
907.572599
11
148.707117
21
907.549664
0
LINE
8
annotation
62
1
39
211
10
148.707117
20
907.549664
11
148.707117
21
907.549664
0
LINE
8
annotation
62
1
39
211
10
148.707117
20
907.549664
11
148.962723
21
907.572599
0
LINE
8
annotation
62
1
39
211
10
148.962723
20
907.572599
11
149.203239
21
907.638718
0
LINE
8
annotation
62
1
39
211
10
149.203239
20
907.638718
11
149.424665
21
907.743994
0
LINE
8
annotation
62
1
39
211
10
149.424665
20
907.743994
11
149.623001
21
907.884402
0
LINE
8
annotation
62
1
39
211
10
149.623001
20
907.884402
11
149.794246
21
908.055913
0
LINE
8
annotation
62
1
39
211
10
149.794246
20
908.055913
11
149.934400
21
908.254502
0
LINE
8
annotation
62
1
39
211
10
149.934400
20
908.254502
11
150.039463
21
908.476142
0
LINE
8
annotation
62
1
39
211
10
150.039463
20
908.476142
11
150.105434
21
908.716806
0
LINE
8
annotation
62
1
39
211
10
150.105434
20
908.716806
11
150.128314
21
908.972466
0
LINE
8
annotation
62
1
39
211
10
150.128314
20
908.972466
11
150.128314
21
909.680456
0
LINE
8
annotation
62
1
39
211
10
150.128314
20
909.680456
11
150.128314
21
909.680456
0
LINE
8
annotation
62
1
39
211
10
150.128314
20
909.680456
11
150.105434
21
909.935993
0
LINE
8
annotation
62
1
39
211
10
150.105434
20
909.935993
11
150.039463
21
910.176324
0
LINE
8
annotation
62
1
39
211
10
150.039463
20
910.176324
11
149.934400
21
910.397483
0
LINE
8
annotation
62
1
39
211
10
149.934400
20
910.397483
11
149.794246
21
910.595502
0
LINE
8
annotation
62
1
39
211
10
149.794246
20
910.595502
11
149.623001
21
910.766414
0
LINE
8
annotation
62
1
39
211
10
149.623001
20
910.766414
11
149.424665
21
910.906252
0
LINE
8
annotation
62
1
39
211
10
149.424665
20
910.906252
11
149.203239
21
911.011048
0
LINE
8
annotation
62
1
39
211
10
149.203239
20
911.011048
11
148.962723
21
911.076835
0
LINE
8
annotation
62
1
39
211
10
148.962723
20
911.076835
11
148.707117
21
911.099645
0
LINE
8
annotation
62
1
39
211
10
148.707117
20
911.099645
11
147.285921
21
911.099645
0
LINE
8
annotation
62
1
39
211
10
147.107920
20
906.749664
11
150.307920
21
906.749664
0
LINE
8
annotation
62
1
39
211
10
148.474084
20
928.143930
11
149.896885
21
934.543930
0
LINE
8
annotation
62
1
39
211
10
149.896885
20
934.543930
11
147.050880
21
934.543930
0
LINE
8
annotation
62
1
39
211
10
149.896885
20
931.693911
11
148.474084
21
931.693911
0
LINE
8
annotation
62
1
39
211
10
132.475738
20
905.207225
11
127.001550
21
905.207225
0
LINE
8
annotation
62
1
39
211
10
127.001550
20
905.207225
11
132.475738
21
915.066205
0
LINE
8
annotation
62
1
39
211
10
132.475738
20
915.066205
11
127.001550
21
915.066205
0
LINE
8
annotation
62
1
39
211
10
141.564505
20
910.136715
11
136.173783
21
910.136715
0
LINE
8
annotation
62
1
39
211
10
147.452782
20
905.207225
11
149.644559
21
915.066205
0
LINE
8
annotation
62
1
39
211
10
149.644559
20
915.066205
11
145.260386
21
915.066205
0
LINE
8
annotation
62
1
39
211
10
149.644559
20
910.675849
11
147.452782
21
910.675849
0
LINE
8
boundary
62
5
39
2
10
199.599579
20
873.430162
11
200.562489
21
870.100244
0
LINE
8
boundary
62
5
39
2
10
200.562489
20
870.100244
11
202.193834
21
865.716437
0
LINE
8
boundary
62
5
39
2
10
202.193834
20
865.716437
11
203.141874
21
865.376190
0
LINE
8
boundary
62
5
39
2
10
203.141874
20
865.376190
11
205.491865
21
863.215624
0
LINE
8
boundary
62
5
39
2
10
205.491865
20
863.215624
11
207.621404
21
863.071496
0
LINE
8
boundary
62
5
39
2
10
207.621404
20
863.071496
11
208.255852
21
863.099329
0
LINE
8
boundary
62
5
39
2
10
208.255852
20
863.099329
11
208.850221
21
863.214032
0
LINE
8
boundary
62
5
39
2
10
208.850221
20
863.214032
11
210.837552
21
863.632034
0
LINE
8
boundary
62
5
39
2
10
210.837552
20
863.632034
11
211.703211
21
864.279966
0
LINE
8
boundary
62
5
39
2
10
211.703211
20
864.279966
11
213.841228
21
866.229873
0
LINE
8
boundary
62
5
39
2
10
213.841228
20
866.229873
11
214.405577
21
868.032073
0
LINE
8
boundary
62
5
39
2
10
214.405577
20
868.032073
11
215.468179
21
871.089691
0
LINE
8
boundary
62
5
39
2
10
215.468179
20
871.089691
11
214.937531
21
874.999916
0
LINE
8
boundary
62
5
39
2
10
214.937531
20
874.999916
11
214.562854
21
878.073932
0
LINE
8
boundary
62
5
39
2
10
214.562854
20
878.073932
11
213.942059
21
879.783673
0
LINE
8
boundary
62
5
39
2
10
213.942059
20
879.783673
11
212.497908
21
884.381531
0
LINE
8
boundary
62
5
39
2
10
212.497908
20
884.381531
11
211.522203
21
884.649178
0
LINE
8
boundary
62
5
39
2
10
211.522203
20
884.649178
11
208.354872
21
885.661590
0
LINE
8
boundary
62
5
39
2
10
208.354872
20
885.661590
11
205.592097
21
884.862741
0
LINE
8
boundary
62
5
39
2
10
205.592097
20
884.862741
11
204.601033
21
884.548282
0
LINE
8
boundary
62
5
39
2
10
204.601033
20
884.548282
11
203.835644
21
883.752555
0
LINE
8
boundary
62
5
39
2
10
203.835644
20
883.752555
11
202.090381
21
881.031227
0
LINE
8
boundary
62
5
39
2
10
202.090381
20
881.031227
11
201.050526
21
877.576162
0
LINE
8
boundary
62
5
39
2
10
201.050526
20
877.576162
11
207.206836
21
877.376162
0
LINE
8
boundary
62
5
39
2
10
207.206836
20
877.376162
11
207.206836
21
873.630162
0
LINE
8
boundary
62
5
39
2
10
207.206836
20
873.630162
11
199.659879
21
873.630162
0
LINE
8
boundary
62
5
39
2
10
199.659879
20
873.630162
11
199.599579
21
873.430162
0
LINE
8
annotation
62
1
39
211
10
213.881710
20
873.097734
11
213.881710
21
877.908590
0
LINE
8
annotation
62
1
39
211
10
213.881710
20
877.908590
11
212.812195
21
876.838773
0
LINE
8
annotation
62
1
39
211
10
206.101617
20
869.884836
11
205.559128
21
869.100176
0
LINE
8
annotation
62
1
39
211
10
205.559128
20
869.100176
11
205.016538
21
869.884836
0
LINE
8
annotation
62
1
39
211
10
205.559128
20
869.163320
11
205.559128
21
868.258084
0
LINE
8
annotation
62
1
39
211
10
207.601238
20
869.071460
11
206.711814
21
869.071460
0
LINE
8
annotation
62
1
39
211
10
208.572755
20
868.258135
11
208.572755
21
869.884785
0
LINE
8
annotation
62
1
39
211
10
208.572755
20
869.884785
11
208.211130
21
869.523058
0
LINE
8
annotation
62
1
39
211
10
210.072274
20
869.071460
11
209.182850
21
869.071460
0
LINE
8
annotation
62
1
39
211
10
211.404672
20
868.258122
11
210.682238
21
868.258122
0
LINE
8
annotation
62
1
39
211
10
210.682238
20
868.258122
11
211.349790
21
869.332796
0
LINE
8
annotation
62
1
39
211
10
211.349790
20
869.332796
11
211.349790
21
869.332796
0
LINE
8
annotation
62
1
39
211
10
211.349790
20
869.332796
11
211.350588
21
869.333783
0
LINE
8
annotation
62
1
39
211
10
211.350588
20
869.333783
11
211.351354
21
869.334779
0
LINE
8
annotation
62
1
39
211
10
211.351354
20
869.334779
11
211.352091
21
869.335792
0
LINE
8
annotation
62
1
39
211
10
211.352091
20
869.335792
11
211.352806
21
869.336830
0
LINE
8
annotation
62
1
39
211
10
211.352806
20
869.336830
11
211.353503
21
869.337901
0
LINE
8
annotation
62
1
39
211
10
211.353503
20
869.337901
11
211.354188
21
869.339015
0
LINE
8
annotation
62
1
39
211
10
211.354188
20
869.339015
11
211.354865
21
869.340179
0
LINE
8
annotation
62
1
39
211
10
211.354865
20
869.340179
11
211.355540
21
869.341401
0
LINE
8
annotation
62
1
39
211
10
211.355540
20
869.341401
11
211.356217
21
869.342691
0
LINE
8
annotation
62
1
39
211
10
211.356217
20
869.342691
11
211.356217
21
869.342691
0
LINE
8
annotation
62
1
39
211
10
211.356217
20
869.342691
11
211.383780
21
869.401871
0
LINE
8
annotation
62
1
39
211
10
211.383780
20
869.401871
11
211.399882
21
869.463217
0
LINE
8
annotation
62
1
39
211
10
211.399882
20
869.463217
11
211.404917
21
869.525342
0
LINE
8
annotation
62
1
39
211
10
211.404917
20
869.525342
11
211.399280
21
869.586859
0
LINE
8
annotation
62
1
39
211
10
211.399280
20
869.586859
11
211.383366
21
869.646384
0
LINE
8
annotation
62
1
39
211
10
211.383366
20
869.646384
11
211.357569
21
869.702529
0
LINE
8
annotation
62
1
39
211
10
211.357569
20
869.702529
11
211.322284
21
869.753909
0
LINE
8
annotation
62
1
39
211
10
211.322284
20
869.753909
11
211.277906
21
869.799137
0
LINE
8
annotation
62
1
39
211
10
211.277906
20
869.799137
11
211.224828
21
869.836827
0
LINE
8
annotation
62
1
39
211
10
211.224828
20
869.836827
11
211.224828
21
869.836827
0
LINE
8
annotation
62
1
39
211
10
211.224828
20
869.836827
11
211.165483
21
869.863998
0
LINE
8
annotation
62
1
39
211
10
211.165483
20
869.863998
11
211.104044
21
869.879852
0
LINE
8
annotation
62
1
39
211
10
211.104044
20
869.879852
11
211.041883
21
869.884745
0
LINE
8
annotation
62
1
39
211
10
211.041883
20
869.884745
11
210.980374
21
869.879034
0
LINE
8
annotation
62
1
39
211
10
210.980374
20
869.879034
11
210.920892
21
869.863076
0
LINE
8
annotation
62
1
39
211
10
210.920892
20
869.863076
11
210.864809
21
869.837227
0
LINE
8
annotation
62
1
39
211
10
210.864809
20
869.837227
11
210.813499
21
869.801845
0
LINE
8
annotation
62
1
39
211
10
210.813499
20
869.801845
11
210.768336
21
869.757286
0
LINE
8
annotation
62
1
39
211
10
210.768336
20
869.757286
11
210.730692
21
869.703908
0
LINE
8
annotation
62
1
39
211
10
210.730692
20
869.703908
11
210.683258
21
869.612915
0
LINE
8
boundary
62
5
39
2
10
199.541590
20
895.591381
11
200.352037
21
892.888495
0
LINE
8
boundary
62
5
39
2
10
200.352037
20
892.888495
11
201.070981
21
891.117000
0
LINE
8
boundary
62
5
39
2
10
201.070981
20
891.117000
11
202.404324
21
890.506305
0
LINE
8
boundary
62
5
39
2
10
202.404324
20
890.506305
11
204.489415
21
889.027703
0
LINE
8
boundary
62
5
39
2
10
204.489415
20
889.027703
11
206.823466
21
888.836590
0
LINE
8
boundary
62
5
39
2
10
206.823466
20
888.836590
11
209.400702
21
889.037453
0
LINE
8
boundary
62
5
39
2
10
209.400702
20
889.037453
11
210.100960
21
889.341098
0
LINE
8
boundary
62
5
39
2
10
210.100960
20
889.341098
11
212.691763
21
890.836370
0
LINE
8
boundary
62
5
39
2
10
212.691763
20
890.836370
11
212.864088
21
891.941441
0
LINE
8
boundary
62
5
39
2
10
212.864088
20
891.941441
11
213.290109
21
894.992807
0
LINE
8
boundary
62
5
39
2
10
213.290109
20
894.992807
11
213.601797
21
896.464850
0
LINE
8
boundary
62
5
39
2
10
213.601797
20
896.464850
11
213.319754
21
898.183814
0
LINE
8
boundary
62
5
39
2
10
213.319754
20
898.183814
11
212.877655
21
901.202628
0
LINE
8
boundary
62
5
39
2
10
212.877655
20
901.202628
11
211.516725
21
903.773725
0
LINE
8
boundary
62
5
39
2
10
211.516725
20
903.773725
11
210.475801
21
905.986042
0
LINE
8
boundary
62
5
39
2
10
210.475801
20
905.986042
11
208.258557
21
907.088406
0
LINE
8
boundary
62
5
39
2
10
208.258557
20
907.088406
11
206.625407
21
907.917000
0
LINE
8
boundary
62
5
39
2
10
206.625407
20
907.917000
11
204.776880
21
907.699770
0
LINE
8
boundary
62
5
39
2
10
204.776880
20
907.699770
11
203.318012
21
907.546138
0
LINE
8
boundary
62
5
39
2
10
203.318012
20
907.546138
11
200.572469
21
904.430241
0
LINE
8
boundary
62
5
39
2
10
200.572469
20
904.430241
11
200.371626
21
902.076702
0
LINE
8
boundary
62
5
39
2
10
200.371626
20
902.076702
11
206.484047
21
901.876702
0
LINE
8
boundary
62
5
39
2
10
206.484047
20
901.876702
11
206.484047
21
898.130702
0
LINE
8
boundary
62
5
39
2
10
206.484047
20
898.130702
11
200.057849
21
898.130702
0
LINE
8
boundary
62
5
39
2
10
200.057849
20
898.130702
11
199.541590
21
895.591381
0
LINE
8
annotation
62
1
39
211
10
211.812736
20
898.092809
11
211.812736
21
901.914595
0
LINE
8
annotation
62
1
39
211
10
211.812736
20
901.914595
11
210.963104
21
901.064723
0
LINE
8
annotation
62
1
39
211
10
204.197650
20
895.531209
11
203.510342
21
894.537080
0
LINE
8
annotation
62
1
39
211
10
203.510342
20
894.537080
11
202.822905
21
895.531209
0
LINE
8
annotation
62
1
39
211
10
203.510342
20
894.617081
11
203.510342
21
893.470189
0
LINE
8
annotation
62
1
39
211
10
206.097602
20
894.500699
11
204.970743
21
894.500699
0
LINE
8
annotation
62
1
39
211
10
207.328469
20
893.470254
11
207.328469
21
895.531144
0
LINE
8
annotation
62
1
39
211
10
207.328469
20
895.531144
11
206.870307
21
895.072852
0
LINE
8
annotation
62
1
39
211
10
209.228292
20
894.500699
11
208.101433
21
894.500699
0
LINE
8
annotation
62
1
39
211
10
210.000932
20
893.470318
11
210.458577
21
893.470318
0
LINE
8
annotation
62
1
39
211
10
210.458577
20
893.470318
11
210.458577
21
893.470318
0
LINE
8
annotation
62
1
39
211
10
210.458577
20
893.470318
11
210.540886
21
893.477702
0
LINE
8
annotation
62
1
39
211
10
210.540886
20
893.477702
11
210.618336
21
893.498982
0
LINE
8
annotation
62
1
39
211
10
210.618336
20
893.498982
11
210.689638
21
893.532852
0
LINE
8
annotation
62
1
39
211
10
210.689638
20
893.532852
11
210.753505
21
893.578006
0
LINE
8
annotation
62
1
39
211
10
210.753505
20
893.578006
11
210.808648
21
893.633138
0
LINE
8
annotation
62
1
39
211
10
210.808648
20
893.633138
11
210.853780
21
893.696941
0
LINE
8
annotation
62
1
39
211
10
210.853780
20
893.696941
11
210.887612
21
893.768110
0
LINE
8
annotation
62
1
39
211
10
210.887612
20
893.768110
11
210.908855
21
893.845337
0
LINE
8
annotation
62
1
39
211
10
210.908855
20
893.845337
11
210.916223
21
893.927317
0
LINE
8
annotation
62
1
39
211
10
210.916223
20
893.927317
11
210.916223
21
894.156463
0
LINE
8
annotation
62
1
39
211
10
210.916223
20
894.156463
11
210.916223
21
894.156463
0
LINE
8
annotation
62
1
39
211
10
210.916223
20
894.156463
11
210.908855
21
894.238409
0
LINE
8
annotation
62
1
39
211
10
210.908855
20
894.238409
11
210.887612
21
894.315618
0
LINE
8
annotation
62
1
39
211
10
210.887612
20
894.315618
11
210.853780
21
894.386782
0
LINE
8
annotation
62
1
39
211
10
210.853780
20
894.386782
11
210.808648
21
894.450589
0
LINE
8
annotation
62
1
39
211
10
210.808648
20
894.450589
11
210.753505
21
894.505732
0
LINE
8
annotation
62
1
39
211
10
210.753505
20
894.505732
11
210.689638
21
894.550900
0
LINE
8
annotation
62
1
39
211
10
210.689638
20
894.550900
11
210.618336
21
894.584784
0
LINE
8
annotation
62
1
39
211
10
210.618336
20
894.584784
11
210.540886
21
894.606074
0
LINE
8
annotation
62
1
39
211
10
210.540886
20
894.606074
11
210.458577
21
894.613462
0
LINE
8
annotation
62
1
39
211
10
210.458577
20
894.613462
11
210.229432
21
894.613462
0
LINE
8
annotation
62
1
39
211
10
210.229432
20
894.613462
11
210.458577
21
894.613462
0
LINE
8
annotation
62
1
39
211
10
210.458577
20
894.613462
11
210.458577
21
894.613462
0
LINE
8
annotation
62
1
39
211
10
210.458577
20
894.613462
11
210.540886
21
894.620852
0
LINE
8
annotation
62
1
39
211
10
210.540886
20
894.620852
11
210.618336
21
894.642155
0
LINE
8
annotation
62
1
39
211
10
210.618336
20
894.642155
11
210.689638
21
894.676073
0
LINE
8
annotation
62
1
39
211
10
210.689638
20
894.676073
11
210.753505
21
894.721306
0
LINE
8
annotation
62
1
39
211
10
210.753505
20
894.721306
11
210.808648
21
894.776557
0
LINE
8
annotation
62
1
39
211
10
210.808648
20
894.776557
11
210.853780
21
894.840526
0
LINE
8
annotation
62
1
39
211
10
210.853780
20
894.840526
11
210.887612
21
894.911914
0
LINE
8
annotation
62
1
39
211
10
210.887612
20
894.911914
11
210.908855
21
894.989423
0
LINE
8
annotation
62
1
39
211
10
210.908855
20
894.989423
11
210.916223
21
895.071754
0
LINE
8
annotation
62
1
39
211
10
210.916223
20
895.071754
11
210.916223
21
895.071754
0
LINE
8
annotation
62
1
39
211
10
210.916223
20
895.071754
11
210.908855
21
895.153700
0
LINE
8
annotation
62
1
39
211
10
210.908855
20
895.153700
11
210.887612
21
895.230909
0
LINE
8
annotation
62
1
39
211
10
210.887612
20
895.230909
11
210.853780
21
895.302072
0
LINE
8
annotation
62
1
39
211
10
210.853780
20
895.302072
11
210.808648
21
895.365880
0
LINE
8
annotation
62
1
39
211
10
210.808648
20
895.365880
11
210.753505
21
895.421022
0
LINE
8
annotation
62
1
39
211
10
210.753505
20
895.421022
11
210.689638
21
895.466190
0
LINE
8
annotation
62
1
39
211
10
210.689638
20
895.466190
11
210.618336
21
895.500074
0
LINE
8
annotation
62
1
39
211
10
210.618336
20
895.500074
11
210.540886
21
895.521365
0
LINE
8
annotation
62
1
39
211
10
210.540886
20
895.521365
11
210.458577
21
895.528753
0
LINE
8
annotation
62
1
39
211
10
210.458577
20
895.528753
11
210.000932
21
895.528753
0
LINE
8
boundary
62
5
39
2
10
201.183867
20
913.416659
11
201.746887
21
912.976875
0
LINE
8
boundary
62
5
39
2
10
201.746887
20
912.976875
11
203.546179
21
911.229145
0
LINE
8
boundary
62
5
39
2
10
203.546179
20
911.229145
11
207.355728
21
911.285533
0
LINE
8
boundary
62
5
39
2
10
207.355728
20
911.285533
11
210.891118
21
912.154294
0
LINE
8
boundary
62
5
39
2
10
210.891118
20
912.154294
11
211.312574
21
912.771584
0
LINE
8
boundary
62
5
39
2
10
211.312574
20
912.771584
11
212.966707
21
915.418797
0
LINE
8
boundary
62
5
39
2
10
212.966707
20
915.418797
11
212.944168
21
917.297598
0
LINE
8
boundary
62
5
39
2
10
212.944168
20
917.297598
11
212.902302
21
919.244698
0
LINE
8
boundary
62
5
39
2
10
212.902302
20
919.244698
11
211.741027
21
923.441656
0
LINE
8
boundary
62
5
39
2
10
211.741027
20
923.441656
11
211.429609
21
924.686670
0
LINE
8
boundary
62
5
39
2
10
211.429609
20
924.686670
11
209.342215
21
927.662282
0
LINE
8
boundary
62
5
39
2
10
209.342215
20
927.662282
11
208.795051
21
928.115939
0
LINE
8
boundary
62
5
39
2
10
208.795051
20
928.115939
11
205.654189
21
929.221215
0
LINE
8
boundary
62
5
39
2
10
205.654189
20
929.221215
11
203.762563
21
928.492111
0
LINE
8
boundary
62
5
39
2
10
203.762563
20
928.492111
11
202.703340
21
928.114223
0
LINE
8
boundary
62
5
39
2
10
202.703340
20
928.114223
11
201.169377
21
925.809963
0
LINE
8
boundary
62
5
39
2
10
201.169377
20
925.809963
11
205.928041
21
925.609963
0
LINE
8
boundary
62
5
39
2
10
205.928041
20
925.609963
11
205.928041
21
921.863963
0
LINE
8
boundary
62
5
39
2
10
205.928041
20
921.863963
11
199.997534
21
921.863963
0
LINE
8
boundary
62
5
39
2
10
199.997534
20
921.863963
11
199.541590
21
918.167599
0
LINE
8
boundary
62
5
39
2
10
199.541590
20
918.167599
11
200.333300
21
915.693906
0
LINE
8
boundary
62
5
39
2
10
200.333300
20
915.693906
11
201.183867
21
913.416659
0
LINE
8
annotation
62
1
39
211
10
211.098460
20
920.284212
11
211.098460
21
923.989713
0
LINE
8
annotation
62
1
39
211
10
211.098460
20
923.989713
11
210.274679
21
923.165701
0
LINE
8
annotation
62
1
39
211
10
203.889656
20
918.586068
11
203.236611
21
917.641499
0
LINE
8
annotation
62
1
39
211
10
203.236611
20
917.641499
11
202.583444
21
918.586068
0
LINE
8
annotation
62
1
39
211
10
203.236611
20
917.717512
11
203.236611
21
916.627795
0
LINE
8
annotation
62
1
39
211
10
205.694892
20
917.606931
11
204.624208
21
917.606931
0
LINE
8
annotation
62
1
39
211
10
206.864398
20
916.627856
11
206.864398
21
918.586007
0
LINE
8
annotation
62
1
39
211
10
206.864398
20
918.586007
11
206.429075
21
918.150562
0
LINE
8
annotation
62
1
39
211
10
208.669510
20
917.606931
11
207.598827
21
917.606931
0
LINE
8
annotation
62
1
39
211
10
210.490894
20
917.063178
11
209.403633
21
917.063178
0
LINE
8
annotation
62
1
39
211
10
209.403633
20
917.063178
11
209.837850
21
918.586007
0
LINE
8
annotation
62
1
39
211
10
210.164986
20
916.627856
11
210.164986
21
917.497518
0
LINE
8
boundary
62
5
39
2
10
223.861317
20
24.267514
11
226.275914
21
21.081798
0
LINE
8
boundary
62
5
39
2
10
226.275914
20
21.081798
11
260.513521
21
21.081798
0
LINE
8
boundary
62
5
39
2
10
260.513521
20
21.081798
11
260.513521
21
17.335798
0
LINE
8
boundary
62
5
39
2
10
260.513521
20
17.335798
11
230.319609
21
17.335798
0
LINE
8
boundary
62
5
39
2
10
230.319609
20
17.335798
11
236.398119
21
14.176276
0
LINE
8
boundary
62
5
39
2
10
236.398119
20
14.176276
11
239.280299
21
13.543827
0
LINE
8
boundary
62
5
39
2
10
239.280299
20
13.543827
11
244.050030
21
11.495169
0
LINE
8
boundary
62
5
39
2
10
244.050030
20
11.495169
11
248.464052
21
10.560723
0
LINE
8
boundary
62
5
39
2
10
248.464052
20
10.560723
11
251.794478
21
9.492147
0
LINE
8
boundary
62
5
39
2
10
251.794478
20
9.492147
11
257.698587
21
8.298768
0
LINE
8
boundary
62
5
39
2
10
257.698587
20
8.298768
11
264.891681
21
6.959834
0
LINE
8
boundary
62
5
39
2
10
264.891681
20
6.959834
11
265.962870
21
6.771022
0
LINE
8
boundary
62
5
39
2
10
265.962870
20
6.771022
11
266.834807
21
6.695401
0
LINE
8
boundary
62
5
39
2
10
266.834807
20
6.695401
11
272.197824
21
6.632721
0
LINE
8
boundary
62
5
39
2
10
272.197824
20
6.632721
11
273.112477
21
6.587500
0
LINE
8
boundary
62
5
39
2
10
273.112477
20
6.587500
11
279.256407
21
8.022429
0
LINE
8
boundary
62
5
39
2
10
279.256407
20
8.022429
11
284.821600
21
10.048562
0
LINE
8
boundary
62
5
39
2
10
284.821600
20
10.048562
11
285.950296
21
10.108201
0
LINE
8
boundary
62
5
39
2
10
285.950296
20
10.108201
11
289.649958
21
14.206513
0
LINE
8
boundary
62
5
39
2
10
289.649958
20
14.206513
11
291.021131
21
14.619347
0
LINE
8
boundary
62
5
39
2
10
291.021131
20
14.619347
11
292.445016
21
17.966692
0
LINE
8
boundary
62
5
39
2
10
292.445016
20
17.966692
11
293.080662
21
18.293982
0
LINE
8
boundary
62
5
39
2
10
293.080662
20
18.293982
11
293.533465
21
19.254982
0
LINE
8
boundary
62
5
39
2
10
293.533465
20
19.254982
11
294.423137
21
25.256920
0
LINE
8
boundary
62
5
39
2
10
294.423137
20
25.256920
11
292.144501
21
30.481811
0
LINE
8
boundary
62
5
39
2
10
292.144501
20
30.481811
11
292.046376
21
31.167551
0
LINE
8
boundary
62
5
39
2
10
292.046376
20
31.167551
11
289.091029
21
35.903230
0
LINE
8
boundary
62
5
39
2
10
289.091029
20
35.903230
11
288.700448
21
36.651359
0
LINE
8
boundary
62
5
39
2
10
288.700448
20
36.651359
11
286.424923
21
40.748981
0
LINE
8
boundary
62
5
39
2
10
286.424923
20
40.748981
11
285.720996
21
41.435308
0
LINE
8
boundary
62
5
39
2
10
285.720996
20
41.435308
11
282.596437
21
46.911244
0
LINE
8
boundary
62
5
39
2
10
282.596437
20
46.911244
11
282.000442
21
47.559068
0
LINE
8
boundary
62
5
39
2
10
282.000442
20
47.559068
11
277.971093
21
54.976700
0
LINE
8
boundary
62
5
39
2
10
277.971093
20
54.976700
11
277.495650
21
55.543682
0
LINE
8
boundary
62
5
39
2
10
277.495650
20
55.543682
11
275.747984
21
58.079550
0
LINE
8
boundary
62
5
39
2
10
275.747984
20
58.079550
11
273.770299
21
62.152417
0
LINE
8
boundary
62
5
39
2
10
273.770299
20
62.152417
11
273.054954
21
64.080825
0
LINE
8
boundary
62
5
39
2
10
273.054954
20
64.080825
11
270.741903
21
67.804215
0
LINE
8
boundary
62
5
39
2
10
270.741903
20
67.804215
11
267.901562
21
72.357704
0
LINE
8
boundary
62
5
39
2
10
267.901562
20
72.357704
11
266.653257
21
74.046518
0
LINE
8
boundary
62
5
39
2
10
266.653257
20
74.046518
11
261.553468
21
76.861536
0
LINE
8
boundary
62
5
39
2
10
261.553468
20
76.861536
11
261.094169
21
77.185618
0
LINE
8
boundary
62
5
39
2
10
261.094169
20
77.185618
11
258.649685
21
78.472276
0
LINE
8
boundary
62
5
39
2
10
258.649685
20
78.472276
11
256.068063
21
80.799468
0
LINE
8
boundary
62
5
39
2
10
256.068063
20
80.799468
11
251.834159
21
82.794489
0
LINE
8
boundary
62
5
39
2
10
251.834159
20
82.794489
11
250.693763
21
83.475242
0
LINE
8
boundary
62
5
39
2
10
250.693763
20
83.475242
11
247.031443
21
84.997644
0
LINE
8
boundary
62
5
39
2
10
247.031443
20
84.997644
11
245.588341
21
85.546502
0
LINE
8
boundary
62
5
39
2
10
245.588341
20
85.546502
11
241.435275
21
83.867517
0
LINE
8
boundary
62
5
39
2
10
241.435275
20
83.867517
11
240.623254
21
83.632162
0
LINE
8
boundary
62
5
39
2
10
240.623254
20
83.632162
11
238.306179
21
80.779530
0
LINE
8
boundary
62
5
39
2
10
238.306179
20
80.779530
11
234.551228
21
78.329041
0
LINE
8
boundary
62
5
39
2
10
234.551228
20
78.329041
11
233.642951
21
77.990317
0
LINE
8
boundary
62
5
39
2
10
233.642951
20
77.990317
11
228.599220
21
68.424696
0
LINE
8
boundary
62
5
39
2
10
228.599220
20
68.424696
11
224.483311
21
61.366120
0
LINE
8
boundary
62
5
39
2
10
224.483311
20
61.366120
11
224.153641
21
60.779636
0
LINE
8
boundary
62
5
39
2
10
224.153641
20
60.779636
11
249.651005
21
60.579636
0
LINE
8
boundary
62
5
39
2
10
249.651005
20
60.579636
11
249.651005
21
56.833636
0
LINE
8
boundary
62
5
39
2
10
249.651005
20
56.833636
11
223.067316
21
56.833636
0
LINE
8
boundary
62
5
39
2
10
223.067316
20
56.833636
11
222.800413
21
55.803598
0
LINE
8
boundary
62
5
39
2
10
222.800413
20
55.803598
11
221.983901
21
52.486508
0
LINE
8
boundary
62
5
39
2
10
221.983901
20
52.486508
11
221.316477
21
49.531296
0
LINE
8
boundary
62
5
39
2
10
221.316477
20
49.531296
11
220.382887
21
45.335103
0
LINE
8
boundary
62
5
39
2
10
220.382887
20
45.335103
11
219.788859
21
38.624447
0
LINE
8
boundary
62
5
39
2
10
219.788859
20
38.624447
11
221.011072
21
32.123203
0
LINE
8
boundary
62
5
39
2
10
221.011072
20
32.123203
11
221.195196
21
31.242408
0
LINE
8
boundary
62
5
39
2
10
221.195196
20
31.242408
11
222.433238
21
28.141078
0
LINE
8
boundary
62
5
39
2
10
222.433238
20
28.141078
11
223.861317
21
24.267514
0
LINE
8
annotation
62
1
39
211
10
269.351320
20
16.008798
11
269.351320
21
22.408798
0
LINE
8
annotation
62
1
39
211
10
269.351320
20
22.408798
11
267.928518
21
20.985594
0
LINE
8
annotation
62
1
39
211
10
259.198399
20
55.506584
11
256.356005
21
55.506584
0
LINE
8
annotation
62
1
39
211
10
256.356005
20
55.506584
11
258.982470
21
59.734854
0
LINE
8
annotation
62
1
39
211
10
258.982470
20
59.734854
11
258.982470
21
59.734854
0
LINE
8
annotation
62
1
39
211
10
258.982470
20
59.734854
11
258.985610
21
59.738739
0
LINE
8
annotation
62
1
39
211
10
258.985610
20
59.738739
11
258.988621
21
59.742658
0
LINE
8
annotation
62
1
39
211
10
258.988621
20
59.742658
11
258.991523
21
59.746642
0
LINE
8
annotation
62
1
39
211
10
258.991523
20
59.746642
11
258.994335
21
59.750725
0
LINE
8
annotation
62
1
39
211
10
258.994335
20
59.750725
11
258.997079
21
59.754941
0
LINE
8
annotation
62
1
39
211
10
258.997079
20
59.754941
11
258.999773
21
59.759322
0
LINE
8
annotation
62
1
39
211
10
258.999773
20
59.759322
11
259.002437
21
59.763901
0
LINE
8
annotation
62
1
39
211
10
259.002437
20
59.763901
11
259.005091
21
59.768711
0
LINE
8
annotation
62
1
39
211
10
259.005091
20
59.768711
11
259.007755
21
59.773785
0
LINE
8
annotation
62
1
39
211
10
259.007755
20
59.773785
11
259.007755
21
59.773785
0
LINE
8
annotation
62
1
39
211
10
259.007755
20
59.773785
11
259.116201
21
60.006628
0
LINE
8
annotation
62
1
39
211
10
259.116201
20
60.006628
11
259.179554
21
60.247990
0
LINE
8
annotation
62
1
39
211
10
259.179554
20
60.247990
11
259.199365
21
60.492418
0
LINE
8
annotation
62
1
39
211
10
259.199365
20
60.492418
11
259.177187
21
60.734458
0
LINE
8
annotation
62
1
39
211
10
259.177187
20
60.734458
11
259.114574
21
60.968655
0
LINE
8
annotation
62
1
39
211
10
259.114574
20
60.968655
11
259.013077
21
61.189556
0
LINE
8
annotation
62
1
39
211
10
259.013077
20
61.189556
11
258.874249
21
61.391708
0
LINE
8
annotation
62
1
39
211
10
258.874249
20
61.391708
11
258.699643
21
61.569656
0
LINE
8
annotation
62
1
39
211
10
258.699643
20
61.569656
11
258.490810
21
61.717947
0
LINE
8
annotation
62
1
39
211
10
258.490810
20
61.717947
11
258.490810
21
61.717947
0
LINE
8
annotation
62
1
39
211
10
258.490810
20
61.717947
11
258.257320
21
61.824852
0
LINE
8
annotation
62
1
39
211
10
258.257320
20
61.824852
11
258.015588
21
61.887228
0
LINE
8
annotation
62
1
39
211
10
258.015588
20
61.887228
11
257.771018
21
61.906480
0
LINE
8
annotation
62
1
39
211
10
257.771018
20
61.906480
11
257.529015
21
61.884010
0
LINE
8
annotation
62
1
39
211
10
257.529015
20
61.884010
11
257.294983
21
61.821223
0
LINE
8
annotation
62
1
39
211
10
257.294983
20
61.821223
11
257.074326
21
61.719523
0
LINE
8
annotation
62
1
39
211
10
257.074326
20
61.719523
11
256.872449
21
61.580313
0
LINE
8
annotation
62
1
39
211
10
256.872449
20
61.580313
11
256.694755
21
61.404998
0
LINE
8
annotation
62
1
39
211
10
256.694755
20
61.404998
11
256.546649
21
61.194982
0
LINE
8
annotation
62
1
39
211
10
256.546649
20
61.194982
11
256.360019
21
60.836974
0
LINE
8
annotation
62
1
39
211
10
241.279031
20
47.005178
11
236.538640
21
40.148637
0
LINE
8
annotation
62
1
39
211
10
236.538640
20
40.148637
11
231.797358
21
47.005178
0
LINE
8
annotation
62
1
39
211
10
236.538640
20
40.700405
11
236.538640
21
32.790245
0
LINE
8
annotation
62
1
39
211
10
254.383074
20
39.897712
11
246.611079
21
39.897712
0
LINE
8
annotation
62
1
39
211
10
267.604334
20
35.950655
11
259.712002
21
35.950655
0
LINE
8
annotation
62
1
39
211
10
259.712002
20
35.950655
11
262.863943
21
47.004733
0
LINE
8
annotation
62
1
39
211
10
265.238596
20
32.790691
11
265.238596
21
39.103487
0
LINE
8
boundary
62
5
39
2
10
307.994940
20
17.331179
11
308.743029
21
17.222876
0
LINE
8
boundary
62
5
39
2
10
308.743029
20
17.222876
11
316.028513
21
14.249349
0
LINE
8
boundary
62
5
39
2
10
316.028513
20
14.249349
11
317.300273
21
14.077339
0
LINE
8
boundary
62
5
39
2
10
317.300273
20
14.077339
11
324.369981
21
12.306098
0
LINE
8
boundary
62
5
39
2
10
324.369981
20
12.306098
11
330.006336
21
10.747771
0
LINE
8
boundary
62
5
39
2
10
330.006336
20
10.747771
11
332.488790
21
10.672361
0
LINE
8
boundary
62
5
39
2
10
332.488790
20
10.672361
11
334.893945
21
10.456747
0
LINE
8
boundary
62
5
39
2
10
334.893945
20
10.456747
11
337.952584
21
9.787087
0
LINE
8
boundary
62
5
39
2
10
337.952584
20
9.787087
11
343.242390
21
8.438570
0
LINE
8
boundary
62
5
39
2
10
343.242390
20
8.438570
11
346.889932
21
7.514363
0
LINE
8
boundary
62
5
39
2
10
346.889932
20
7.514363
11
350.297937
21
6.709188
0
LINE
8
boundary
62
5
39
2
10
350.297937
20
6.709188
11
352.759205
21
6.587500
0
LINE
8
boundary
62
5
39
2
10
352.759205
20
6.587500
11
356.218601
21
6.763184
0
LINE
8
boundary
62
5
39
2
10
356.218601
20
6.763184
11
358.291267
21
7.251979
0
LINE
8
boundary
62
5
39
2
10
358.291267
20
7.251979
11
360.192081
21
7.944012
0
LINE
8
boundary
62
5
39
2
10
360.192081
20
7.944012
11
365.210991
21
8.209208
0
LINE
8
boundary
62
5
39
2
10
365.210991
20
8.209208
11
366.383045
21
9.507554
0
LINE
8
boundary
62
5
39
2
10
366.383045
20
9.507554
11
371.310585
21
10.991141
0
LINE
8
boundary
62
5
39
2
10
371.310585
20
10.991141
11
371.729648
21
11.976297
0
LINE
8
boundary
62
5
39
2
10
371.729648
20
11.976297
11
374.874397
21
13.595512
0
LINE
8
boundary
62
5
39
2
10
374.874397
20
13.595512
11
377.114559
21
18.349891
0
LINE
8
boundary
62
5
39
2
10
377.114559
20
18.349891
11
377.348338
21
19.927014
0
LINE
8
boundary
62
5
39
2
10
377.348338
20
19.927014
11
376.749583
21
21.299954
0
LINE
8
boundary
62
5
39
2
10
376.749583
20
21.299954
11
376.009418
21
26.472575
0
LINE
8
boundary
62
5
39
2
10
376.009418
20
26.472575
11
375.371799
21
27.494302
0
LINE
8
boundary
62
5
39
2
10
375.371799
20
27.494302
11
372.698860
21
32.614126
0
LINE
8
boundary
62
5
39
2
10
372.698860
20
32.614126
11
372.412581
21
33.129639
0
LINE
8
boundary
62
5
39
2
10
372.412581
20
33.129639
11
368.480078
21
36.963818
0
LINE
8
boundary
62
5
39
2
10
368.480078
20
36.963818
11
364.977054
21
40.731019
0
LINE
8
boundary
62
5
39
2
10
364.977054
20
40.731019
11
364.594478
21
41.146865
0
LINE
8
boundary
62
5
39
2
10
364.594478
20
41.146865
11
360.242456
21
46.339033
0
LINE
8
boundary
62
5
39
2
10
360.242456
20
46.339033
11
359.631980
21
47.224834
0
LINE
8
boundary
62
5
39
2
10
359.631980
20
47.224834
11
355.639485
21
51.942447
0
LINE
8
boundary
62
5
39
2
10
355.639485
20
51.942447
11
353.356648
21
54.403977
0
LINE
8
boundary
62
5
39
2
10
353.356648
20
54.403977
11
350.693493
21
57.076031
0
LINE
8
boundary
62
5
39
2
10
350.693493
20
57.076031
11
348.574375
21
58.696068
0
LINE
8
boundary
62
5
39
2
10
348.574375
20
58.696068
11
345.569457
21
61.761750
0
LINE
8
boundary
62
5
39
2
10
345.569457
20
61.761750
11
339.942882
21
65.258449
0
LINE
8
boundary
62
5
39
2
10
339.942882
20
65.258449
11
339.027144
21
65.660237
0
LINE
8
boundary
62
5
39
2
10
339.027144
20
65.660237
11
334.666847
21
67.658012
0
LINE
8
boundary
62
5
39
2
10
334.666847
20
67.658012
11
333.913610
21
67.863503
0
LINE
8
boundary
62
5
39
2
10
333.913610
20
67.863503
11
328.979240
21
69.561688
0
LINE
8
boundary
62
5
39
2
10
328.979240
20
69.561688
11
327.849790
21
69.900904
0
LINE
8
boundary
62
5
39
2
10
327.849790
20
69.900904
11
322.884585
21
69.657039
0
LINE
8
boundary
62
5
39
2
10
322.884585
20
69.657039
11
322.151342
21
69.582410
0
LINE
8
boundary
62
5
39
2
10
322.151342
20
69.582410
11
321.416752
21
69.103015
0
LINE
8
boundary
62
5
39
2
10
321.416752
20
69.103015
11
315.437325
21
66.873102
0
LINE
8
boundary
62
5
39
2
10
315.437325
20
66.873102
11
314.967325
21
65.981728
0
LINE
8
boundary
62
5
39
2
10
314.967325
20
65.981728
11
310.244134
21
62.255167
0
LINE
8
boundary
62
5
39
2
10
310.244134
20
62.255167
11
327.829840
21
61.891869
0
LINE
8
boundary
62
5
39
2
10
327.829840
20
61.891869
11
327.829840
21
58.145869
0
LINE
8
boundary
62
5
39
2
10
327.829840
20
58.145869
11
305.880882
21
58.145869
0
LINE
8
boundary
62
5
39
2
10
305.880882
20
58.145869
11
305.131683
21
57.527663
0
LINE
8
boundary
62
5
39
2
10
305.131683
20
57.527663
11
304.824006
21
56.277724
0
LINE
8
boundary
62
5
39
2
10
304.824006
20
56.277724
11
301.750515
21
51.481442
0
LINE
8
boundary
62
5
39
2
10
301.750515
20
51.481442
11
298.856651
21
44.667546
0
LINE
8
boundary
62
5
39
2
10
298.856651
20
44.667546
11
298.745403
21
43.960821
0
LINE
8
boundary
62
5
39
2
10
298.745403
20
43.960821
11
297.598137
21
37.284813
0
LINE
8
boundary
62
5
39
2
10
297.598137
20
37.284813
11
298.309786
21
30.901981
0
LINE
8
boundary
62
5
39
2
10
298.309786
20
30.901981
11
298.471132
21
29.978929
0
LINE
8
boundary
62
5
39
2
10
298.471132
20
29.978929
11
302.503260
21
23.522147
0
LINE
8
boundary
62
5
39
2
10
302.503260
20
23.522147
11
303.220359
21
22.594032
0
LINE
8
boundary
62
5
39
2
10
303.220359
20
22.594032
11
340.631826
21
22.394031
0
LINE
8
boundary
62
5
39
2
10
340.631826
20
22.394031
11
340.631826
21
18.648031
0
LINE
8
boundary
62
5
39
2
10
340.631826
20
18.648031
11
307.069900
21
18.648032
0
LINE
8
boundary
62
5
39
2
10
307.069900
20
18.648032
11
307.994940
21
17.331179
0
LINE
8
annotation
62
1
39
211
10
349.469625
20
17.321031
11
349.469625
21
23.721031
0
LINE
8
annotation
62
1
39
211
10
349.469625
20
23.721031
11
348.046823
21
22.297828
0
LINE
8
annotation
62
1
39
211
10
337.377234
20
56.818817
11
334.534841
21
56.818817
0
LINE
8
annotation
62
1
39
211
10
334.534841
20
56.818817
11
337.161305
21
61.047088
0
LINE
8
annotation
62
1
39
211
10
337.161305
20
61.047088
11
337.161305
21
61.047088
0
LINE
8
annotation
62
1
39
211
10
337.161305
20
61.047088
11
337.164445
21
61.050973
0
LINE
8
annotation
62
1
39
211
10
337.164445
20
61.050973
11
337.167456
21
61.054891
0
LINE
8
annotation
62
1
39
211
10
337.167456
20
61.054891
11
337.170358
21
61.058876
0
LINE
8
annotation
62
1
39
211
10
337.170358
20
61.058876
11
337.173171
21
61.062959
0
LINE
8
annotation
62
1
39
211
10
337.173171
20
61.062959
11
337.175914
21
61.067175
0
LINE
8
annotation
62
1
39
211
10
337.175914
20
61.067175
11
337.178608
21
61.071555
0
LINE
8
annotation
62
1
39
211
10
337.178608
20
61.071555
11
337.181272
21
61.076134
0
LINE
8
annotation
62
1
39
211
10
337.181272
20
61.076134
11
337.183926
21
61.080945
0
LINE
8
annotation
62
1
39
211
10
337.183926
20
61.080945
11
337.186590
21
61.086019
0
LINE
8
annotation
62
1
39
211
10
337.186590
20
61.086019
11
337.186590
21
61.086019
0
LINE
8
annotation
62
1
39
211
10
337.186590
20
61.086019
11
337.295036
21
61.318862
0
LINE
8
annotation
62
1
39
211
10
337.295036
20
61.318862
11
337.358389
21
61.560224
0
LINE
8
annotation
62
1
39
211
10
337.358389
20
61.560224
11
337.378200
21
61.804652
0
LINE
8
annotation
62
1
39
211
10
337.378200
20
61.804652
11
337.356023
21
62.046691
0
LINE
8
annotation
62
1
39
211
10
337.356023
20
62.046691
11
337.293409
21
62.280889
0
LINE
8
annotation
62
1
39
211
10
337.293409
20
62.280889
11
337.191912
21
62.501790
0
LINE
8
annotation
62
1
39
211
10
337.191912
20
62.501790
11
337.053084
21
62.703942
0
LINE
8
annotation
62
1
39
211
10
337.053084
20
62.703942
11
336.878478
21
62.881890
0
LINE
8
annotation
62
1
39
211
10
336.878478
20
62.881890
11
336.669646
21
63.030181
0
LINE
8
annotation
62
1
39
211
10
336.669646
20
63.030181
11
336.669646
21
63.030181
0
LINE
8
annotation
62
1
39
211
10
336.669646
20
63.030181
11
336.436155
21
63.137086
0
LINE
8
annotation
62
1
39
211
10
336.436155
20
63.137086
11
336.194423
21
63.199462
0
LINE
8
annotation
62
1
39
211
10
336.194423
20
63.199462
11
335.949853
21
63.218713
0
LINE
8
annotation
62
1
39
211
10
335.949853
20
63.218713
11
335.707850
21
63.196243
0
LINE
8
annotation
62
1
39
211
10
335.707850
20
63.196243
11
335.473818
21
63.133457
0
LINE
8
annotation
62
1
39
211
10
335.473818
20
63.133457
11
335.253161
21
63.031756
0
LINE
8
annotation
62
1
39
211
10
335.253161
20
63.031756
11
335.051284
21
62.892547
0
LINE
8
annotation
62
1
39
211
10
335.051284
20
62.892547
11
334.873590
21
62.717232
0
LINE
8
annotation
62
1
39
211
10
334.873590
20
62.717232
11
334.725484
21
62.507216
0
LINE
8
annotation
62
1
39
211
10
334.725484
20
62.507216
11
334.538854
21
62.149207
0
LINE
8
annotation
62
1
39
211
10
321.039138
20
46.669109
11
316.251247
21
39.743863
0
LINE
8
annotation
62
1
39
211
10
316.251247
20
39.743863
11
311.462455
21
46.669109
0
LINE
8
annotation
62
1
39
211
10
316.251247
20
40.301160
11
316.251247
21
32.311737
0
LINE
8
annotation
62
1
39
211
10
334.274489
20
39.490423
11
326.424616
21
39.490423
0
LINE
8
annotation
62
1
39
211
10
339.656815
20
32.312638
11
342.844841
21
32.312638
0
LINE
8
annotation
62
1
39
211
10
342.844841
20
32.312638
11
342.844841
21
32.312638
0
LINE
8
annotation
62
1
39
211
10
342.844841
20
32.312638
11
343.418216
21
32.364073
0
LINE
8
annotation
62
1
39
211
10
343.418216
20
32.364073
11
343.957741
21
32.512313
0
LINE
8
annotation
62
1
39
211
10
343.957741
20
32.512313
11
344.454443
21
32.748258
0
LINE
8
annotation
62
1
39
211
10
344.454443
20
32.748258
11
344.899350
21
33.062809
0
LINE
8
annotation
62
1
39
211
10
344.899350
20
33.062809
11
345.283487
21
33.446866
0
LINE
8
annotation
62
1
39
211
10
345.283487
20
33.446866
11
345.597881
21
33.891329
0
LINE
8
annotation
62
1
39
211
10
345.597881
20
33.891329
11
345.833558
21
34.387099
0
LINE
8
annotation
62
1
39
211
10
345.833558
20
34.387099
11
345.981545
21
34.925077
0
LINE
8
annotation
62
1
39
211
10
345.981545
20
34.925077
11
346.032868
21
35.496162
0
LINE
8
annotation
62
1
39
211
10
346.032868
20
35.496162
11
346.032868
21
37.092426
0
LINE
8
annotation
62
1
39
211
10
346.032868
20
37.092426
11
346.032868
21
37.092426
0
LINE
8
annotation
62
1
39
211
10
346.032868
20
37.092426
11
345.981545
21
37.663275
0
LINE
8
annotation
62
1
39
211
10
345.981545
20
37.663275
11
345.833558
21
38.201127
0
LINE
8
annotation
62
1
39
211
10
345.833558
20
38.201127
11
345.597881
21
38.696860
0
LINE
8
annotation
62
1
39
211
10
345.597881
20
38.696860
11
345.283487
21
39.141353
0
LINE
8
annotation
62
1
39
211
10
345.283487
20
39.141353
11
344.899350
21
39.525483
0
LINE
8
annotation
62
1
39
211
10
344.899350
20
39.525483
11
344.454443
21
39.840130
0
LINE
8
annotation
62
1
39
211
10
344.454443
20
39.840130
11
343.957741
21
40.076172
0
LINE
8
annotation
62
1
39
211
10
343.957741
20
40.076172
11
343.418216
21
40.224486
0
LINE
8
annotation
62
1
39
211
10
343.418216
20
40.224486
11
342.844841
21
40.275951
0
LINE
8
annotation
62
1
39
211
10
342.844841
20
40.275951
11
341.248578
21
40.275951
0
LINE
8
annotation
62
1
39
211
10
341.248578
20
40.275951
11
342.844841
21
40.275951
0
LINE
8
annotation
62
1
39
211
10
342.844841
20
40.275951
11
342.844841
21
40.275951
0
LINE
8
annotation
62
1
39
211
10
342.844841
20
40.275951
11
343.418216
21
40.327428
0
LINE
8
annotation
62
1
39
211
10
343.418216
20
40.327428
11
343.957741
21
40.475829
0
LINE
8
annotation
62
1
39
211
10
343.957741
20
40.475829
11
344.454443
21
40.712105
0
LINE
8
annotation
62
1
39
211
10
344.454443
20
40.712105
11
344.899350
21
41.027209
0
LINE
8
annotation
62
1
39
211
10
344.899350
20
41.027209
11
345.283487
21
41.412093
0
LINE
8
annotation
62
1
39
211
10
345.283487
20
41.412093
11
345.597881
21
41.857710
0
LINE
8
annotation
62
1
39
211
10
345.597881
20
41.857710
11
345.833558
21
42.355011
0
LINE
8
annotation
62
1
39
211
10
345.833558
20
42.355011
11
345.981545
21
42.894950
0
LINE
8
annotation
62
1
39
211
10
345.981545
20
42.894950
11
346.032868
21
43.468479
0
LINE
8
annotation
62
1
39
211
10
346.032868
20
43.468479
11
346.032868
21
43.468479
0
LINE
8
annotation
62
1
39
211
10
346.032868
20
43.468479
11
345.981545
21
44.039327
0
LINE
8
annotation
62
1
39
211
10
345.981545
20
44.039327
11
345.833558
21
44.577179
0
LINE
8
annotation
62
1
39
211
10
345.833558
20
44.577179
11
345.597881
21
45.072912
0
LINE
8
annotation
62
1
39
211
10
345.597881
20
45.072912
11
345.283487
21
45.517405
0
LINE
8
annotation
62
1
39
211
10
345.283487
20
45.517405
11
344.899350
21
45.901536
0
LINE
8
annotation
62
1
39
211
10
344.899350
20
45.901536
11
344.454443
21
46.216183
0
LINE
8
annotation
62
1
39
211
10
344.454443
20
46.216183
11
343.957741
21
46.452224
0
LINE
8
annotation
62
1
39
211
10
343.957741
20
46.452224
11
343.418216
21
46.600538
0
LINE
8
annotation
62
1
39
211
10
343.418216
20
46.600538
11
342.844841
21
46.652003
0
LINE
8
annotation
62
1
39
211
10
342.844841
20
46.652003
11
339.656815
21
46.652003
0
LINE
8
boundary
62
5
39
2
10
394.209213
20
13.247810
11
398.628875
21
9.651093
0
LINE
8
boundary
62
5
39
2
10
398.628875
20
9.651093
11
399.125181
21
9.314485
0
LINE
8
boundary
62
5
39
2
10
399.125181
20
9.314485
11
404.427588
21
7.385509
0
LINE
8
boundary
62
5
39
2
10
404.427588
20
7.385509
11
405.079929
21
7.194862
0
LINE
8
boundary
62
5
39
2
10
405.079929
20
7.194862
11
410.649481
21
6.587500
0
LINE
8
boundary
62
5
39
2
10
410.649481
20
6.587500
11
411.382698
21
6.618417
0
LINE
8
boundary
62
5
39
2
10
411.382698
20
6.618417
11
416.618549
21
7.172832
0
LINE
8
boundary
62
5
39
2
10
416.618549
20
7.172832
11
417.402461
21
7.415452
0
LINE
8
boundary
62
5
39
2
10
417.402461
20
7.415452
11
423.620492
21
10.019055
0
LINE
8
boundary
62
5
39
2
10
423.620492
20
10.019055
11
424.577308
21
10.638802
0
LINE
8
boundary
62
5
39
2
10
424.577308
20
10.638802
11
431.110896
21
15.801889
0
LINE
8
boundary
62
5
39
2
10
431.110896
20
15.801889
11
432.062061
21
16.746617
0
LINE
8
boundary
62
5
39
2
10
432.062061
20
16.746617
11
436.250089
21
23.365014
0
LINE
8
boundary
62
5
39
2
10
436.250089
20
23.365014
11
412.016214
21
23.565014
0
LINE
8
boundary
62
5
39
2
10
412.016214
20
23.565014
11
412.016214
21
27.311014
0
LINE
8
boundary
62
5
39
2
10
412.016214
20
27.311014
11
438.480370
21
27.311014
0
LINE
8
boundary
62
5
39
2
10
438.480370
20
27.311014
11
438.757213
21
28.703050
0
LINE
8
boundary
62
5
39
2
10
438.757213
20
28.703050
11
441.047492
21
40.608816
0
LINE
8
boundary
62
5
39
2
10
441.047492
20
40.608816
11
440.855099
21
42.754879
0
LINE
8
boundary
62
5
39
2
10
440.855099
20
42.754879
11
440.309089
21
48.584633
0
LINE
8
boundary
62
5
39
2
10
440.309089
20
48.584633
11
410.506281
21
48.784632
0
LINE
8
boundary
62
5
39
2
10
410.506281
20
48.784632
11
410.506281
21
52.530633
0
LINE
8
boundary
62
5
39
2
10
410.506281
20
52.530633
11
439.860478
21
52.530633
0
LINE
8
boundary
62
5
39
2
10
439.860478
20
52.530633
11
439.669527
21
55.413244
0
LINE
8
boundary
62
5
39
2
10
439.669527
20
55.413244
11
435.770766
21
63.910272
0
LINE
8
boundary
62
5
39
2
10
435.770766
20
63.910272
11
435.415059
21
65.577996
0
LINE
8
boundary
62
5
39
2
10
435.415059
20
65.577996
11
432.829060
21
69.178898
0
LINE
8
boundary
62
5
39
2
10
432.829060
20
69.178898
11
408.541642
21
69.378898
0
LINE
8
boundary
62
5
39
2
10
408.541642
20
69.378898
11
408.541642
21
73.124898
0
LINE
8
boundary
62
5
39
2
10
408.541642
20
73.124898
11
429.791297
21
73.124898
0
LINE
8
boundary
62
5
39
2
10
429.791297
20
73.124898
11
428.985471
21
74.530944
0
LINE
8
boundary
62
5
39
2
10
428.985471
20
74.530944
11
428.076750
21
75.740297
0
LINE
8
boundary
62
5
39
2
10
428.076750
20
75.740297
11
416.811063
21
82.461931
0
LINE
8
boundary
62
5
39
2
10
416.811063
20
82.461931
11
415.565567
21
83.280507
0
LINE
8
boundary
62
5
39
2
10
415.565567
20
83.280507
11
405.127466
21
84.726132
0
LINE
8
boundary
62
5
39
2
10
405.127466
20
84.726132
11
403.839990
21
85.376323
0
LINE
8
boundary
62
5
39
2
10
403.839990
20
85.376323
11
402.717505
21
84.886718
0
LINE
8
boundary
62
5
39
2
10
402.717505
20
84.886718
11
394.793520
21
81.367635
0
LINE
8
boundary
62
5
39
2
10
394.793520
20
81.367635
11
387.255159
21
74.091021
0
LINE
8
boundary
62
5
39
2
10
387.255159
20
74.091021
11
386.669796
21
73.262269
0
LINE
8
boundary
62
5
39
2
10
386.669796
20
73.262269
11
381.025844
21
61.341529
0
LINE
8
boundary
62
5
39
2
10
381.025844
20
61.341529
11
380.897261
21
60.530717
0
LINE
8
boundary
62
5
39
2
10
380.897261
20
60.530717
11
380.523338
21
45.733097
0
LINE
8
boundary
62
5
39
2
10
380.523338
20
45.733097
11
380.554583
21
45.134080
0
LINE
8
boundary
62
5
39
2
10
380.554583
20
45.134080
11
383.785823
21
32.031787
0
LINE
8
boundary
62
5
39
2
10
383.785823
20
32.031787
11
384.037195
21
30.931469
0
LINE
8
boundary
62
5
39
2
10
384.037195
20
30.931469
11
388.173050
21
21.533954
0
LINE
8
boundary
62
5
39
2
10
388.173050
20
21.533954
11
388.614150
21
20.613697
0
LINE
8
boundary
62
5
39
2
10
388.614150
20
20.613697
11
393.583043
21
13.866053
0
LINE
8
boundary
62
5
39
2
10
393.583043
20
13.866053
11
394.209213
21
13.247810
0
LINE
8
annotation
62
1
39
211
10
402.467215
20
22.238014
11
403.888411
21
22.238014
0
LINE
8
annotation
62
1
39
211
10
403.888411
20
22.238014
11
403.888411
21
22.238014
0
LINE
8
annotation
62
1
39
211
10
403.888411
20
22.238014
11
404.143488
21
22.260948
0
LINE
8
annotation
62
1
39
211
10
404.143488
20
22.260948
11
404.383723
21
22.327067
0
LINE
8
annotation
62
1
39
211
10
404.383723
20
22.327067
11
404.605067
21
22.432344
0
LINE
8
annotation
62
1
39
211
10
404.605067
20
22.432344
11
404.803469
21
22.572751
0
LINE
8
annotation
62
1
39
211
10
404.803469
20
22.572751
11
404.974879
21
22.744263
0
LINE
8
annotation
62
1
39
211
10
404.974879
20
22.744263
11
405.115248
21
22.942852
0
LINE
8
annotation
62
1
39
211
10
405.115248
20
22.942852
11
405.220526
21
23.164492
0
LINE
8
annotation
62
1
39
211
10
405.220526
20
23.164492
11
405.286662
21
23.405155
0
LINE
8
annotation
62
1
39
211
10
405.286662
20
23.405155
11
405.309608
21
23.660816
0
LINE
8
annotation
62
1
39
211
10
405.309608
20
23.660816
11
405.309608
21
24.368805
0
LINE
8
annotation
62
1
39
211
10
405.309608
20
24.368805
11
405.309608
21
24.368805
0
LINE
8
annotation
62
1
39
211
10
405.309608
20
24.368805
11
405.286675
21
24.624342
0
LINE
8
annotation
62
1
39
211
10
405.286675
20
24.624342
11
405.220572
21
24.864674
0
LINE
8
annotation
62
1
39
211
10
405.220572
20
24.864674
11
405.115337
21
25.085833
0
LINE
8
annotation
62
1
39
211
10
405.115337
20
25.085833
11
404.975011
21
25.283852
0
LINE
8
annotation
62
1
39
211
10
404.975011
20
25.283852
11
404.803634
21
25.454764
0
LINE
8
annotation
62
1
39
211
10
404.803634
20
25.454764
11
404.605245
21
25.594601
0
LINE
8
annotation
62
1
39
211
10
404.605245
20
25.594601
11
404.383885
21
25.699397
0
LINE
8
annotation
62
1
39
211
10
404.383885
20
25.699397
11
404.143594
21
25.765184
0
LINE
8
annotation
62
1
39
211
10
404.143594
20
25.765184
11
403.888411
21
25.787995
0
LINE
8
annotation
62
1
39
211
10
403.888411
20
25.787995
11
402.467215
21
25.787995
0
LINE
8
annotation
62
1
39
211
10
402.467215
20
25.787995
11
402.467215
21
28.638014
0
LINE
8
annotation
62
1
39
211
10
402.467215
20
28.638014
11
405.309608
21
28.638014
0
LINE
8
annotation
62
1
39
211
10
403.092087
20
53.857632
11
403.092087
21
53.857632
0
LINE
8
annotation
62
1
39
211
10
403.092087
20
53.857632
11
402.684950
21
53.704981
0
LINE
8
annotation
62
1
39
211
10
402.684950
20
53.704981
11
402.311348
21
53.499300
0
LINE
8
annotation
62
1
39
211
10
402.311348
20
53.499300
11
401.975117
21
53.245745
0
LINE
8
annotation
62
1
39
211
10
401.975117
20
53.245745
11
401.680092
21
52.949468
0
LINE
8
annotation
62
1
39
211
10
401.680092
20
52.949468
11
401.430107
21
52.615622
0
LINE
8
annotation
62
1
39
211
10
401.430107
20
52.615622
11
401.228999
21
52.249360
0
LINE
8
annotation
62
1
39
211
10
401.228999
20
52.249360
11
401.080602
21
51.855836
0
LINE
8
annotation
62
1
39
211
10
401.080602
20
51.855836
11
400.988751
21
51.440203
0
LINE
8
annotation
62
1
39
211
10
400.988751
20
51.440203
11
400.957282
21
51.007614
0
LINE
8
annotation
62
1
39
211
10
400.957282
20
51.007614
11
400.957282
21
48.880434
0
LINE
8
annotation
62
1
39
211
10
400.957282
20
48.880434
11
400.957282
21
48.880434
0
LINE
8
annotation
62
1
39
211
10
400.957282
20
48.880434
11
400.980227
21
48.624774
0
LINE
8
annotation
62
1
39
211
10
400.980227
20
48.624774
11
401.046364
21
48.384110
0
LINE
8
annotation
62
1
39
211
10
401.046364
20
48.384110
11
401.151641
21
48.162471
0
LINE
8
annotation
62
1
39
211
10
401.151641
20
48.162471
11
401.292010
21
47.963882
0
LINE
8
annotation
62
1
39
211
10
401.292010
20
47.963882
11
401.463421
21
47.792370
0
LINE
8
annotation
62
1
39
211
10
401.463421
20
47.792370
11
401.661823
21
47.651962
0
LINE
8
annotation
62
1
39
211
10
401.661823
20
47.651962
11
401.883166
21
47.546686
0
LINE
8
annotation
62
1
39
211
10
401.883166
20
47.546686
11
402.123401
21
47.480567
0
LINE
8
annotation
62
1
39
211
10
402.123401
20
47.480567
11
402.378478
21
47.457632
0
LINE
8
annotation
62
1
39
211
10
402.378478
20
47.457632
11
402.378478
21
47.457632
0
LINE
8
annotation
62
1
39
211
10
402.378478
20
47.457632
11
402.634084
21
47.480567
0
LINE
8
annotation
62
1
39
211
10
402.634084
20
47.480567
11
402.874600
21
47.546686
0
LINE
8
annotation
62
1
39
211
10
402.874600
20
47.546686
11
403.096026
21
47.651962
0
LINE
8
annotation
62
1
39
211
10
403.096026
20
47.651962
11
403.294362
21
47.792370
0
LINE
8
annotation
62
1
39
211
10
403.294362
20
47.792370
11
403.465607
21
47.963882
0
LINE
8
annotation
62
1
39
211
10
403.465607
20
47.963882
11
403.605761
21
48.162471
0
LINE
8
annotation
62
1
39
211
10
403.605761
20
48.162471
11
403.710824
21
48.384110
0
LINE
8
annotation
62
1
39
211
10
403.710824
20
48.384110
11
403.776795
21
48.624774
0
LINE
8
annotation
62
1
39
211
10
403.776795
20
48.624774
11
403.799675
21
48.880434
0
LINE
8
annotation
62
1
39
211
10
403.799675
20
48.880434
11
403.799675
21
49.588424
0
LINE
8
annotation
62
1
39
211
10
403.799675
20
49.588424
11
403.799675
21
49.588424
0
LINE
8
annotation
62
1
39
211
10
403.799675
20
49.588424
11
403.776795
21
49.843961
0
LINE
8
annotation
62
1
39
211
10
403.776795
20
49.843961
11
403.710824
21
50.084292
0
LINE
8
annotation
62
1
39
211
10
403.710824
20
50.084292
11
403.605761
21
50.305451
0
LINE
8
annotation
62
1
39
211
10
403.605761
20
50.305451
11
403.465607
21
50.503470
0
LINE
8
annotation
62
1
39
211
10
403.465607
20
50.503470
11
403.294362
21
50.674383
0
LINE
8
annotation
62
1
39
211
10
403.294362
20
50.674383
11
403.096026
21
50.814220
0
LINE
8
annotation
62
1
39
211
10
403.096026
20
50.814220
11
402.874600
21
50.919016
0
LINE
8
annotation
62
1
39
211
10
402.874600
20
50.919016
11
402.634084
21
50.984803
0
LINE
8
annotation
62
1
39
211
10
402.634084
20
50.984803
11
402.378478
21
51.007614
0
LINE
8
annotation
62
1
39
211
10
402.378478
20
51.007614
11
400.957282
21
51.007614
0
LINE
8
annotation
62
1
39
211
10
400.779281
20
46.657632
11
403.979281
21
46.657632
0
LINE
8
annotation
62
1
39
211
10
400.413839
20
68.051898
11
401.836641
21
74.451898
0
LINE
8
annotation
62
1
39
211
10
401.836641
20
74.451898
11
398.990636
21
74.451898
0
LINE
8
annotation
62
1
39
211
10
401.836641
20
71.601879
11
400.413839
21
71.601879
0
LINE
8
annotation
62
1
39
211
10
406.519722
20
31.690160
11
400.219464
21
31.690160
0
LINE
8
annotation
62
1
39
211
10
400.219464
20
31.690160
11
406.519722
21
43.036885
0
LINE
8
annotation
62
1
39
211
10
406.519722
20
43.036885
11
400.219464
21
43.036885
0
LINE
8
annotation
62
1
39
211
10
416.980006
20
37.363522
11
410.775811
21
37.363522
0
LINE
8
annotation
62
1
39
211
10
421.233961
20
31.690160
11
423.753637
21
31.690160
0
LINE
8
annotation
62
1
39
211
10
423.753637
20
31.690160
11
423.753637
21
31.690160
0
LINE
8
annotation
62
1
39
211
10
423.753637
20
31.690160
11
424.205869
21
31.730821
0
LINE
8
annotation
62
1
39
211
10
424.205869
20
31.730821
11
424.631789
21
31.848045
0
LINE
8
annotation
62
1
39
211
10
424.631789
20
31.848045
11
425.024214
21
32.034692
0
LINE
8
annotation
62
1
39
211
10
425.024214
20
32.034692
11
425.375966
21
32.283624
0
LINE
8
annotation
62
1
39
211
10
425.375966
20
32.283624
11
425.679864
21
32.587702
0
LINE
8
annotation
62
1
39
211
10
425.679864
20
32.587702
11
425.928727
21
32.939785
0
LINE
8
annotation
62
1
39
211
10
425.928727
20
32.939785
11
426.115377
21
33.332736
0
LINE
8
annotation
62
1
39
211
10
426.115377
20
33.332736
11
426.232632
21
33.759415
0
LINE
8
annotation
62
1
39
211
10
426.232632
20
33.759415
11
426.273313
21
34.212682
0
LINE
8
annotation
62
1
39
211
10
426.273313
20
34.212682
11
426.273313
21
35.467895
0
LINE
8
annotation
62
1
39
211
10
426.273313
20
35.467895
11
426.273313
21
35.467895
0
LINE
8
annotation
62
1
39
211
10
426.273313
20
35.467895
11
426.232655
21
35.920943
0
LINE
8
annotation
62
1
39
211
10
426.232655
20
35.920943
11
426.115459
21
36.347033
0
LINE
8
annotation
62
1
39
211
10
426.115459
20
36.347033
11
425.928886
21
36.739131
0
LINE
8
annotation
62
1
39
211
10
425.928886
20
36.739131
11
425.680098
21
37.090204
0
LINE
8
annotation
62
1
39
211
10
425.680098
20
37.090204
11
425.376259
21
37.393219
0
LINE
8
annotation
62
1
39
211
10
425.376259
20
37.393219
11
425.024530
21
37.641141
0
LINE
8
annotation
62
1
39
211
10
425.024530
20
37.641141
11
424.632076
21
37.826936
0
LINE
8
annotation
62
1
39
211
10
424.632076
20
37.826936
11
424.206057
21
37.943571
0
LINE
8
annotation
62
1
39
211
10
424.206057
20
37.943571
11
423.753637
21
37.984013
0
LINE
8
annotation
62
1
39
211
10
423.753637
20
37.984013
11
421.233961
21
37.984013
0
LINE
8
annotation
62
1
39
211
10
421.233961
20
37.984013
11
421.233961
21
43.036885
0
LINE
8
annotation
62
1
39
211
10
421.233961
20
43.036885
11
426.273313
21
43.036885
0
LINE
8
boundary
62
5
39
2
10
450.793374
20
19.924735
11
452.742652
21
15.840428
0
LINE
8
boundary
62
5
39
2
10
452.742652
20
15.840428
11
456.296280
21
12.396641
0
LINE
8
boundary
62
5
39
2
10
456.296280
20
12.396641
11
458.146366
21
10.564442
0
LINE
8
boundary
62
5
39
2
10
458.146366
20
10.564442
11
461.137315
21
8.595924
0
LINE
8
boundary
62
5
39
2
10
461.137315
20
8.595924
11
462.617533
21
7.788904
0
LINE
8
boundary
62
5
39
2
10
462.617533
20
7.788904
11
465.984924
21
6.823789
0
LINE
8
boundary
62
5
39
2
10
465.984924
20
6.823789
11
467.459913
21
6.587500
0
LINE
8
boundary
62
5
39
2
10
467.459913
20
6.587500
11
471.034624
21
6.749571
0
LINE
8
boundary
62
5
39
2
10
471.034624
20
6.749571
11
472.435947
21
7.007453
0
LINE
8
boundary
62
5
39
2
10
472.435947
20
7.007453
11
476.312424
21
8.266670
0
LINE
8
boundary
62
5
39
2
10
476.312424
20
8.266670
11
477.701264
21
8.937599
0
LINE
8
boundary
62
5
39
2
10
477.701264
20
8.937599
11
482.072134
21
11.796508
0
LINE
8
boundary
62
5
39
2
10
482.072134
20
11.796508
11
483.638723
21
12.945574
0
LINE
8
boundary
62
5
39
2
10
483.638723
20
12.945574
11
488.656784
21
18.152604
0
LINE
8
boundary
62
5
39
2
10
488.656784
20
18.152604
11
489.866429
21
19.494615
0
LINE
8
boundary
62
5
39
2
10
489.866429
20
19.494615
11
493.517249
21
25.561782
0
LINE
8
boundary
62
5
39
2
10
493.517249
20
25.561782
11
471.202731
21
25.761782
0
LINE
8
boundary
62
5
39
2
10
471.202731
20
25.761782
11
471.202731
21
29.507782
0
LINE
8
boundary
62
5
39
2
10
471.202731
20
29.507782
11
495.173771
21
29.507782
0
LINE
8
boundary
62
5
39
2
10
495.173771
20
29.507782
11
495.368154
21
30.431887
0
LINE
8
boundary
62
5
39
2
10
495.368154
20
30.431887
11
497.086815
21
39.886678
0
LINE
8
boundary
62
5
39
2
10
497.086815
20
39.886678
11
496.091420
21
50.522370
0
LINE
8
boundary
62
5
39
2
10
496.091420
20
50.522370
11
470.240884
21
50.981401
0
LINE
8
boundary
62
5
39
2
10
470.240884
20
50.981401
11
470.240884
21
54.727401
0
LINE
8
boundary
62
5
39
2
10
470.240884
20
54.727401
11
495.393691
21
54.727401
0
LINE
8
boundary
62
5
39
2
10
495.393691
20
54.727401
11
493.766498
21
62.858325
0
LINE
8
boundary
62
5
39
2
10
493.766498
20
62.858325
11
487.925430
21
70.577306
0
LINE
8
boundary
62
5
39
2
10
487.925430
20
70.577306
11
487.277515
21
71.375666
0
LINE
8
boundary
62
5
39
2
10
487.277515
20
71.375666
11
467.255898
21
71.575666
0
LINE
8
boundary
62
5
39
2
10
467.255898
20
71.575666
11
467.255898
21
75.321666
0
LINE
8
boundary
62
5
39
2
10
467.255898
20
75.321666
11
481.248350
21
75.321666
0
LINE
8
boundary
62
5
39
2
10
481.248350
20
75.321666
11
476.131005
21
78.917628
0
LINE
8
boundary
62
5
39
2
10
476.131005
20
78.917628
11
474.995791
21
79.669789
0
LINE
8
boundary
62
5
39
2
10
474.995791
20
79.669789
11
464.383996
21
85.031982
0
LINE
8
boundary
62
5
39
2
10
464.383996
20
85.031982
11
463.454008
21
84.457552
0
LINE
8
boundary
62
5
39
2
10
463.454008
20
84.457552
11
454.737370
21
80.478023
0
LINE
8
boundary
62
5
39
2
10
454.737370
20
80.478023
11
452.949919
21
77.651552
0
LINE
8
boundary
62
5
39
2
10
452.949919
20
77.651552
11
446.711046
21
68.594941
0
LINE
8
boundary
62
5
39
2
10
446.711046
20
68.594941
11
445.085090
21
58.703097
0
LINE
8
boundary
62
5
39
2
10
445.085090
20
58.703097
11
444.222492
21
53.387652
0
LINE
8
boundary
62
5
39
2
10
444.222492
20
53.387652
11
444.671755
21
47.605451
0
LINE
8
boundary
62
5
39
2
10
444.671755
20
47.605451
11
445.066900
21
38.809047
0
LINE
8
boundary
62
5
39
2
10
445.066900
20
38.809047
11
446.752574
21
31.394487
0
LINE
8
boundary
62
5
39
2
10
446.752574
20
31.394487
11
448.101622
21
25.455749
0
LINE
8
boundary
62
5
39
2
10
448.101622
20
25.455749
11
450.793374
21
19.924735
0
LINE
8
annotation
62
1
39
211
10
461.653732
20
24.434782
11
463.074928
21
24.434782
0
LINE
8
annotation
62
1
39
211
10
463.074928
20
24.434782
11
463.074928
21
24.434782
0
LINE
8
annotation
62
1
39
211
10
463.074928
20
24.434782
11
463.330006
21
24.457717
0
LINE
8
annotation
62
1
39
211
10
463.330006
20
24.457717
11
463.570241
21
24.523835
0
LINE
8
annotation
62
1
39
211
10
463.570241
20
24.523835
11
463.791584
21
24.629112
0
LINE
8
annotation
62
1
39
211
10
463.791584
20
24.629112
11
463.989986
21
24.769520
0
LINE
8
annotation
62
1
39
211
10
463.989986
20
24.769520
11
464.161396
21
24.941031
0
LINE
8
annotation
62
1
39
211
10
464.161396
20
24.941031
11
464.301765
21
25.139620
0
LINE
8
annotation
62
1
39
211
10
464.301765
20
25.139620
11
464.407043
21
25.361260
0
LINE
8
annotation
62
1
39
211
10
464.407043
20
25.361260
11
464.473180
21
25.601923
0
LINE
8
annotation
62
1
39
211
10
464.473180
20
25.601923
11
464.496125
21
25.857584
0
LINE
8
annotation
62
1
39
211
10
464.496125
20
25.857584
11
464.496125
21
26.565574
0
LINE
8
annotation
62
1
39
211
10
464.496125
20
26.565574
11
464.496125
21
26.565574
0
LINE
8
annotation
62
1
39
211
10
464.496125
20
26.565574
11
464.473193
21
26.821110
0
LINE
8
annotation
62
1
39
211
10
464.473193
20
26.821110
11
464.407089
21
27.061442
0
LINE
8
annotation
62
1
39
211
10
464.407089
20
27.061442
11
464.301855
21
27.282601
0
LINE
8
annotation
62
1
39
211
10
464.301855
20
27.282601
11
464.161529
21
27.480620
0
LINE
8
annotation
62
1
39
211
10
464.161529
20
27.480620
11
463.990151
21
27.651532
0
LINE
8
annotation
62
1
39
211
10
463.990151
20
27.651532
11
463.791763
21
27.791370
0
LINE
8
annotation
62
1
39
211
10
463.791763
20
27.791370
11
463.570403
21
27.896166
0
LINE
8
annotation
62
1
39
211
10
463.570403
20
27.896166
11
463.330111
21
27.961953
0
LINE
8
annotation
62
1
39
211
10
463.330111
20
27.961953
11
463.074928
21
27.984763
0
LINE
8
annotation
62
1
39
211
10
463.074928
20
27.984763
11
461.653732
21
27.984763
0
LINE
8
annotation
62
1
39
211
10
461.653732
20
27.984763
11
461.653732
21
30.834782
0
LINE
8
annotation
62
1
39
211
10
461.653732
20
30.834782
11
464.496125
21
30.834782
0
LINE
8
annotation
62
1
39
211
10
462.826690
20
56.054401
11
462.826690
21
56.054401
0
LINE
8
annotation
62
1
39
211
10
462.826690
20
56.054401
11
462.419553
21
55.901749
0
LINE
8
annotation
62
1
39
211
10
462.419553
20
55.901749
11
462.045951
21
55.696069
0
LINE
8
annotation
62
1
39
211
10
462.045951
20
55.696069
11
461.709720
21
55.442513
0
LINE
8
annotation
62
1
39
211
10
461.709720
20
55.442513
11
461.414695
21
55.146236
0
LINE
8
annotation
62
1
39
211
10
461.414695
20
55.146236
11
461.164710
21
54.812390
0
LINE
8
annotation
62
1
39
211
10
461.164710
20
54.812390
11
460.963602
21
54.446128
0
LINE
8
annotation
62
1
39
211
10
460.963602
20
54.446128
11
460.815205
21
54.052604
0
LINE
8
annotation
62
1
39
211
10
460.815205
20
54.052604
11
460.723354
21
53.636971
0
LINE
8
annotation
62
1
39
211
10
460.723354
20
53.636971
11
460.691885
21
53.204382
0
LINE
8
annotation
62
1
39
211
10
460.691885
20
53.204382
11
460.691885
21
51.077203
0
LINE
8
annotation
62
1
39
211
10
460.691885
20
51.077203
11
460.691885
21
51.077203
0
LINE
8
annotation
62
1
39
211
10
460.691885
20
51.077203
11
460.714830
21
50.821542
0
LINE
8
annotation
62
1
39
211
10
460.714830
20
50.821542
11
460.780967
21
50.580879
0
LINE
8
annotation
62
1
39
211
10
460.780967
20
50.580879
11
460.886244
21
50.359239
0
LINE
8
annotation
62
1
39
211
10
460.886244
20
50.359239
11
461.026613
21
50.160650
0
LINE
8
annotation
62
1
39
211
10
461.026613
20
50.160650
11
461.198024
21
49.989138
0
LINE
8
annotation
62
1
39
211
10
461.198024
20
49.989138
11
461.396426
21
49.848731
0
LINE
8
annotation
62
1
39
211
10
461.396426
20
49.848731
11
461.617769
21
49.743454
0
LINE
8
annotation
62
1
39
211
10
461.617769
20
49.743454
11
461.858004
21
49.677335
0
LINE
8
annotation
62
1
39
211
10
461.858004
20
49.677335
11
462.113081
21
49.654401
0
LINE
8
annotation
62
1
39
211
10
462.113081
20
49.654401
11
462.113081
21
49.654401
0
LINE
8
annotation
62
1
39
211
10
462.113081
20
49.654401
11
462.368687
21
49.677335
0
LINE
8
annotation
62
1
39
211
10
462.368687
20
49.677335
11
462.609203
21
49.743454
0
LINE
8
annotation
62
1
39
211
10
462.609203
20
49.743454
11
462.830629
21
49.848731
0
LINE
8
annotation
62
1
39
211
10
462.830629
20
49.848731
11
463.028965
21
49.989138
0
LINE
8
annotation
62
1
39
211
10
463.028965
20
49.989138
11
463.200210
21
50.160650
0
LINE
8
annotation
62
1
39
211
10
463.200210
20
50.160650
11
463.340364
21
50.359239
0
LINE
8
annotation
62
1
39
211
10
463.340364
20
50.359239
11
463.445427
21
50.580879
0
LINE
8
annotation
62
1
39
211
10
463.445427
20
50.580879
11
463.511398
21
50.821542
0
LINE
8
annotation
62
1
39
211
10
463.511398
20
50.821542
11
463.534278
21
51.077203
0
LINE
8
annotation
62
1
39
211
10
463.534278
20
51.077203
11
463.534278
21
51.785192
0
LINE
8
annotation
62
1
39
211
10
463.534278
20
51.785192
11
463.534278
21
51.785192
0
LINE
8
annotation
62
1
39
211
10
463.534278
20
51.785192
11
463.511398
21
52.040729
0
LINE
8
annotation
62
1
39
211
10
463.511398
20
52.040729
11
463.445427
21
52.281061
0
LINE
8
annotation
62
1
39
211
10
463.445427
20
52.281061
11
463.340364
21
52.502220
0
LINE
8
annotation
62
1
39
211
10
463.340364
20
52.502220
11
463.200210
21
52.700239
0
LINE
8
annotation
62
1
39
211
10
463.200210
20
52.700239
11
463.028965
21
52.871151
0
LINE
8
annotation
62
1
39
211
10
463.028965
20
52.871151
11
462.830629
21
53.010989
0
LINE
8
annotation
62
1
39
211
10
462.830629
20
53.010989
11
462.609203
21
53.115784
0
LINE
8
annotation
62
1
39
211
10
462.609203
20
53.115784
11
462.368687
21
53.181571
0
LINE
8
annotation
62
1
39
211
10
462.368687
20
53.181571
11
462.113081
21
53.204382
0
LINE
8
annotation
62
1
39
211
10
462.113081
20
53.204382
11
460.691885
21
53.204382
0
LINE
8
annotation
62
1
39
211
10
460.513884
20
48.854401
11
463.713884
21
48.854401
0
LINE
8
annotation
62
1
39
211
10
459.128095
20
70.248666
11
460.550897
21
76.648666
0
LINE
8
annotation
62
1
39
211
10
460.550897
20
76.648666
11
457.704892
21
76.648666
0
LINE
8
annotation
62
1
39
211
10
460.550897
20
73.798647
11
459.128095
21
73.798647
0
LINE
8
annotation
62
1
39
211
10
464.554088
20
34.032086
11
458.281365
21
34.032086
0
LINE
8
annotation
62
1
39
211
10
458.281365
20
34.032086
11
464.554088
21
45.329221
0
LINE
8
annotation
62
1
39
211
10
464.554088
20
45.329221
11
458.281365
21
45.329221
0
LINE
8
annotation
62
1
39
211
10
474.968657
20
39.680653
11
468.791576
21
39.680653
0
LINE
8
annotation
62
1
39
211
10
485.476742
20
36.543583
11
479.204019
21
36.543583
0
LINE
8
annotation
62
1
39
211
10
479.204019
20
36.543583
11
481.709141
21
45.329221
0
LINE
8
annotation
62
1
39
211
10
483.596484
20
34.032086
11
483.596484
21
39.049413
0
LINE
8
boundary
62
5
39
2
10
505.661524
20
11.085005
11
508.101451
21
8.762654
0
LINE
8
boundary
62
5
39
2
10
508.101451
20
8.762654
11
516.382761
21
7.173240
0
LINE
8
boundary
62
5
39
2
10
516.382761
20
7.173240
11
519.788638
21
6.587500
0
LINE
8
boundary
62
5
39
2
10
519.788638
20
6.587500
11
529.026863
21
6.964972
0
LINE
8
boundary
62
5
39
2
10
529.026863
20
6.964972
11
530.990104
21
6.973181
0
LINE
8
boundary
62
5
39
2
10
530.990104
20
6.973181
11
537.620214
21
8.183262
0
LINE
8
boundary
62
5
39
2
10
537.620214
20
8.183262
11
539.214321
21
8.378028
0
LINE
8
boundary
62
5
39
2
10
539.214321
20
8.378028
11
544.085654
21
8.917592
0
LINE
8
boundary
62
5
39
2
10
544.085654
20
8.917592
11
546.091684
21
8.910931
0
LINE
8
boundary
62
5
39
2
10
546.091684
20
8.910931
11
550.162246
21
8.692805
0
LINE
8
boundary
62
5
39
2
10
550.162246
20
8.692805
11
554.570418
21
9.393869
0
LINE
8
boundary
62
5
39
2
10
554.570418
20
9.393869
11
556.960104
21
9.068218
0
LINE
8
boundary
62
5
39
2
10
556.960104
20
9.068218
11
560.602809
21
9.303025
0
LINE
8
boundary
62
5
39
2
10
560.602809
20
9.303025
11
561.836321
21
9.445557
0
LINE
8
boundary
62
5
39
2
10
561.836321
20
9.445557
11
565.246288
21
8.591293
0
LINE
8
boundary
62
5
39
2
10
565.246288
20
8.591293
11
565.802146
21
8.584739
0
LINE
8
boundary
62
5
39
2
10
565.802146
20
8.584739
11
567.937753
21
8.832069
0
LINE
8
boundary
62
5
39
2
10
567.937753
20
8.832069
11
570.076829
21
9.200418
0
LINE
8
boundary
62
5
39
2
10
570.076829
20
9.200418
11
574.125144
21
9.308867
0
LINE
8
boundary
62
5
39
2
10
574.125144
20
9.308867
11
575.293130
21
9.660581
0
LINE
8
boundary
62
5
39
2
10
575.293130
20
9.660581
11
577.830906
21
10.352088
0
LINE
8
boundary
62
5
39
2
10
577.830906
20
10.352088
11
581.217047
21
11.256035
0
LINE
8
boundary
62
5
39
2
10
581.217047
20
11.256035
11
583.566367
21
12.988053
0
LINE
8
boundary
62
5
39
2
10
583.566367
20
12.988053
11
587.642754
21
14.620071
0
LINE
8
boundary
62
5
39
2
10
587.642754
20
14.620071
11
588.246896
21
15.668538
0
LINE
8
boundary
62
5
39
2
10
588.246896
20
15.668538
11
591.501907
21
20.881383
0
LINE
8
boundary
62
5
39
2
10
591.501907
20
20.881383
11
590.089613
21
27.052589
0
LINE
8
boundary
62
5
39
2
10
590.089613
20
27.052589
11
586.912873
21
31.499032
0
LINE
8
boundary
62
5
39
2
10
586.912873
20
31.499032
11
585.495362
21
32.618587
0
LINE
8
boundary
62
5
39
2
10
585.495362
20
32.618587
11
582.883530
21
34.145559
0
LINE
8
boundary
62
5
39
2
10
582.883530
20
34.145559
11
578.862702
21
33.537086
0
LINE
8
boundary
62
5
39
2
10
578.862702
20
33.537086
11
577.435518
21
34.209653
0
LINE
8
boundary
62
5
39
2
10
577.435518
20
34.209653
11
573.795410
21
34.870907
0
LINE
8
boundary
62
5
39
2
10
573.795410
20
34.870907
11
571.143603
21
35.565160
0
LINE
8
boundary
62
5
39
2
10
571.143603
20
35.565160
11
568.768500
21
36.469711
0
LINE
8
boundary
62
5
39
2
10
568.768500
20
36.469711
11
567.088249
21
37.011839
0
LINE
8
boundary
62
5
39
2
10
567.088249
20
37.011839
11
563.635819
21
38.162746
0
LINE
8
boundary
62
5
39
2
10
563.635819
20
38.162746
11
562.544262
21
38.212513
0
LINE
8
boundary
62
5
39
2
10
562.544262
20
38.212513
11
557.739496
21
39.401761
0
LINE
8
boundary
62
5
39
2
10
557.739496
20
39.401761
11
556.888361
21
39.705589
0
LINE
8
boundary
62
5
39
2
10
556.888361
20
39.705589
11
552.371996
21
41.472049
0
LINE
8
boundary
62
5
39
2
10
552.371996
20
41.472049
11
551.182507
21
41.879428
0
LINE
8
boundary
62
5
39
2
10
551.182507
20
41.879428
11
547.671619
21
43.132919
0
LINE
8
boundary
62
5
39
2
10
547.671619
20
43.132919
11
544.391147
21
43.981298
0
LINE
8
boundary
62
5
39
2
10
544.391147
20
43.981298
11
542.052283
21
44.542800
0
LINE
8
boundary
62
5
39
2
10
542.052283
20
44.542800
11
538.881915
21
45.004659
0
LINE
8
boundary
62
5
39
2
10
538.881915
20
45.004659
11
535.833262
21
45.315106
0
LINE
8
boundary
62
5
39
2
10
535.833262
20
45.315106
11
532.503246
21
45.963175
0
LINE
8
boundary
62
5
39
2
10
532.503246
20
45.963175
11
529.270060
21
46.490172
0
LINE
8
boundary
62
5
39
2
10
529.270060
20
46.490172
11
525.609385
21
46.020171
0
LINE
8
boundary
62
5
39
2
10
525.609385
20
46.020171
11
521.022365
21
47.100583
0
LINE
8
boundary
62
5
39
2
10
521.022365
20
47.100583
11
518.183492
21
45.329043
0
LINE
8
boundary
62
5
39
2
10
518.183492
20
45.329043
11
513.166270
21
44.382499
0
LINE
8
boundary
62
5
39
2
10
513.166270
20
44.382499
11
511.267502
21
42.218930
0
LINE
8
boundary
62
5
39
2
10
511.267502
20
42.218930
11
506.240276
21
37.198146
0
LINE
8
boundary
62
5
39
2
10
506.240276
20
37.198146
11
505.208816
21
35.653831
0
LINE
8
boundary
62
5
39
2
10
505.208816
20
35.653831
11
502.161468
21
31.114067
0
LINE
8
boundary
62
5
39
2
10
502.161468
20
31.114067
11
501.544142
21
28.226047
0
LINE
8
boundary
62
5
39
2
10
501.544142
20
28.226047
11
500.811295
21
25.330972
0
LINE
8
boundary
62
5
39
2
10
500.811295
20
25.330972
11
545.554744
21
25.130973
0
LINE
8
boundary
62
5
39
2
10
545.554744
20
25.130973
11
545.554744
21
21.384973
0
LINE
8
boundary
62
5
39
2
10
545.554744
20
21.384973
11
500.613845
21
21.384973
0
LINE
8
boundary
62
5
39
2
10
500.613845
20
21.384973
11
500.834931
21
19.279711
0
LINE
8
boundary
62
5
39
2
10
500.834931
20
19.279711
11
501.127250
21
14.359312
0
LINE
8
boundary
62
5
39
2
10
501.127250
20
14.359312
11
505.661524
21
11.085005
0
LINE
8
annotation
62
1
39
211
10
554.392543
20
20.057973
11
554.392543
21
26.457973
0
LINE
8
annotation
62
1
39
211
10
554.392543
20
26.457973
11
552.969741
21
25.034769
0
LINE
8
annotation
62
1
39
211
10
559.140021
20
28.920862
11
555.852465
21
24.165713
0
LINE
8
annotation
62
1
39
211
10
555.852465
20
24.165713
11
552.564290
21
28.920862
0
LINE
8
annotation
62
1
39
211
10
555.852465
20
24.548375
11
555.852465
21
19.062521
0
LINE
8
annotation
62
1
39
211
10
568.227937
20
23.991691
11
562.837903
21
23.991691
0
LINE
8
annotation
62
1
39
211
10
576.302451
20
19.062750
11
571.924400
21
19.062750
0
LINE
8
annotation
62
1
39
211
10
571.924400
20
19.062750
11
575.969862
21
25.575424
0
LINE
8
annotation
62
1
39
211
10
575.969862
20
25.575424
11
575.969862
21
25.575424
0
LINE
8
annotation
62
1
39
211
10
575.969862
20
25.575424
11
575.974698
21
25.581409
0
LINE
8
annotation
62
1
39
211
10
575.974698
20
25.581409
11
575.979336
21
25.587444
0
LINE
8
annotation
62
1
39
211
10
575.979336
20
25.587444
11
575.983806
21
25.593581
0
LINE
8
annotation
62
1
39
211
10
575.983806
20
25.593581
11
575.988138
21
25.599871
0
LINE
8
annotation
62
1
39
211
10
575.988138
20
25.599871
11
575.992364
21
25.606364
0
LINE
8
annotation
62
1
39
211
10
575.992364
20
25.606364
11
575.996513
21
25.613111
0
LINE
8
annotation
62
1
39
211
10
575.996513
20
25.613111
11
576.000617
21
25.620164
0
LINE
8
annotation
62
1
39
211
10
576.000617
20
25.620164
11
576.004705
21
25.627573
0
LINE
8
annotation
62
1
39
211
10
576.004705
20
25.627573
11
576.008809
21
25.635389
0
LINE
8
annotation
62
1
39
211
10
576.008809
20
25.635389
11
576.008809
21
25.635389
0
LINE
8
annotation
62
1
39
211
10
576.008809
20
25.635389
11
576.175845
21
25.994030
0
LINE
8
annotation
62
1
39
211
10
576.175845
20
25.994030
11
576.273424
21
26.365793
0
LINE
8
annotation
62
1
39
211
10
576.273424
20
26.365793
11
576.303939
21
26.742277
0
LINE
8
annotation
62
1
39
211
10
576.303939
20
26.742277
11
576.269780
21
27.115083
0
LINE
8
annotation
62
1
39
211
10
576.269780
20
27.115083
11
576.173338
21
27.475810
0
LINE
8
annotation
62
1
39
211
10
576.173338
20
27.475810
11
576.017005
21
27.816057
0
LINE
8
annotation
62
1
39
211
10
576.017005
20
27.816057
11
575.803173
21
28.127425
0
LINE
8
annotation
62
1
39
211
10
575.803173
20
28.127425
11
575.534232
21
28.401513
0
LINE
8
annotation
62
1
39
211
10
575.534232
20
28.401513
11
575.212575
21
28.629921
0
LINE
8
annotation
62
1
39
211
10
575.212575
20
28.629921
11
575.212575
21
28.629921
0
LINE
8
annotation
62
1
39
211
10
575.212575
20
28.629921
11
574.852937
21
28.794584
0
LINE
8
annotation
62
1
39
211
10
574.852937
20
28.794584
11
574.480604
21
28.890660
0
LINE
8
annotation
62
1
39
211
10
574.480604
20
28.890660
11
574.103901
21
28.920312
0
LINE
8
annotation
62
1
39
211
10
574.103901
20
28.920312
11
573.731151
21
28.885703
0
LINE
8
annotation
62
1
39
211
10
573.731151
20
28.885703
11
573.370678
21
28.788994
0
LINE
8
annotation
62
1
39
211
10
573.370678
20
28.788994
11
573.030807
21
28.632348
0
LINE
8
annotation
62
1
39
211
10
573.030807
20
28.632348
11
572.719862
21
28.417928
0
LINE
8
annotation
62
1
39
211
10
572.719862
20
28.417928
11
572.446165
21
28.147896
0
LINE
8
annotation
62
1
39
211
10
572.446165
20
28.147896
11
572.218042
21
27.824414
0
LINE
8
annotation
62
1
39
211
10
572.218042
20
27.824414
11
571.930582
21
27.272985
0
LINE
8
boundary
62
5
39
2
10
233.325232
20
98.085497
11
238.643021
21
93.609010
0
LINE
8
boundary
62
5
39
2
10
238.643021
20
93.609010
11
239.605648
21
92.826360
0
LINE
8
boundary
62
5
39
2
10
239.605648
20
92.826360
11
245.888563
21
90.583551
0
LINE
8
boundary
62
5
39
2
10
245.888563
20
90.583551
11
247.173160
21
90.128747
0
LINE
8
boundary
62
5
39
2
10
247.173160
20
90.128747
11
248.593271
21
89.979934
0
LINE
8
boundary
62
5
39
2
10
248.593271
20
89.979934
11
254.550664
21
88.721502
0
LINE
8
boundary
62
5
39
2
10
254.550664
20
88.721502
11
256.050262
21
88.882513
0
LINE
8
boundary
62
5
39
2
10
256.050262
20
88.882513
11
261.835100
21
88.873672
0
LINE
8
boundary
62
5
39
2
10
261.835100
20
88.873672
11
263.943487
21
89.768834
0
LINE
8
boundary
62
5
39
2
10
263.943487
20
89.768834
11
270.036119
21
91.630821
0
LINE
8
boundary
62
5
39
2
10
270.036119
20
91.630821
11
276.303260
21
96.462853
0
LINE
8
boundary
62
5
39
2
10
276.303260
20
96.462853
11
278.835417
21
98.456438
0
LINE
8
boundary
62
5
39
2
10
278.835417
20
98.456438
11
281.009049
21
101.897643
0
LINE
8
boundary
62
5
39
2
10
281.009049
20
101.897643
11
284.160143
21
106.639217
0
LINE
8
boundary
62
5
39
2
10
284.160143
20
106.639217
11
255.831129
21
106.839217
0
LINE
8
boundary
62
5
39
2
10
255.831129
20
106.839217
11
255.831129
21
110.585217
0
LINE
8
boundary
62
5
39
2
10
255.831129
20
110.585217
11
286.689222
21
110.585217
0
LINE
8
boundary
62
5
39
2
10
286.689222
20
110.585217
11
287.662496
21
115.550862
0
LINE
8
boundary
62
5
39
2
10
287.662496
20
115.550862
11
289.674028
21
126.165002
0
LINE
8
boundary
62
5
39
2
10
289.674028
20
126.165002
11
289.140618
21
131.858836
0
LINE
8
boundary
62
5
39
2
10
289.140618
20
131.858836
11
254.512542
21
132.058836
0
LINE
8
boundary
62
5
39
2
10
254.512542
20
132.058836
11
254.512542
21
135.804836
0
LINE
8
boundary
62
5
39
2
10
254.512542
20
135.804836
11
288.645279
21
135.804836
0
LINE
8
boundary
62
5
39
2
10
288.645279
20
135.804836
11
288.006344
21
142.609895
0
LINE
8
boundary
62
5
39
2
10
288.006344
20
142.609895
11
286.183768
21
146.575858
0
LINE
8
boundary
62
5
39
2
10
286.183768
20
146.575858
11
283.881377
21
152.453101
0
LINE
8
boundary
62
5
39
2
10
283.881377
20
152.453101
11
254.677509
21
152.653101
0
LINE
8
boundary
62
5
39
2
10
254.677509
20
152.653101
11
254.677509
21
156.399101
0
LINE
8
boundary
62
5
39
2
10
254.677509
20
156.399101
11
281.369818
21
156.399101
0
LINE
8
boundary
62
5
39
2
10
281.369818
20
156.399101
11
280.396891
21
158.057860
0
LINE
8
boundary
62
5
39
2
10
280.396891
20
158.057860
11
273.727112
21
165.847758
0
LINE
8
boundary
62
5
39
2
10
273.727112
20
165.847758
11
268.647246
21
168.883839
0
LINE
8
boundary
62
5
39
2
10
268.647246
20
168.883839
11
260.871114
21
172.068258
0
LINE
8
boundary
62
5
39
2
10
260.871114
20
172.068258
11
256.527816
21
172.668724
0
LINE
8
boundary
62
5
39
2
10
256.527816
20
172.668724
11
248.222175
21
172.527765
0
LINE
8
boundary
62
5
39
2
10
248.222175
20
172.527765
11
240.855433
21
169.568585
0
LINE
8
boundary
62
5
39
2
10
240.855433
20
169.568585
11
238.190505
21
168.388387
0
LINE
8
boundary
62
5
39
2
10
238.190505
20
168.388387
11
232.155703
21
162.113240
0
LINE
8
boundary
62
5
39
2
10
232.155703
20
162.113240
11
230.063632
21
160.109926
0
LINE
8
boundary
62
5
39
2
10
230.063632
20
160.109926
11
223.770921
21
150.720134
0
LINE
8
boundary
62
5
39
2
10
223.770921
20
150.720134
11
222.722442
21
148.518737
0
LINE
8
boundary
62
5
39
2
10
222.722442
20
148.518737
11
219.869423
21
135.029033
0
LINE
8
boundary
62
5
39
2
10
219.869423
20
135.029033
11
219.788859
21
131.934348
0
LINE
8
boundary
62
5
39
2
10
219.788859
20
131.934348
11
221.945339
21
119.978002
0
LINE
8
boundary
62
5
39
2
10
221.945339
20
119.978002
11
222.545429
21
117.586752
0
LINE
8
boundary
62
5
39
2
10
222.545429
20
117.586752
11
226.279701
21
108.625040
0
LINE
8
boundary
62
5
39
2
10
226.279701
20
108.625040
11
227.035959
21
106.920888
0
LINE
8
boundary
62
5
39
2
10
227.035959
20
106.920888
11
232.366501
21
99.374189
0
LINE
8
boundary
62
5
39
2
10
232.366501
20
99.374189
11
233.325232
21
98.085497
0
LINE
8
annotation
62
1
39
211
10
246.282130
20
105.512217
11
247.703326
21
105.512217
0
LINE
8
annotation
62
1
39
211
10
247.703326
20
105.512217
11
247.703326
21
105.512217
0
LINE
8
annotation
62
1
39
211
10
247.703326
20
105.512217
11
247.958404
21
105.535151
0
LINE
8
annotation
62
1
39
211
10
247.958404
20
105.535151
11
248.198639
21
105.601270
0
LINE
8
annotation
62
1
39
211
10
248.198639
20
105.601270
11
248.419982
21
105.706547
0
LINE
8
annotation
62
1
39
211
10
248.419982
20
105.706547
11
248.618384
21
105.846954
0
LINE
8
annotation
62
1
39
211
10
248.618384
20
105.846954
11
248.789794
21
106.018466
0
LINE
8
annotation
62
1
39
211
10
248.789794
20
106.018466
11
248.930163
21
106.217055
0
LINE
8
annotation
62
1
39
211
10
248.930163
20
106.217055
11
249.035441
21
106.438695
0
LINE
8
annotation
62
1
39
211
10
249.035441
20
106.438695
11
249.101578
21
106.679358
0
LINE
8
annotation
62
1
39
211
10
249.101578
20
106.679358
11
249.124523
21
106.935019
0
LINE
8
annotation
62
1
39
211
10
249.124523
20
106.935019
11
249.124523
21
107.643008
0
LINE
8
annotation
62
1
39
211
10
249.124523
20
107.643008
11
249.124523
21
107.643008
0
LINE
8
annotation
62
1
39
211
10
249.124523
20
107.643008
11
249.101591
21
107.898545
0
LINE
8
annotation
62
1
39
211
10
249.101591
20
107.898545
11
249.035487
21
108.138877
0
LINE
8
annotation
62
1
39
211
10
249.035487
20
108.138877
11
248.930253
21
108.360036
0
LINE
8
annotation
62
1
39
211
10
248.930253
20
108.360036
11
248.789927
21
108.558055
0
LINE
8
annotation
62
1
39
211
10
248.789927
20
108.558055
11
248.618549
21
108.728967
0
LINE
8
annotation
62
1
39
211
10
248.618549
20
108.728967
11
248.420161
21
108.868805
0
LINE
8
annotation
62
1
39
211
10
248.420161
20
108.868805
11
248.198801
21
108.973601
0
LINE
8
annotation
62
1
39
211
10
248.198801
20
108.973601
11
247.958509
21
109.039388
0
LINE
8
annotation
62
1
39
211
10
247.958509
20
109.039388
11
247.703326
21
109.062198
0
LINE
8
annotation
62
1
39
211
10
247.703326
20
109.062198
11
246.282130
21
109.062198
0
LINE
8
annotation
62
1
39
211
10
246.282130
20
109.062198
11
246.282130
21
111.912217
0
LINE
8
annotation
62
1
39
211
10
246.282130
20
111.912217
11
249.124523
21
111.912217
0
LINE
8
annotation
62
1
39
211
10
247.098348
20
137.131836
11
247.098348
21
137.131836
0
LINE
8
annotation
62
1
39
211
10
247.098348
20
137.131836
11
246.691211
21
136.979184
0
LINE
8
annotation
62
1
39
211
10
246.691211
20
136.979184
11
246.317609
21
136.773504
0
LINE
8
annotation
62
1
39
211
10
246.317609
20
136.773504
11
245.981378
21
136.519948
0
LINE
8
annotation
62
1
39
211
10
245.981378
20
136.519948
11
245.686353
21
136.223671
0
LINE
8
annotation
62
1
39
211
10
245.686353
20
136.223671
11
245.436368
21
135.889825
0
LINE
8
annotation
62
1
39
211
10
245.436368
20
135.889825
11
245.235260
21
135.523563
0
LINE
8
annotation
62
1
39
211
10
245.235260
20
135.523563
11
245.086863
21
135.130039
0
LINE
8
annotation
62
1
39
211
10
245.086863
20
135.130039
11
244.995012
21
134.714406
0
LINE
8
annotation
62
1
39
211
10
244.995012
20
134.714406
11
244.963543
21
134.281817
0
LINE
8
annotation
62
1
39
211
10
244.963543
20
134.281817
11
244.963543
21
132.154638
0
LINE
8
annotation
62
1
39
211
10
244.963543
20
132.154638
11
244.963543
21
132.154638
0
LINE
8
annotation
62
1
39
211
10
244.963543
20
132.154638
11
244.986488
21
131.898977
0
LINE
8
annotation
62
1
39
211
10
244.986488
20
131.898977
11
245.052625
21
131.658313
0
LINE
8
annotation
62
1
39
211
10
245.052625
20
131.658313
11
245.157902
21
131.436674
0
LINE
8
annotation
62
1
39
211
10
245.157902
20
131.436674
11
245.298271
21
131.238085
0
LINE
8
annotation
62
1
39
211
10
245.298271
20
131.238085
11
245.469682
21
131.066573
0
LINE
8
annotation
62
1
39
211
10
245.469682
20
131.066573
11
245.668083
21
130.926166
0
LINE
8
annotation
62
1
39
211
10
245.668083
20
130.926166
11
245.889427
21
130.820889
0
LINE
8
annotation
62
1
39
211
10
245.889427
20
130.820889
11
246.129662
21
130.754770
0
LINE
8
annotation
62
1
39
211
10
246.129662
20
130.754770
11
246.384739
21
130.731836
0
LINE
8
annotation
62
1
39
211
10
246.384739
20
130.731836
11
246.384739
21
130.731836
0
LINE
8
annotation
62
1
39
211
10
246.384739
20
130.731836
11
246.640345
21
130.754770
0
LINE
8
annotation
62
1
39
211
10
246.640345
20
130.754770
11
246.880861
21
130.820889
0
LINE
8
annotation
62
1
39
211
10
246.880861
20
130.820889
11
247.102287
21
130.926166
0
LINE
8
annotation
62
1
39
211
10
247.102287
20
130.926166
11
247.300623
21
131.066573
0
LINE
8
annotation
62
1
39
211
10
247.300623
20
131.066573
11
247.471868
21
131.238085
0
LINE
8
annotation
62
1
39
211
10
247.471868
20
131.238085
11
247.612022
21
131.436674
0
LINE
8
annotation
62
1
39
211
10
247.612022
20
131.436674
11
247.717085
21
131.658313
0
LINE
8
annotation
62
1
39
211
10
247.717085
20
131.658313
11
247.783056
21
131.898977
0
LINE
8
annotation
62
1
39
211
10
247.783056
20
131.898977
11
247.805936
21
132.154638
0
LINE
8
annotation
62
1
39
211
10
247.805936
20
132.154638
11
247.805936
21
132.862627
0
LINE
8
annotation
62
1
39
211
10
247.805936
20
132.862627
11
247.805936
21
132.862627
0
LINE
8
annotation
62
1
39
211
10
247.805936
20
132.862627
11
247.783056
21
133.118164
0
LINE
8
annotation
62
1
39
211
10
247.783056
20
133.118164
11
247.717085
21
133.358495
0
LINE
8
annotation
62
1
39
211
10
247.717085
20
133.358495
11
247.612022
21
133.579654
0
LINE
8
annotation
62
1
39
211
10
247.612022
20
133.579654
11
247.471868
21
133.777674
0
LINE
8
annotation
62
1
39
211
10
247.471868
20
133.777674
11
247.300623
21
133.948586
0
LINE
8
annotation
62
1
39
211
10
247.300623
20
133.948586
11
247.102287
21
134.088423
0
LINE
8
annotation
62
1
39
211
10
247.102287
20
134.088423
11
246.880861
21
134.193219
0
LINE
8
annotation
62
1
39
211
10
246.880861
20
134.193219
11
246.640345
21
134.259006
0
LINE
8
annotation
62
1
39
211
10
246.640345
20
134.259006
11
246.384739
21
134.281817
0
LINE
8
annotation
62
1
39
211
10
246.384739
20
134.281817
11
244.963543
21
134.281817
0
LINE
8
annotation
62
1
39
211
10
244.785542
20
129.931836
11
247.985542
21
129.931836
0
LINE
8
annotation
62
1
39
211
10
246.549706
20
151.326101
11
247.972508
21
157.726101
0
LINE
8
annotation
62
1
39
211
10
247.972508
20
157.726101
11
245.126503
21
157.726101
0
LINE
8
annotation
62
1
39
211
10
247.972508
20
154.876082
11
246.549706
21
154.876082
0
LINE
8
annotation
62
1
39
211
10
247.562857
20
115.467663
11
240.850115
21
115.467663
0
LINE
8
annotation
62
1
39
211
10
240.850115
20
115.467663
11
247.562857
21
127.557272
0
LINE
8
annotation
62
1
39
211
10
247.562857
20
127.557272
11
240.850115
21
127.557272
0
LINE
8
annotation
62
1
39
211
10
258.707989
20
121.512467
11
252.097598
21
121.512467
0
LINE
8
annotation
62
1
39
211
10
267.273105
20
127.557272
11
267.273105
21
127.557272
0
LINE
8
annotation
62
1
39
211
10
267.273105
20
127.557272
11
266.504022
21
127.268912
0
LINE
8
annotation
62
1
39
211
10
266.504022
20
127.268912
11
265.798288
21
126.880382
0
LINE
8
annotation
62
1
39
211
10
265.798288
20
126.880382
11
265.163147
21
126.401416
0
LINE
8
annotation
62
1
39
211
10
265.163147
20
126.401416
11
264.605844
21
125.841747
0
LINE
8
annotation
62
1
39
211
10
264.605844
20
125.841747
11
264.133623
21
125.211112
0
LINE
8
annotation
62
1
39
211
10
264.133623
20
125.211112
11
263.753729
21
124.519243
0
LINE
8
annotation
62
1
39
211
10
263.753729
20
124.519243
11
263.473407
21
123.775875
0
LINE
8
annotation
62
1
39
211
10
263.473407
20
123.775875
11
263.299901
21
122.990744
0
LINE
8
annotation
62
1
39
211
10
263.299901
20
122.990744
11
263.240455
21
122.173582
0
LINE
8
annotation
62
1
39
211
10
263.240455
20
122.173582
11
263.240455
21
118.155338
0
LINE
8
annotation
62
1
39
211
10
263.240455
20
118.155338
11
263.240455
21
118.155338
0
LINE
8
annotation
62
1
39
211
10
263.240455
20
118.155338
11
263.283799
21
117.672394
0
LINE
8
annotation
62
1
39
211
10
263.283799
20
117.672394
11
263.408731
21
117.217781
0
LINE
8
annotation
62
1
39
211
10
263.408731
20
117.217781
11
263.607601
21
116.799103
0
LINE
8
annotation
62
1
39
211
10
263.607601
20
116.799103
11
263.872758
21
116.423968
0
LINE
8
annotation
62
1
39
211
10
263.872758
20
116.423968
11
264.196553
21
116.099982
0
LINE
8
annotation
62
1
39
211
10
264.196553
20
116.099982
11
264.571334
21
115.834752
0
LINE
8
annotation
62
1
39
211
10
264.571334
20
115.834752
11
264.989452
21
115.635885
0
LINE
8
annotation
62
1
39
211
10
264.989452
20
115.635885
11
265.443257
21
115.510986
0
LINE
8
annotation
62
1
39
211
10
265.443257
20
115.510986
11
265.925098
21
115.467663
0
LINE
8
annotation
62
1
39
211
10
265.925098
20
115.467663
11
265.925098
21
115.467663
0
LINE
8
annotation
62
1
39
211
10
265.925098
20
115.467663
11
266.407937
21
115.510986
0
LINE
8
annotation
62
1
39
211
10
266.407937
20
115.510986
11
266.862272
21
115.635885
0
LINE
8
annotation
62
1
39
211
10
266.862272
20
115.635885
11
267.280546
21
115.834752
0
LINE
8
annotation
62
1
39
211
10
267.280546
20
115.834752
11
267.655203
21
116.099982
0
LINE
8
annotation
62
1
39
211
10
267.655203
20
116.099982
11
267.978685
21
116.423968
0
LINE
8
annotation
62
1
39
211
10
267.978685
20
116.423968
11
268.243437
21
116.799103
0
LINE
8
annotation
62
1
39
211
10
268.243437
20
116.799103
11
268.441901
21
117.217781
0
LINE
8
annotation
62
1
39
211
10
268.441901
20
117.217781
11
268.566521
21
117.672394
0
LINE
8
annotation
62
1
39
211
10
268.566521
20
117.672394
11
268.609740
21
118.155338
0
LINE
8
annotation
62
1
39
211
10
268.609740
20
118.155338
11
268.609740
21
119.492731
0
LINE
8
annotation
62
1
39
211
10
268.609740
20
119.492731
11
268.609740
21
119.492731
0
LINE
8
annotation
62
1
39
211
10
268.609740
20
119.492731
11
268.566521
21
119.975440
0
LINE
8
annotation
62
1
39
211
10
268.566521
20
119.975440
11
268.441901
21
120.429427
0
LINE
8
annotation
62
1
39
211
10
268.441901
20
120.429427
11
268.243437
21
120.847196
0
LINE
8
annotation
62
1
39
211
10
268.243437
20
120.847196
11
267.978685
21
121.221255
0
LINE
8
annotation
62
1
39
211
10
267.978685
20
121.221255
11
267.655203
21
121.544108
0
LINE
8
annotation
62
1
39
211
10
267.655203
20
121.544108
11
267.280546
21
121.808262
0
LINE
8
annotation
62
1
39
211
10
267.280546
20
121.808262
11
266.862272
21
122.006221
0
LINE
8
annotation
62
1
39
211
10
266.862272
20
122.006221
11
266.407937
21
122.130493
0
LINE
8
annotation
62
1
39
211
10
266.407937
20
122.130493
11
265.925098
21
122.173582
0
LINE
8
annotation
62
1
39
211
10
265.925098
20
122.173582
11
263.240455
21
122.173582
0
LINE
8
annotation
62
1
39
211
10
262.904212
20
113.956462
11
268.949016
21
113.956462
0
LINE
8
boundary
62
5
39
2
10
225.853592
20
188.690458
11
230.135460
21
181.316229
0
LINE
8
boundary
62
5
39
2
10
230.135460
20
181.316229
11
234.729299
21
177.479194
0
LINE
8
boundary
62
5
39
2
10
234.729299
20
177.479194
11
235.747717
21
176.710407
0
LINE
8
boundary
62
5
39
2
10
235.747717
20
176.710407
11
240.159416
21
175.918281
0
LINE
8
boundary
62
5
39
2
10
240.159416
20
175.918281
11
242.766630
21
176.426820
0
LINE
8
boundary
62
5
39
2
10
242.766630
20
176.426820
11
244.722441
21
176.730094
0
LINE
8
boundary
62
5
39
2
10
244.722441
20
176.730094
11
249.137803
21
178.178659
0
LINE
8
boundary
62
5
39
2
10
249.137803
20
178.178659
11
249.886573
21
178.459391
0
LINE
8
boundary
62
5
39
2
10
249.886573
20
178.459391
11
254.347100
21
180.976968
0
LINE
8
boundary
62
5
39
2
10
254.347100
20
180.976968
11
255.042830
21
181.519908
0
LINE
8
boundary
62
5
39
2
10
255.042830
20
181.519908
11
260.430924
21
186.314692
0
LINE
8
boundary
62
5
39
2
10
260.430924
20
186.314692
11
261.406510
21
187.448215
0
LINE
8
boundary
62
5
39
2
10
261.406510
20
187.448215
11
266.141162
21
193.336509
0
LINE
8
boundary
62
5
39
2
10
266.141162
20
193.336509
11
269.586478
21
201.742885
0
LINE
8
boundary
62
5
39
2
10
269.586478
20
201.742885
11
270.660337
21
203.968584
0
LINE
8
boundary
62
5
39
2
10
270.660337
20
203.968584
11
271.035217
21
205.544176
0
LINE
8
boundary
62
5
39
2
10
271.035217
20
205.544176
11
246.067523
21
205.744176
0
LINE
8
boundary
62
5
39
2
10
246.067523
20
205.744176
11
246.067523
21
209.490176
0
LINE
8
boundary
62
5
39
2
10
246.067523
20
209.490176
11
271.961372
21
209.490176
0
LINE
8
boundary
62
5
39
2
10
271.961372
20
209.490176
11
273.549125
21
216.109954
0
LINE
8
boundary
62
5
39
2
10
273.549125
20
216.109954
11
273.791782
21
217.406435
0
LINE
8
boundary
62
5
39
2
10
273.791782
20
217.406435
11
273.726654
21
218.844856
0
LINE
8
boundary
62
5
39
2
10
273.726654
20
218.844856
11
273.548985
21
230.540246
0
LINE
8
boundary
62
5
39
2
10
273.548985
20
230.540246
11
247.530670
21
230.963795
0
LINE
8
boundary
62
5
39
2
10
247.530670
20
230.963795
11
247.530670
21
234.709795
0
LINE
8
boundary
62
5
39
2
10
247.530670
20
234.709795
11
271.813050
21
234.709795
0
LINE
8
boundary
62
5
39
2
10
271.813050
20
234.709795
11
270.140861
21
239.427601
0
LINE
8
boundary
62
5
39
2
10
270.140861
20
239.427601
11
269.902147
21
240.495449
0
LINE
8
boundary
62
5
39
2
10
269.902147
20
240.495449
11
262.976340
21
247.709450
0
LINE
8
boundary
62
5
39
2
10
262.976340
20
247.709450
11
262.117018
21
248.760400
0
LINE
8
boundary
62
5
39
2
10
262.117018
20
248.760400
11
259.142005
21
251.358060
0
LINE
8
boundary
62
5
39
2
10
259.142005
20
251.358060
11
244.299014
21
251.558060
0
LINE
8
boundary
62
5
39
2
10
244.299014
20
251.558060
11
244.299014
21
255.304060
0
LINE
8
boundary
62
5
39
2
10
244.299014
20
255.304060
11
254.333431
21
255.304060
0
LINE
8
boundary
62
5
39
2
10
254.333431
20
255.304060
11
252.461096
21
257.191559
0
LINE
8
boundary
62
5
39
2
10
252.461096
20
257.191559
11
250.957949
21
258.193123
0
LINE
8
boundary
62
5
39
2
10
250.957949
20
258.193123
11
242.419623
21
263.986404
0
LINE
8
boundary
62
5
39
2
10
242.419623
20
263.986404
11
240.386036
21
262.019170
0
LINE
8
boundary
62
5
39
2
10
240.386036
20
262.019170
11
232.740883
21
255.450697
0
LINE
8
boundary
62
5
39
2
10
232.740883
20
255.450697
11
228.600710
21
248.488197
0
LINE
8
boundary
62
5
39
2
10
228.600710
20
248.488197
11
224.106460
21
240.827693
0
LINE
8
boundary
62
5
39
2
10
224.106460
20
240.827693
11
222.359381
21
234.005327
0
LINE
8
boundary
62
5
39
2
10
222.359381
20
234.005327
11
219.788859
21
224.678410
0
LINE
8
boundary
62
5
39
2
10
219.788859
20
224.678410
11
220.078592
21
214.837559
0
LINE
8
boundary
62
5
39
2
10
220.078592
20
214.837559
11
220.152020
21
208.701759
0
LINE
8
boundary
62
5
39
2
10
220.152020
20
208.701759
11
221.483662
21
203.653679
0
LINE
8
boundary
62
5
39
2
10
221.483662
20
203.653679
11
223.821991
21
194.077663
0
LINE
8
boundary
62
5
39
2
10
223.821991
20
194.077663
11
225.853592
21
188.690458
0
LINE
8
annotation
62
1
39
211
10
236.518524
20
204.417176
11
237.939721
21
204.417176
0
LINE
8
annotation
62
1
39
211
10
237.939721
20
204.417176
11
237.939721
21
204.417176
0
LINE
8
annotation
62
1
39
211
10
237.939721
20
204.417176
11
238.194798
21
204.440111
0
LINE
8
annotation
62
1
39
211
10
238.194798
20
204.440111
11
238.435033
21
204.506230
0
LINE
8
annotation
62
1
39
211
10
238.435033
20
204.506230
11
238.656376
21
204.611506
0
LINE
8
annotation
62
1
39
211
10
238.656376
20
204.611506
11
238.854778
21
204.751914
0
LINE
8
annotation
62
1
39
211
10
238.854778
20
204.751914
11
239.026189
21
204.923425
0
LINE
8
annotation
62
1
39
211
10
239.026189
20
204.923425
11
239.166557
21
205.122015
0
LINE
8
annotation
62
1
39
211
10
239.166557
20
205.122015
11
239.271835
21
205.343654
0
LINE
8
annotation
62
1
39
211
10
239.271835
20
205.343654
11
239.337972
21
205.584318
0
LINE
8
annotation
62
1
39
211
10
239.337972
20
205.584318
11
239.360917
21
205.839978
0
LINE
8
annotation
62
1
39
211
10
239.360917
20
205.839978
11
239.360917
21
206.547968
0
LINE
8
annotation
62
1
39
211
10
239.360917
20
206.547968
11
239.360917
21
206.547968
0
LINE
8
annotation
62
1
39
211
10
239.360917
20
206.547968
11
239.337985
21
206.803505
0
LINE
8
annotation
62
1
39
211
10
239.337985
20
206.803505
11
239.271881
21
207.043836
0
LINE
8
annotation
62
1
39
211
10
239.271881
20
207.043836
11
239.166647
21
207.264995
0
LINE
8
annotation
62
1
39
211
10
239.166647
20
207.264995
11
239.026321
21
207.463014
0
LINE
8
annotation
62
1
39
211
10
239.026321
20
207.463014
11
238.854943
21
207.633927
0
LINE
8
annotation
62
1
39
211
10
238.854943
20
207.633927
11
238.656555
21
207.773764
0
LINE
8
annotation
62
1
39
211
10
238.656555
20
207.773764
11
238.435195
21
207.878560
0
LINE
8
annotation
62
1
39
211
10
238.435195
20
207.878560
11
238.194903
21
207.944347
0
LINE
8
annotation
62
1
39
211
10
238.194903
20
207.944347
11
237.939721
21
207.967158
0
LINE
8
annotation
62
1
39
211
10
237.939721
20
207.967158
11
236.518524
21
207.967158
0
LINE
8
annotation
62
1
39
211
10
236.518524
20
207.967158
11
236.518524
21
210.817176
0
LINE
8
annotation
62
1
39
211
10
236.518524
20
210.817176
11
239.360917
21
210.817176
0
LINE
8
annotation
62
1
39
211
10
240.116475
20
236.036795
11
240.116475
21
236.036795
0
LINE
8
annotation
62
1
39
211
10
240.116475
20
236.036795
11
239.709338
21
235.884143
0
LINE
8
annotation
62
1
39
211
10
239.709338
20
235.884143
11
239.335737
21
235.678463
0
LINE
8
annotation
62
1
39
211
10
239.335737
20
235.678463
11
238.999506
21
235.424908
0
LINE
8
annotation
62
1
39
211
10
238.999506
20
235.424908
11
238.704480
21
235.128630
0
LINE
8
annotation
62
1
39
211
10
238.704480
20
235.128630
11
238.454496
21
234.794784
0
LINE
8
annotation
62
1
39
211
10
238.454496
20
234.794784
11
238.253387
21
234.428523
0
LINE
8
annotation
62
1
39
211
10
238.253387
20
234.428523
11
238.104990
21
234.034999
0
LINE
8
annotation
62
1
39
211
10
238.104990
20
234.034999
11
238.013139
21
233.619366
0
LINE
8
annotation
62
1
39
211
10
238.013139
20
233.619366
11
237.981670
21
233.186776
0
LINE
8
annotation
62
1
39
211
10
237.981670
20
233.186776
11
237.981670
21
231.059597
0
LINE
8
annotation
62
1
39
211
10
237.981670
20
231.059597
11
237.981670
21
231.059597
0
LINE
8
annotation
62
1
39
211
10
237.981670
20
231.059597
11
238.004616
21
230.803936
0
LINE
8
annotation
62
1
39
211
10
238.004616
20
230.803936
11
238.070752
21
230.563273
0
LINE
8
annotation
62
1
39
211
10
238.070752
20
230.563273
11
238.176030
21
230.341633
0
LINE
8
annotation
62
1
39
211
10
238.176030
20
230.341633
11
238.316399
21
230.143044
0
LINE
8
annotation
62
1
39
211
10
238.316399
20
230.143044
11
238.487809
21
229.971533
0
LINE
8
annotation
62
1
39
211
10
238.487809
20
229.971533
11
238.686211
21
229.831125
0
LINE
8
annotation
62
1
39
211
10
238.686211
20
229.831125
11
238.907555
21
229.725849
0
LINE
8
annotation
62
1
39
211
10
238.907555
20
229.725849
11
239.147790
21
229.659730
0
LINE
8
annotation
62
1
39
211
10
239.147790
20
229.659730
11
239.402867
21
229.636795
0
LINE
8
annotation
62
1
39
211
10
239.402867
20
229.636795
11
239.402867
21
229.636795
0
LINE
8
annotation
62
1
39
211
10
239.402867
20
229.636795
11
239.658472
21
229.659730
0
LINE
8
annotation
62
1
39
211
10
239.658472
20
229.659730
11
239.898988
21
229.725849
0
LINE
8
annotation
62
1
39
211
10
239.898988
20
229.725849
11
240.120415
21
229.831125
0
LINE
8
annotation
62
1
39
211
10
240.120415
20
229.831125
11
240.318750
21
229.971533
0
LINE
8
annotation
62
1
39
211
10
240.318750
20
229.971533
11
240.489995
21
230.143044
0
LINE
8
annotation
62
1
39
211
10
240.489995
20
230.143044
11
240.630150
21
230.341633
0
LINE
8
annotation
62
1
39
211
10
240.630150
20
230.341633
11
240.735213
21
230.563273
0
LINE
8
annotation
62
1
39
211
10
240.735213
20
230.563273
11
240.801184
21
230.803936
0
LINE
8
annotation
62
1
39
211
10
240.801184
20
230.803936
11
240.824063
21
231.059597
0
LINE
8
annotation
62
1
39
211
10
240.824063
20
231.059597
11
240.824063
21
231.767587
0
LINE
8
annotation
62
1
39
211
10
240.824063
20
231.767587
11
240.824063
21
231.767587
0
LINE
8
annotation
62
1
39
211
10
240.824063
20
231.767587
11
240.801184
21
232.023123
0
LINE
8
annotation
62
1
39
211
10
240.801184
20
232.023123
11
240.735213
21
232.263455
0
LINE
8
annotation
62
1
39
211
10
240.735213
20
232.263455
11
240.630150
21
232.484614
0
LINE
8
annotation
62
1
39
211
10
240.630150
20
232.484614
11
240.489995
21
232.682633
0
LINE
8
annotation
62
1
39
211
10
240.489995
20
232.682633
11
240.318750
21
232.853545
0
LINE
8
annotation
62
1
39
211
10
240.318750
20
232.853545
11
240.120415
21
232.993383
0
LINE
8
annotation
62
1
39
211
10
240.120415
20
232.993383
11
239.898988
21
233.098179
0
LINE
8
annotation
62
1
39
211
10
239.898988
20
233.098179
11
239.658472
21
233.163966
0
LINE
8
annotation
62
1
39
211
10
239.658472
20
233.163966
11
239.402867
21
233.186776
0
LINE
8
annotation
62
1
39
211
10
239.402867
20
233.186776
11
237.981670
21
233.186776
0
LINE
8
annotation
62
1
39
211
10
237.803670
20
228.836795
11
241.003670
21
228.836795
0
LINE
8
annotation
62
1
39
211
10
236.896704
20
250.521228
11
238.190490
21
256.340893
0
LINE
8
annotation
62
1
39
211
10
238.190490
20
256.340893
11
235.602553
21
256.340893
0
LINE
8
annotation
62
1
39
211
10
238.190490
20
253.749306
11
236.896704
21
253.749306
0
LINE
8
annotation
62
1
39
211
10
242.522548
20
213.777516
11
237.236377
21
213.777516
0
LINE
8
annotation
62
1
39
211
10
237.236377
20
213.777516
11
242.522548
21
223.297878
0
LINE
8
annotation
62
1
39
211
10
242.522548
20
223.297878
11
237.236377
21
223.297878
0
LINE
8
annotation
62
1
39
211
10
251.299150
20
218.537697
11
246.093579
21
218.537697
0
LINE
8
annotation
62
1
39
211
10
254.868390
20
213.777815
11
256.982500
21
213.777815
0
LINE
8
annotation
62
1
39
211
10
256.982500
20
213.777815
11
256.982500
21
213.777815
0
LINE
8
annotation
62
1
39
211
10
256.982500
20
213.777815
11
257.362728
21
213.811924
0
LINE
8
annotation
62
1
39
211
10
257.362728
20
213.811924
11
257.720509
21
213.910228
0
LINE
8
annotation
62
1
39
211
10
257.720509
20
213.910228
11
258.049893
21
214.066693
0
LINE
8
annotation
62
1
39
211
10
258.049893
20
214.066693
11
258.344928
21
214.275284
0
LINE
8
annotation
62
1
39
211
10
258.344928
20
214.275284
11
258.599665
21
214.529967
0
LINE
8
annotation
62
1
39
211
10
258.599665
20
214.529967
11
258.808152
21
214.824709
0
LINE
8
annotation
62
1
39
211
10
258.808152
20
214.824709
11
258.964440
21
215.153475
0
LINE
8
annotation
62
1
39
211
10
258.964440
20
215.153475
11
259.062576
21
215.510230
0
LINE
8
annotation
62
1
39
211
10
259.062576
20
215.510230
11
259.096610
21
215.888940
0
LINE
8
annotation
62
1
39
211
10
259.096610
20
215.888940
11
259.096610
21
216.947487
0
LINE
8
annotation
62
1
39
211
10
259.096610
20
216.947487
11
259.096610
21
216.947487
0
LINE
8
annotation
62
1
39
211
10
259.096610
20
216.947487
11
259.062576
21
217.326040
0
LINE
8
annotation
62
1
39
211
10
259.062576
20
217.326040
11
258.964440
21
217.682712
0
LINE
8
annotation
62
1
39
211
10
258.964440
20
217.682712
11
258.808152
21
218.011453
0
LINE
8
annotation
62
1
39
211
10
258.808152
20
218.011453
11
258.599665
21
218.306214
0
LINE
8
annotation
62
1
39
211
10
258.599665
20
218.306214
11
258.344928
21
218.560947
0
LINE
8
annotation
62
1
39
211
10
258.344928
20
218.560947
11
258.049893
21
218.769602
0
LINE
8
annotation
62
1
39
211
10
258.049893
20
218.769602
11
257.720509
21
218.926131
0
LINE
8
annotation
62
1
39
211
10
257.720509
20
218.926131
11
257.362728
21
219.024484
0
LINE
8
annotation
62
1
39
211
10
257.362728
20
219.024484
11
256.982500
21
219.058612
0
LINE
8
annotation
62
1
39
211
10
256.982500
20
219.058612
11
255.923952
21
219.058612
0
LINE
8
annotation
62
1
39
211
10
255.923952
20
219.058612
11
256.982500
21
219.058612
0
LINE
8
annotation
62
1
39
211
10
256.982500
20
219.058612
11
256.982500
21
219.058612
0
LINE
8
annotation
62
1
39
211
10
256.982500
20
219.058612
11
257.362728
21
219.092749
0
LINE
8
annotation
62
1
39
211
10
257.362728
20
219.092749
11
257.720509
21
219.191160
0
LINE
8
annotation
62
1
39
211
10
257.720509
20
219.191160
11
258.049893
21
219.347844
0
LINE
8
annotation
62
1
39
211
10
258.049893
20
219.347844
11
258.344928
21
219.556802
0
LINE
8
annotation
62
1
39
211
10
258.344928
20
219.556802
11
258.599665
21
219.812034
0
LINE
8
annotation
62
1
39
211
10
258.599665
20
219.812034
11
258.808152
21
220.107541
0
LINE
8
annotation
62
1
39
211
10
258.808152
20
220.107541
11
258.964440
21
220.437322
0
LINE
8
annotation
62
1
39
211
10
258.964440
20
220.437322
11
259.062576
21
220.795377
0
LINE
8
annotation
62
1
39
211
10
259.062576
20
220.795377
11
259.096610
21
221.175708
0
LINE
8
annotation
62
1
39
211
10
259.096610
20
221.175708
11
259.096610
21
221.175708
0
LINE
8
annotation
62
1
39
211
10
259.096610
20
221.175708
11
259.062576
21
221.554261
0
LINE
8
annotation
62
1
39
211
10
259.062576
20
221.554261
11
258.964440
21
221.910932
0
LINE
8
annotation
62
1
39
211
10
258.964440
20
221.910932
11
258.808152
21
222.239673
0
LINE
8
annotation
62
1
39
211
10
258.808152
20
222.239673
11
258.599665
21
222.534434
0
LINE
8
annotation
62
1
39
211
10
258.599665
20
222.534434
11
258.344928
21
222.789167
0
LINE
8
annotation
62
1
39
211
10
258.344928
20
222.789167
11
258.049893
21
222.997822
0
LINE
8
annotation
62
1
39
211
10
258.049893
20
222.997822
11
257.720509
21
223.154351
0
LINE
8
annotation
62
1
39
211
10
257.720509
20
223.154351
11
257.362728
21
223.252704
0
LINE
8
annotation
62
1
39
211
10
257.362728
20
223.252704
11
256.982500
21
223.286832
0
LINE
8
annotation
62
1
39
211
10
256.982500
20
223.286832
11
254.868390
21
223.286832
0
LINE
8
frame
62
5
39
2
10
0.000000
20
0.000000
11
600.000000
21
0.000000
0
LINE
8
frame
62
5
39
2
10
600.000000
20
0.000000
11
600.000000
21
1000.000000
0
LINE
8
frame
62
5
39
2
10
600.000000
20
1000.000000
11
0.000000
21
1000.000000
0
LINE
8
frame
62
5
39
2
10
0.000000
20
1000.000000
11
0.000000
21
0.000000
0
ENDSEC
0
EOF
