  0
SECTION
  2
HEADER
  9
$ACADVER
  1
AC1021
  9
$ACADMAINTVER
 70
    25
  9
$DWGCODEPAGE
  3
ANSI_1252
  9
$LASTSAVEDBY
  1
asmae
  9
$INSBASE
 10
0.0
 20
0.0
 30
0.0
  9
$EXTMIN
 10
0.0
 20
0.0
 30
0.0
  9
$EXTMAX
 10
86.86291501015246
 20
86.86291501015246
 30
0.0
  9
$LIMMIN
 10
0.0
 20
0.0
  9
$LIMMAX
 10
12.0
 20
9.0
  9
$ORTHOMODE
 70
     0
  9
$REGENMODE
 70
     1
  9
$FILLMODE
 70
     1
  9
$QTEXTMODE
 70
     0
  9
$MIRRTEXT
 70
     1
  9
$LTSCALE
 40
1.0
  9
$ATTMODE
 70
     1
  9
$TEXTSIZE
 40
0.2
  9
$TRACEWID
 40
0.05
  9
$TEXTSTYLE
  7
Standard
  9
$CLAYER
  8
Laser interior
  9
$CELTYPE
  6
ByLayer
  9
$CECOLOR
 62
   256
  9
$CELTSCALE
 40
1.0
  9
$DISPSILH
 70
     0
  9
$DIMSCALE
 40
1.0
  9
$DIMASZ
 40
0.18
  9
$DIMEXO
 40
0.0625
  9
$DIMDLI
 40
0.38
  9
$DIMRND
 40
0.0
  9
$DIMDLE
 40
0.0
  9
$DIMEXE
 40
0.18
  9
$DIMTP
 40
0.0
  9
$DIMTM
 40
0.0
  9
$DIMTXT
 40
0.18
  9
$DIMCEN
 40
0.09
  9
$DIMTSZ
 40
0.0
  9
$DIMTOL
 70
     0
  9
$DIMLIM
 70
     0
  9
$DIMTIH
 70
     1
  9
$DIMTOH
 70
     1
  9
$DIMSE1
 70
     0
  9
$DIMSE2
 70
     0
  9
$DIMTAD
 70
     0
  9
$DIMZIN
 70
     0
  9
$DIMBLK
  1

  9
$DIMASO
 70
     1
  9
$DIMSHO
 70
     1
  9
$DIMPOST
  1

  9
$DIMAPOST
  1

  9
$DIMALT
 70
     0
  9
$DIMALTD
 70
     2
  9
$DIMALTF
 40
25.4
  9
$DIMLFAC
 40
1.0
  9
$DIMTOFL
 70
     0
  9
$DIMTVP
 40
0.0
  9
$DIMTIX
 70
     0
  9
$DIMSOXD
 70
     0
  9
$DIMSAH
 70
     0
  9
$DIMBLK1
  1

  9
$DIMBLK2
  1

  9
$DIMSTYLE
  2
STANDARD_ACAD
  9
$DIMCLRD
 70
     0
  9
$DIMCLRE
 70
     0
  9
$DIMCLRT
 70
     0
  9
$DIMTFAC
 40
1.0
  9
$DIMGAP
 40
0.09
  9
$DIMJUST
 70
     0
  9
$DIMSD1
 70
     0
  9
$DIMSD2
 70
     0
  9
$DIMTOLJ
 70
     1
  9
$DIMTZIN
 70
     0
  9
$DIMALTZ
 70
     0
  9
$DIMALTTZ
 70
     0
  9
$DIMUPT
 70
     0
  9
$DIMDEC
 70
     4
  9
$DIMTDEC
 70
     4
  9
$DIMALTU
 70
     2
  9
$DIMALTTD
 70
     2
  9
$DIMTXSTY
  7
Standard
  9
$DIMAUNIT
 70
     0
  9
$DIMADEC
 70
     0
  9
$DIMALTRND
 40
0.0
  9
$DIMAZIN
 70
     0
  9
$DIMDSEP
 70
    46
  9
$DIMATFIT
 70
     3
  9
$DIMFRAC
 70
     0
  9
$DIMLDRBLK
  1

  9
$DIMLUNIT
 70
     2
  9
$DIMLWD
 70
    -2
  9
$DIMLWE
 70
    -2
  9
$DIMTMOVE
 70
     2
  9
$DIMFXL
 40
1.0
  9
$DIMFXLON
 70
     0
  9
$DIMJOGANG
 40
0.7853981633974483
  9
$DIMTFILL
 70
     0
  9
$DIMTFILLCLR
 70
     0
  9
$DIMARCSYM
 70
     0
  9
$DIMLTYPE
  6

  9
$DIMLTEX1
  6

  9
$DIMLTEX2
  6

  9
$LUNITS
 70
     2
  9
$LUPREC
 70
     3
  9
$SKETCHINC
 40
0.1
  9
$FILLETRAD
 40
0.0
  9
$AUNITS
 70
     0
  9
$AUPREC
 70
     0
  9
$MENU
  1
.
  9
$ELEVATION
 40
0.0
  9
$PELEVATION
 40
0.0
  9
$THICKNESS
 40
0.0
  9
$LIMCHECK
 70
     0
  9
$CHAMFERA
 40
0.0
  9
$CHAMFERB
 40
0.0
  9
$CHAMFERC
 40
0.0
  9
$CHAMFERD
 40
0.0
  9
$SKPOLY
 70
     0
  9
$TDCREATE
 40
2459538.425319375
  9
$TDUCREATE
 40
2459538.425319375
  9
$TDUPDATE
 40
2459538.425344618
  9
$TDUUPDATE
 40
2459538.425344618
  9
$TDINDWG
 40
0.0000000116
  9
$TDUSRTIMER
 40
0.0000000116
  9
$USRTIMER
 70
     1
  9
$ANGBASE
 50
0.0
  9
$ANGDIR
 70
     0
  9
$PDMODE
 70
     0
  9
$PDSIZE
 40
0.0
  9
$PLINEWID
 40
0.0
  9
$SPLFRAME
 70
     0
  9
$SPLINETYPE
 70
     6
  9
$SPLINESEGS
 70
     8
  9
$HANDSEED
  5
5C6
  9
$SURFTAB1
 70
     6
  9
$SURFTAB2
 70
     6
  9
$SURFTYPE
 70
     6
  9
$SURFU
 70
     6
  9
$SURFV
 70
     6
  9
$UCSBASE
  2

  9
$UCSNAME
  2

  9
$UCSORG
 10
0.0
 20
0.0
 30
0.0
  9
$UCSXDIR
 10
1.0
 20
0.0
 30
0.0
  9
$UCSYDIR
 10
0.0
 20
1.0
 30
0.0
  9
$UCSORTHOREF
  2

  9
$UCSORTHOVIEW
 70
     0
  9
$UCSORGTOP
 10
0.0
 20
0.0
 30
0.0
  9
$UCSORGBOTTOM
 10
0.0
 20
0.0
 30
0.0
  9
$UCSORGLEFT
 10
0.0
 20
0.0
 30
0.0
  9
$UCSORGRIGHT
 10
0.0
 20
0.0
 30
0.0
  9
$UCSORGFRONT
 10
0.0
 20
0.0
 30
0.0
  9
$UCSORGBACK
 10
0.0
 20
0.0
 30
0.0
  9
$PUCSBASE
  2

  9
$PUCSNAME
  2

  9
$PUCSORG
 10
0.0
 20
0.0
 30
0.0
  9
$PUCSXDIR
 10
1.0
 20
0.0
 30
0.0
  9
$PUCSYDIR
 10
0.0
 20
1.0
 30
0.0
  9
$PUCSORTHOREF
  2

  9
$PUCSORTHOVIEW
 70
     0
  9
$PUCSORGTOP
 10
0.0
 20
0.0
 30
0.0
  9
$PUCSORGBOTTOM
 10
0.0
 20
0.0
 30
0.0
  9
$PUCSORGLEFT
 10
0.0
 20
0.0
 30
0.0
  9
$PUCSORGRIGHT
 10
0.0
 20
0.0
 30
0.0
  9
$PUCSORGFRONT
 10
0.0
 20
0.0
 30
0.0
  9
$PUCSORGBACK
 10
0.0
 20
0.0
 30
0.0
  9
$USERI1
 70
     0
  9
$USERI2
 70
     0
  9
$USERI3
 70
     0
  9
$USERI4
 70
     0
  9
$USERI5
 70
     0
  9
$USERR1
 40
0.0
  9
$USERR2
 40
0.0
  9
$USERR3
 40
0.0
  9
$USERR4
 40
0.0
  9
$USERR5
 40
0.0
  9
$WORLDVIEW
 70
     1
  9
$SHADEDGE
 70
     3
  9
$SHADEDIF
 70
    70
  9
$TILEMODE
 70
     1
  9
$MAXACTVP
 70
    64
  9
$PINSBASE
 10
0.0
 20
0.0
 30
0.0
  9
$PLIMCHECK
 70
     0
  9
$PEXTMIN
 10
1.000000000000000E+20
 20
1.000000000000000E+20
 30
1.000000000000000E+20
  9
$PEXTMAX
 10
-1.000000000000000E+20
 20
-1.000000000000000E+20
 30
-1.000000000000000E+20
  9
$PLIMMIN
 10
0.0
 20
0.0
  9
$PLIMMAX
 10
12.0
 20
9.0
  9
$UNITMODE
 70
     0
  9
$VISRETAIN
 70
     1
  9
$PLINEGEN
 70
     0
  9
$PSLTSCALE
 70
     1
  9
$TREEDEPTH
 70
  3020
  9
$CMLSTYLE
  2
Standard
  9
$CMLJUST
 70
     0
  9
$CMLSCALE
 40
1.0
  9
$PROXYGRAPHICS
 70
     1
  9
$MEASUREMENT
 70
     1
  9
$CELWEIGHT
370
    -1
  9
$ENDCAPS
280
     0
  9
$JOINSTYLE
280
     0
  9
$LWDISPLAY
290
     0
  9
$INSUNITS
 70
     4
  9
$HYPERLINKBASE
  1

  9
$STYLESHEET
  1

  9
$XEDIT
290
     1
  9
$CEPSNTYPE
380
     0
  9
$PSTYLEMODE
290
     1
  9
$FINGERPRINTGUID
  2
{4a80a3c4-a135-af41-ac9f-19bb239f4270}
  9
$VERSIONGUID
  2
{FAEB1C32-E019-11D5-929B-00C0DF256EC4}
  9
$EXTNAMES
290
     1
  9
$PSVPSCALE
 40
0.0
  9
$OLESTARTUP
290
     0
  9
$SORTENTS
280
   127
  9
$INDEXCTL
280
     0
  9
$HIDETEXT
280
     1
  9
$XCLIPFRAME
290
     0
  9
$HALOGAP
280
     0
  9
$OBSCOLOR
 70
   257
  9
$OBSLTYPE
280
     0
  9
$INTERSECTIONDISPLAY
280
     0
  9
$INTERSECTIONCOLOR
 70
   257
  9
$DIMASSOC
280
     2
  9
$PROJECTNAME
  1

  9
$CAMERADISPLAY
290
     0
  9
$LENSLENGTH
 40
50.0
  9
$CAMERAHEIGHT
 40
0.0
  9
$STEPSPERSEC
 40
2.0
  9
$STEPSIZE
 40
6.0
  9
$3DDWFPREC
 40
2.0
  9
$PSOLWIDTH
 40
0.25
  9
$PSOLHEIGHT
 40
4.0
  9
$LOFTANG1
 40
1.570796326794897
  9
$LOFTANG2
 40
1.570796326794897
  9
$LOFTMAG1
 40
0.0
  9
$LOFTMAG2
 40
0.0
  9
$LOFTPARAM
 70
     7
  9
$LOFTNORMALS
280
     1
  9
$LATITUDE
 40
37.795
  9
$LONGITUDE
 40
-122.394
  9
$NORTHDIRECTION
 40
0.0
  9
$TIMEZONE
 70
 -8000
  9
$LIGHTGLYPHDISPLAY
280
     1
  9
$TILEMODELIGHTSYNCH
280
     1
  9
$CMATERIAL
347
44
  9
$SOLIDHIST
280
     0
  9
$SHOWHIST
280
     1
  9
$DWFFRAME
280
     2
  9
$DGNFRAME
280
     2
  9
$REALWORLDSCALE
290
     1
  9
$INTERFERECOLOR
 62
   256
  9
$CSHADOW
280
     0
  9
$SHADOWPLANELOCATION
 40
0.0
  0
ENDSEC
  0
SECTION
  2
CLASSES
  0
CLASS
  1
ACDBDICTIONARYWDFLT
  2
AcDbDictionaryWithDefault
  3
ObjectDBX Classes
 90
        0
 91
        3
280
     0
281
     0
  0
CLASS
  1
VISUALSTYLE
  2
AcDbVisualStyle
  3
ObjectDBX Classes
 90
     4095
 91
        3
280
     0
281
     0
  0
CLASS
  1
MATERIAL
  2
AcDbMaterial
  3
ObjectDBX Classes
 90
     1153
 91
        3
280
     0
281
     0
  0
CLASS
  1
SCALE
  2
AcDbScale
  3
ObjectDBX Classes
 90
     1153
 91
        3
280
     0
281
     0
  0
CLASS
  1
TABLESTYLE
  2
AcDbTableStyle
  3
ObjectDBX Classes
 90
     4095
 91
        3
280
     0
281
     0
  0
CLASS
  1
MLEADERSTYLE
  2
AcDbMLeaderStyle
  3
ACDB_MLEADERSTYLE_CLASS
 90
     4095
 91
        3
280
     0
281
     0
  0
CLASS
  1
SUN
  2
AcDbSun
  3
SCENEOE
 90
     1153
 91
        3
280
     0
281
     0
  0
CLASS
  1
DICTIONARYVAR
  2
AcDbDictionaryVar
  3
ObjectDBX Classes
 90
        0
 91
        3
280
     0
281
     0
  0
CLASS
  1
CELLSTYLEMAP
  2
AcDbCellStyleMap
  3
ObjectDBX Classes
 90
     1152
 91
        3
280
     0
281
     0
  0
ENDSEC
  0
SECTION
  2
TABLES
  0
TABLE
  2
VPORT
  5
8
330
0
100
AcDbSymbolTable
 70
     1
  0
VPORT
  5
29
330
8
100
AcDbSymbolTableRecord
100
AcDbViewportTableRecord
  2
*Active
 70
     0
 10
0.0
 20
0.0
 11
1.0
 21
1.0
 12
10.42990654205607
 22
4.5
 13
0.0
 23
0.0
 14
0.5
 24
0.5
 15
0.5
 25
0.5
 16
0.0
 26
0.0
 36
1.0
 17
0.0
 27
0.0
 37
0.0
 40
9.0
 41
1.972972972850329
 42
50.0
 43
0.0
 44
0.0
 50
0.0
 51
0.0
 71
     0
 72
   100
 73
     1
 74
     3
 75
     0
 76
     0
 77
     0
 78
     0
281
     0
 65
     1
110
0.0
120
0.0
130
0.0
111
1.0
121
0.0
131
0.0
112
0.0
122
1.0
132
0.0
 79
     0
146
0.0
348
2F
 60
     3
 61
     5
292
     1
282
     1
141
0.0
142
0.0
 63
   250
361
5D
  0
ENDTAB
  0
TABLE
  2
LTYPE
  5
5
330
0
100
AcDbSymbolTable
 70
     1
  0
LTYPE
  5
14
330
5
100
AcDbSymbolTableRecord
100
AcDbLinetypeTableRecord
  2
ByBlock
 70
     0
  3

 72
    65
 73
     0
 40
0.0
  0
LTYPE
  5
15
330
5
100
AcDbSymbolTableRecord
100
AcDbLinetypeTableRecord
  2
ByLayer
 70
     0
  3

 72
    65
 73
     0
 40
0.0
  0
LTYPE
  5
16
330
5
100
AcDbSymbolTableRecord
100
AcDbLinetypeTableRecord
  2
Continuous
 70
     0
  3
Solid line
 72
    65
 73
     0
 40
0.0
  0
ENDTAB
  0
TABLE
  2
LAYER
  5
2
330
0
100
AcDbSymbolTable
 70
     3
  0
LAYER
  5
10
330
2
100
AcDbSymbolTableRecord
100
AcDbLayerTableRecord
  2
0
 70
     0
 62
     7
  6
Continuous
370
    -3
390
F
347
46
  0
LAYER
  5
5F
330
2
100
AcDbSymbolTableRecord
100
AcDbLayerTableRecord
  2
Laser interior
 70
     0
 62
   140
420
    56575
  6
Continuous
370
    -3
390
F
347
46
  0
LAYER
  5
7C
330
2
100
AcDbSymbolTableRecord
100
AcDbLayerTableRecord
  2
interior
 70
     0
 62
    13
420
 15429430
  6
Continuous
370
    -3
390
F
347
46
  0
ENDTAB
  0
TABLE
  2
STYLE
  5
3
330
0
100
AcDbSymbolTable
 70
     1
  0
STYLE
  5
11
330
3
100
AcDbSymbolTableRecord
100
AcDbTextStyleTableRecord
  2
Standard
 70
     0
 40
0.0
 41
1.0
 50
0.0
 71
     0
 42
0.2
  3
txt
  4

  0
ENDTAB
  0
TABLE
  2
VIEW
  5
6
330
0
100
AcDbSymbolTable
 70
     0
  0
ENDTAB
  0
TABLE
  2
UCS
  5
7
330
0
100
AcDbSymbolTable
 70
     0
  0
ENDTAB
  0
TABLE
  2
APPID
  5
9
330
0
100
AcDbSymbolTable
 70
     3
  0
APPID
  5
12
330
9
100
AcDbSymbolTableRecord
100
AcDbRegAppTableRecord
  2
ACAD
 70
     0
  0
APPID
  5
5E
330
9
100
AcDbSymbolTableRecord
100
AcDbRegAppTableRecord
  2
Rhino
 70
     0
  0
APPID
  5
5BE
330
9
100
AcDbSymbolTableRecord
100
AcDbRegAppTableRecord
  2
ACAD_MLEADERVER
 70
     0
  0
ENDTAB
  0
TABLE
  2
DIMSTYLE
  5
A
330
0
100
AcDbSymbolTable
 70
     1
100
AcDbDimStyleTable
  0
DIMSTYLE
105
27
330
A
100
AcDbSymbolTableRecord
100
AcDbDimStyleTableRecord
  2
STANDARD_ACAD
 70
     0
178
     0
340
11
  0
ENDTAB
  0
TABLE
  2
BLOCK_RECORD
  5
1
330
0
100
AcDbSymbolTable
 70
     1
  0
BLOCK_RECORD
  5
1F
330
1
100
AcDbSymbolTableRecord
100
AcDbBlockTableRecord
  2
*Model_Space
340
22
 70
     0
280
     1
281
     0
  0
BLOCK_RECORD
  5
1B
330
1
100
AcDbSymbolTableRecord
100
AcDbBlockTableRecord
  2
*Paper_Space
340
1E
 70
     0
280
     1
281
     0
  0
BLOCK_RECORD
  5
23
330
1
100
AcDbSymbolTableRecord
100
AcDbBlockTableRecord
  2
*Paper_Space0
340
26
 70
     0
280
     1
281
     0
  0
ENDTAB
  0
ENDSEC
  0
SECTION
  2
BLOCKS
  0
BLOCK
  5
20
330
1F
100
AcDbEntity
  8
0
100
AcDbBlockBegin
  2
*Model_Space
 70
     0
 10
0.0
 20
0.0
 30
0.0
  3
*Model_Space
  1

  0
ENDBLK
  5
21
330
1F
100
AcDbEntity
  8
0
100
AcDbBlockEnd
  0
BLOCK
  5
1C
330
1B
100
AcDbEntity
 67
     1
  8
0
100
AcDbBlockBegin
  2
*Paper_Space
 70
     0
 10
0.0
 20
0.0
 30
0.0
  3
*Paper_Space
  1

  0
ENDBLK
  5
1D
330
1B
100
AcDbEntity
 67
     1
  8
0
100
AcDbBlockEnd
  0
BLOCK
  5
24
330
23
100
AcDbEntity
  8
0
100
AcDbBlockBegin
  2
*Paper_Space0
 70
     0
 10
0.0
 20
0.0
 30
0.0
  3
*Paper_Space0
  1

  0
ENDBLK
  5
25
330
23
100
AcDbEntity
  8
0
100
AcDbBlockEnd
  0
ENDSEC
  0
SECTION
  2
ENTITIES
  0
LINE
  5
60
330
1F
100
AcDbEntity
  8
Laser interior
100
AcDbLine
 10
11.23044737829954
 20
16.17258300203049
 30
0.0
 11
11.23044737829954
 21
14.82842712474618
 31
0.0
  0
LINE
  5
61
330
1F
100
AcDbEntity
  8
Laser interior
100
AcDbLine
 10
11.23044737829953
 20
19.91673887931478
 30
0.0
 11
11.23044737829954
 21
18.57258300203049
 31
0.0
  0
LINE
  5
62
330
1F
100
AcDbEntity
  8
Laser interior
100
AcDbLine
 10
6.142135623730944
 20
18.57258300203049
 30
0.0
 11
6.14213562373094
 21
16.17258300203049
 31
0.0
  0
LINE
  5
63
330
1F
100
AcDbEntity
  8
Laser interior
100
AcDbLine
 10
16.17258300203049
 20
11.23044737829954
 30
0.0
 11
18.57258300203049
 21
11.23044737829954
 31
0.0
  0
LINE
  5
64
330
1F
100
AcDbEntity
  8
Laser interior
100
AcDbLine
 10
11.23044737829954
 20
14.82842712474618
 30
0.0
 11
8.68629150101524
 21
17.37258300203049
 31
0.0
  0
LINE
  5
65
330
1F
100
AcDbEntity
  8
Laser interior
100
AcDbLine
 10
14.82842712474619
 20
14.82842712474619
 30
0.0
 11
11.23044737829954
 21
14.82842712474618
 31
0.0
  0
LINE
  5
66
330
1F
100
AcDbEntity
  8
Laser interior
100
AcDbLine
 10
14.82842712474619
 20
11.23044737829954
 30
0.0
 11
14.82842712474619
 21
14.82842712474619
 31
0.0
  0
LINE
  5
67
330
1F
100
AcDbEntity
  8
Laser interior
100
AcDbLine
 10
17.37258300203049
 20
8.68629150101524
 30
0.0
 11
14.82842712474619
 21
11.23044737829954
 31
0.0
  0
LINE
  5
68
330
1F
100
AcDbEntity
  8
Laser interior
100
AcDbLine
 10
14.82842712474619
 20
6.14213562373094
 30
0.0
 11
17.37258300203049
 21
8.68629150101524
 31
0.0
  0
LINE
  5
69
330
1F
100
AcDbEntity
  8
Laser interior
100
AcDbLine
 10
14.82842712474619
 20
2.544155877284291
 30
0.0
 11
14.82842712474619
 21
6.14213562373094
 31
0.0
  0
LINE
  5
6A
330
1F
100
AcDbEntity
  8
Laser interior
100
AcDbLine
 10
11.23044737829953
 20
2.544155877284291
 30
0.0
 11
14.82842712474619
 21
2.544155877284291
 31
0.0
  0
LINE
  5
6B
330
1F
100
AcDbEntity
  8
Laser interior
100
AcDbLine
 10
8.68629150101524
 20
0.0
 30
0.0
 11
11.23044737829953
 21
2.544155877284291
 31
0.0
  0
LINE
  5
6C
330
1F
100
AcDbEntity
  8
Laser interior
100
AcDbLine
 10
6.142135623730951
 20
2.544155877284291
 30
0.0
 11
8.68629150101524
 21
0.0
 31
0.0
  0
LINE
  5
6D
330
1F
100
AcDbEntity
  8
Laser interior
100
AcDbLine
 10
2.544155877284291
 20
2.544155877284291
 30
0.0
 11
6.142135623730951
 21
2.544155877284291
 31
0.0
  0
LINE
  5
6E
330
1F
100
AcDbEntity
  8
Laser interior
100
AcDbLine
 10
2.544155877284291
 20
6.142135623730951
 30
0.0
 11
2.544155877284291
 21
2.544155877284291
 31
0.0
  0
LINE
  5
6F
330
1F
100
AcDbEntity
  8
Laser interior
100
AcDbLine
 10
0.0
 20
8.68629150101524
 30
0.0
 11
2.544155877284291
 21
6.142135623730951
 31
0.0
  0
LINE
  5
70
330
1F
100
AcDbEntity
  8
Laser interior
100
AcDbLine
 10
2.544155877284291
 20
11.23044737829953
 30
0.0
 11
0.0
 21
8.68629150101524
 31
0.0
  0
LINE
  5
71
330
1F
100
AcDbEntity
  8
Laser interior
100
AcDbLine
 10
2.544155877284291
 20
14.82842712474619
 30
0.0
 11
2.544155877284291
 21
11.23044737829953
 31
0.0
  0
LINE
  5
72
330
1F
100
AcDbEntity
  8
Laser interior
100
AcDbLine
 10
6.142135623730951
 20
14.82842712474619
 30
0.0
 11
2.544155877284291
 21
14.82842712474619
 31
0.0
  0
LINE
  5
73
330
1F
100
AcDbEntity
  8
Laser interior
100
AcDbLine
 10
8.68629150101524
 20
17.37258300203048
 30
0.0
 11
6.142135623730951
 21
14.82842712474619
 31
0.0
  0
LINE
  5
74
330
1F
100
AcDbEntity
  8
Laser interior
100
AcDbLine
 10
6.142135623730951
 20
14.82842712474619
 30
0.0
 11
7.186291501015241
 21
14.82842712474619
 31
0.0
  0
LINE
  5
75
330
1F
100
AcDbEntity
  8
Laser interior
100
AcDbLine
 10
10.18629150101524
 20
14.82842712474618
 30
0.0
 11
11.23044737829954
 21
14.82842712474618
 31
0.0
  0
LINE
  5
76
330
1F
100
AcDbEntity
  8
Laser interior
100
AcDbLine
 10
11.23044737829953
 20
2.54415587728429
 30
0.0
 11
10.18629150101524
 21
2.544155877284293
 31
0.0
  0
LINE
  5
77
330
1F
100
AcDbEntity
  8
Laser interior
100
AcDbLine
 10
7.186291501015241
 20
2.544155877284297
 30
0.0
 11
6.14213562373094
 21
2.5441558772843
 31
0.0
  0
LINE
  5
78
330
1F
100
AcDbEntity
  8
Laser interior
100
AcDbLine
 10
14.82842712474619
 20
11.23044737829953
 30
0.0
 11
14.82842712474619
 21
10.18629150101524
 31
0.0
  0
LINE
  5
79
330
1F
100
AcDbEntity
  8
Laser interior
100
AcDbLine
 10
14.82842712474618
 20
7.186291501015241
 30
0.0
 11
14.82842712474618
 21
6.14213562373094
 31
0.0
  0
LINE
  5
7A
330
1F
100
AcDbEntity
  8
Laser interior
100
AcDbLine
 10
2.54415587728429
 20
6.142135623730951
 30
0.0
 11
2.544155877284293
 21
7.186291501015241
 31
0.0
  0
LINE
  5
7B
330
1F
100
AcDbEntity
  8
Laser interior
100
AcDbLine
 10
2.544155877284297
 20
10.18629150101524
 30
0.0
 11
2.5441558772843
 21
11.23044737829954
 31
0.0
  0
LINE
  5
7D
330
1F
100
AcDbEntity
  8
interior
100
AcDbLine
 10
2.544155877284297
 20
10.18629150101524
 30
0.0
 11
2.5441558772843
 21
11.23044737829954
 31
0.0
  0
LINE
  5
7E
330
1F
100
AcDbEntity
  8
interior
100
AcDbLine
 10
2.54415587728429
 20
6.142135623730951
 30
0.0
 11
2.544155877284293
 21
7.186291501015241
 31
0.0
  0
LINE
  5
7F
330
1F
100
AcDbEntity
  8
interior
100
AcDbLine
 10
14.82842712474618
 20
7.186291501015241
 30
0.0
 11
14.82842712474618
 21
6.14213562373094
 31
0.0
  0
LINE
  5
80
330
1F
100
AcDbEntity
  8
interior
100
AcDbLine
 10
14.82842712474619
 20
11.23044737829953
 30
0.0
 11
14.82842712474619
 21
10.18629150101524
 31
0.0
  0
LINE
  5
81
330
1F
100
AcDbEntity
  8
interior
100
AcDbLine
 10
7.186291501015241
 20
2.544155877284297
 30
0.0
 11
6.14213562373094
 21
2.5441558772843
 31
0.0
  0
LINE
  5
82
330
1F
100
AcDbEntity
  8
interior
100
AcDbLine
 10
11.23044737829953
 20
2.54415587728429
 30
0.0
 11
10.18629150101524
 21
2.544155877284293
 31
0.0
  0
LINE
  5
83
330
1F
100
AcDbEntity
  8
interior
100
AcDbLine
 10
10.18629150101524
 20
14.82842712474618
 30
0.0
 11
11.23044737829954
 21
14.82842712474618
 31
0.0
  0
LINE
  5
84
330
1F
100
AcDbEntity
  8
interior
100
AcDbLine
 10
6.142135623730951
 20
14.82842712474619
 30
0.0
 11
7.186291501015241
 21
14.82842712474619
 31
0.0
  0
LINE
  5
85
330
1F
100
AcDbEntity
  8
interior
100
AcDbLine
 10
8.68629150101524
 20
17.37258300203048
 30
0.0
 11
6.142135623730951
 21
14.82842712474619
 31
0.0
  0
LINE
  5
86
330
1F
100
AcDbEntity
  8
interior
100
AcDbLine
 10
6.142135623730951
 20
14.82842712474619
 30
0.0
 11
2.544155877284291
 21
14.82842712474619
 31
0.0
  0
LINE
  5
87
330
1F
100
AcDbEntity
  8
interior
100
AcDbLine
 10
2.544155877284291
 20
14.82842712474619
 30
0.0
 11
2.544155877284291
 21
11.23044737829953
 31
0.0
  0
LINE
  5
88
330
1F
100
AcDbEntity
  8
interior
100
AcDbLine
 10
2.544155877284291
 20
11.23044737829953
 30
0.0
 11
0.0
 21
8.68629150101524
 31
0.0
  0
LINE
  5
89
330
1F
100
AcDbEntity
  8
interior
100
AcDbLine
 10
0.0
 20
8.68629150101524
 30
0.0
 11
2.544155877284291
 21
6.142135623730951
 31
0.0
  0
LINE
  5
8A
330
1F
100
AcDbEntity
  8
interior
100
AcDbLine
 10
2.544155877284291
 20
6.142135623730951
 30
0.0
 11
2.544155877284291
 21
2.544155877284291
 31
0.0
  0
LINE
  5
8B
330
1F
100
AcDbEntity
  8
interior
100
AcDbLine
 10
2.544155877284291
 20
2.544155877284291
 30
0.0
 11
6.142135623730951
 21
2.544155877284291
 31
0.0
  0
LINE
  5
8C
330
1F
100
AcDbEntity
  8
interior
100
AcDbLine
 10
6.142135623730951
 20
2.544155877284291
 30
0.0
 11
8.68629150101524
 21
0.0
 31
0.0
  0
LINE
  5
8D
330
1F
100
AcDbEntity
  8
interior
100
AcDbLine
 10
8.68629150101524
 20
0.0
 30
0.0
 11
11.23044737829953
 21
2.544155877284291
 31
0.0
  0
LINE
  5
8E
330
1F
100
AcDbEntity
  8
interior
100
AcDbLine
 10
11.23044737829953
 20
2.544155877284291
 30
0.0
 11
14.82842712474619
 21
2.544155877284291
 31
0.0
  0
LINE
  5
8F
330
1F
100
AcDbEntity
  8
interior
100
AcDbLine
 10
14.82842712474619
 20
2.544155877284291
 30
0.0
 11
14.82842712474619
 21
6.14213562373094
 31
0.0
  0
LINE
  5
90
330
1F
100
AcDbEntity
  8
interior
100
AcDbLine
 10
14.82842712474619
 20
6.14213562373094
 30
0.0
 11
17.37258300203049
 21
8.68629150101524
 31
0.0
  0
LINE
  5
91
330
1F
100
AcDbEntity
  8
interior
100
AcDbLine
 10
17.37258300203049
 20
8.68629150101524
 30
0.0
 11
14.82842712474619
 21
11.23044737829954
 31
0.0
  0
LINE
  5
92
330
1F
100
AcDbEntity
  8
interior
100
AcDbLine
 10
14.82842712474619
 20
11.23044737829954
 30
0.0
 11
14.82842712474619
 21
14.82842712474619
 31
0.0
  0
LINE
  5
93
330
1F
100
AcDbEntity
  8
interior
100
AcDbLine
 10
14.82842712474619
 20
14.82842712474619
 30
0.0
 11
11.23044737829954
 21
14.82842712474618
 31
0.0
  0
LINE
  5
94
330
1F
100
AcDbEntity
  8
interior
100
AcDbLine
 10
11.23044737829954
 20
14.82842712474618
 30
0.0
 11
8.68629150101524
 21
17.37258300203049
 31
0.0
  0
LINE
  5
95
330
1F
100
AcDbEntity
  8
Laser interior
100
AcDbLine
 10
14.8284271247462
 20
6.142135623730946
 30
0.0
 11
16.17258300203049
 21
6.142135623730944
 31
0.0
  0
LINE
  5
96
330
1F
100
AcDbEntity
  8
Laser interior
100
AcDbLine
 10
18.57258300203049
 20
6.14213562373094
 30
0.0
 11
19.91673887931478
 21
6.142135623730939
 31
0.0
  0
LINE
  5
97
330
1F
100
AcDbEntity
  8
Laser interior
100
AcDbLine
 10
28.60303038033003
 20
16.17258300203049
 30
0.0
 11
28.60303038033004
 21
14.82842712474618
 31
0.0
  0
LINE
  5
98
330
1F
100
AcDbEntity
  8
Laser interior
100
AcDbLine
 10
28.60303038033003
 20
19.91673887931478
 30
0.0
 11
28.60303038033003
 21
18.57258300203049
 31
0.0
  0
LINE
  5
99
330
1F
100
AcDbEntity
  8
Laser interior
100
AcDbLine
 10
23.51471862576144
 20
18.57258300203049
 30
0.0
 11
23.51471862576143
 21
16.17258300203049
 31
0.0
  0
LINE
  5
9A
330
1F
100
AcDbEntity
  8
Laser interior
100
AcDbLine
 10
33.54516600406099
 20
11.23044737829954
 30
0.0
 11
35.94516600406098
 21
11.23044737829954
 31
0.0
  0
LINE
  5
9B
330
1F
100
AcDbEntity
  8
Laser interior
100
AcDbLine
 10
28.60303038033003
 20
14.82842712474618
 30
0.0
 11
26.05887450304573
 21
17.37258300203049
 31
0.0
  0
LINE
  5
9C
330
1F
100
AcDbEntity
  8
Laser interior
100
AcDbLine
 10
32.20101012677668
 20
14.82842712474619
 30
0.0
 11
28.60303038033003
 21
14.82842712474618
 31
0.0
  0
LINE
  5
9D
330
1F
100
AcDbEntity
  8
Laser interior
100
AcDbLine
 10
32.20101012677668
 20
11.23044737829954
 30
0.0
 11
32.20101012677668
 21
14.82842712474619
 31
0.0
  0
LINE
  5
9E
330
1F
100
AcDbEntity
  8
Laser interior
100
AcDbLine
 10
34.74516600406098
 20
8.68629150101524
 30
0.0
 11
32.20101012677668
 21
11.23044737829954
 31
0.0
  0
LINE
  5
9F
330
1F
100
AcDbEntity
  8
Laser interior
100
AcDbLine
 10
32.20101012677668
 20
6.14213562373094
 30
0.0
 11
34.74516600406098
 21
8.68629150101524
 31
0.0
  0
LINE
  5
A0
330
1F
100
AcDbEntity
  8
Laser interior
100
AcDbLine
 10
32.20101012677668
 20
2.544155877284291
 30
0.0
 11
32.20101012677668
 21
6.14213562373094
 31
0.0
  0
LINE
  5
A1
330
1F
100
AcDbEntity
  8
Laser interior
100
AcDbLine
 10
28.60303038033002
 20
2.544155877284291
 30
0.0
 11
32.20101012677668
 21
2.544155877284291
 31
0.0
  0
LINE
  5
A2
330
1F
100
AcDbEntity
  8
Laser interior
100
AcDbLine
 10
26.05887450304573
 20
0.0
 30
0.0
 11
28.60303038033002
 21
2.544155877284291
 31
0.0
  0
LINE
  5
A3
330
1F
100
AcDbEntity
  8
Laser interior
100
AcDbLine
 10
23.51471862576144
 20
2.544155877284291
 30
0.0
 11
26.05887450304573
 21
0.0
 31
0.0
  0
LINE
  5
A4
330
1F
100
AcDbEntity
  8
Laser interior
100
AcDbLine
 10
19.91673887931479
 20
2.544155877284291
 30
0.0
 11
23.51471862576144
 21
2.544155877284291
 31
0.0
  0
LINE
  5
A5
330
1F
100
AcDbEntity
  8
Laser interior
100
AcDbLine
 10
19.91673887931479
 20
6.142135623730951
 30
0.0
 11
19.91673887931479
 21
2.544155877284291
 31
0.0
  0
LINE
  5
A6
330
1F
100
AcDbEntity
  8
Laser interior
100
AcDbLine
 10
17.37258300203049
 20
8.68629150101524
 30
0.0
 11
19.91673887931479
 21
6.142135623730951
 31
0.0
  0
LINE
  5
A7
330
1F
100
AcDbEntity
  8
Laser interior
100
AcDbLine
 10
19.91673887931479
 20
11.23044737829953
 30
0.0
 11
17.37258300203049
 21
8.68629150101524
 31
0.0
  0
LINE
  5
A8
330
1F
100
AcDbEntity
  8
Laser interior
100
AcDbLine
 10
19.91673887931479
 20
14.82842712474619
 30
0.0
 11
19.91673887931479
 21
11.23044737829953
 31
0.0
  0
LINE
  5
A9
330
1F
100
AcDbEntity
  8
Laser interior
100
AcDbLine
 10
23.51471862576144
 20
14.82842712474619
 30
0.0
 11
19.91673887931479
 21
14.82842712474619
 31
0.0
  0
LINE
  5
AA
330
1F
100
AcDbEntity
  8
Laser interior
100
AcDbLine
 10
26.05887450304573
 20
17.37258300203048
 30
0.0
 11
23.51471862576144
 21
14.82842712474619
 31
0.0
  0
LINE
  5
AB
330
1F
100
AcDbEntity
  8
Laser interior
100
AcDbLine
 10
23.51471862576144
 20
14.82842712474619
 30
0.0
 11
24.55887450304573
 21
14.82842712474619
 31
0.0
  0
LINE
  5
AC
330
1F
100
AcDbEntity
  8
Laser interior
100
AcDbLine
 10
27.55887450304573
 20
14.82842712474618
 30
0.0
 11
28.60303038033003
 21
14.82842712474618
 31
0.0
  0
LINE
  5
AD
330
1F
100
AcDbEntity
  8
Laser interior
100
AcDbLine
 10
28.60303038033002
 20
2.54415587728429
 30
0.0
 11
27.55887450304573
 21
2.544155877284293
 31
0.0
  0
LINE
  5
AE
330
1F
100
AcDbEntity
  8
Laser interior
100
AcDbLine
 10
24.55887450304573
 20
2.544155877284297
 30
0.0
 11
23.51471862576143
 21
2.5441558772843
 31
0.0
  0
LINE
  5
AF
330
1F
100
AcDbEntity
  8
Laser interior
100
AcDbLine
 10
32.20101012677668
 20
11.23044737829953
 30
0.0
 11
32.20101012677668
 21
10.18629150101524
 31
0.0
  0
LINE
  5
B0
330
1F
100
AcDbEntity
  8
Laser interior
100
AcDbLine
 10
32.20101012677668
 20
7.186291501015241
 30
0.0
 11
32.20101012677667
 21
6.14213562373094
 31
0.0
  0
LINE
  5
B1
330
1F
100
AcDbEntity
  8
Laser interior
100
AcDbLine
 10
19.91673887931478
 20
6.142135623730951
 30
0.0
 11
19.91673887931479
 21
7.186291501015241
 31
0.0
  0
LINE
  5
B2
330
1F
100
AcDbEntity
  8
Laser interior
100
AcDbLine
 10
19.91673887931479
 20
10.18629150101524
 30
0.0
 11
19.91673887931479
 21
11.23044737829954
 31
0.0
  0
LINE
  5
B3
330
1F
100
AcDbEntity
  8
interior
100
AcDbLine
 10
19.91673887931479
 20
10.18629150101524
 30
0.0
 11
19.91673887931479
 21
11.23044737829954
 31
0.0
  0
LINE
  5
B4
330
1F
100
AcDbEntity
  8
interior
100
AcDbLine
 10
19.91673887931478
 20
6.142135623730951
 30
0.0
 11
19.91673887931479
 21
7.186291501015241
 31
0.0
  0
LINE
  5
B5
330
1F
100
AcDbEntity
  8
interior
100
AcDbLine
 10
32.20101012677668
 20
7.186291501015241
 30
0.0
 11
32.20101012677667
 21
6.14213562373094
 31
0.0
  0
LINE
  5
B6
330
1F
100
AcDbEntity
  8
interior
100
AcDbLine
 10
32.20101012677668
 20
11.23044737829953
 30
0.0
 11
32.20101012677668
 21
10.18629150101524
 31
0.0
  0
LINE
  5
B7
330
1F
100
AcDbEntity
  8
interior
100
AcDbLine
 10
24.55887450304573
 20
2.544155877284297
 30
0.0
 11
23.51471862576143
 21
2.5441558772843
 31
0.0
  0
LINE
  5
B8
330
1F
100
AcDbEntity
  8
interior
100
AcDbLine
 10
28.60303038033002
 20
2.54415587728429
 30
0.0
 11
27.55887450304573
 21
2.544155877284293
 31
0.0
  0
LINE
  5
B9
330
1F
100
AcDbEntity
  8
interior
100
AcDbLine
 10
27.55887450304573
 20
14.82842712474618
 30
0.0
 11
28.60303038033003
 21
14.82842712474618
 31
0.0
  0
LINE
  5
BA
330
1F
100
AcDbEntity
  8
interior
100
AcDbLine
 10
23.51471862576144
 20
14.82842712474619
 30
0.0
 11
24.55887450304573
 21
14.82842712474619
 31
0.0
  0
LINE
  5
BB
330
1F
100
AcDbEntity
  8
interior
100
AcDbLine
 10
26.05887450304573
 20
17.37258300203048
 30
0.0
 11
23.51471862576144
 21
14.82842712474619
 31
0.0
  0
LINE
  5
BC
330
1F
100
AcDbEntity
  8
interior
100
AcDbLine
 10
23.51471862576144
 20
14.82842712474619
 30
0.0
 11
19.91673887931479
 21
14.82842712474619
 31
0.0
  0
LINE
  5
BD
330
1F
100
AcDbEntity
  8
interior
100
AcDbLine
 10
19.91673887931479
 20
14.82842712474619
 30
0.0
 11
19.91673887931479
 21
11.23044737829953
 31
0.0
  0
LINE
  5
BE
330
1F
100
AcDbEntity
  8
interior
100
AcDbLine
 10
19.91673887931479
 20
11.23044737829953
 30
0.0
 11
17.37258300203049
 21
8.68629150101524
 31
0.0
  0
LINE
  5
BF
330
1F
100
AcDbEntity
  8
interior
100
AcDbLine
 10
17.37258300203049
 20
8.68629150101524
 30
0.0
 11
19.91673887931479
 21
6.142135623730951
 31
0.0
  0
LINE
  5
C0
330
1F
100
AcDbEntity
  8
interior
100
AcDbLine
 10
19.91673887931479
 20
6.142135623730951
 30
0.0
 11
19.91673887931479
 21
2.544155877284291
 31
0.0
  0
LINE
  5
C1
330
1F
100
AcDbEntity
  8
interior
100
AcDbLine
 10
19.91673887931479
 20
2.544155877284291
 30
0.0
 11
23.51471862576144
 21
2.544155877284291
 31
0.0
  0
LINE
  5
C2
330
1F
100
AcDbEntity
  8
interior
100
AcDbLine
 10
23.51471862576144
 20
2.544155877284291
 30
0.0
 11
26.05887450304573
 21
0.0
 31
0.0
  0
LINE
  5
C3
330
1F
100
AcDbEntity
  8
interior
100
AcDbLine
 10
26.05887450304573
 20
0.0
 30
0.0
 11
28.60303038033002
 21
2.544155877284291
 31
0.0
  0
LINE
  5
C4
330
1F
100
AcDbEntity
  8
interior
100
AcDbLine
 10
28.60303038033002
 20
2.544155877284291
 30
0.0
 11
32.20101012677668
 21
2.544155877284291
 31
0.0
  0
LINE
  5
C5
330
1F
100
AcDbEntity
  8
interior
100
AcDbLine
 10
32.20101012677668
 20
2.544155877284291
 30
0.0
 11
32.20101012677668
 21
6.14213562373094
 31
0.0
  0
LINE
  5
C6
330
1F
100
AcDbEntity
  8
interior
100
AcDbLine
 10
32.20101012677668
 20
6.14213562373094
 30
0.0
 11
34.74516600406098
 21
8.68629150101524
 31
0.0
  0
LINE
  5
C7
330
1F
100
AcDbEntity
  8
interior
100
AcDbLine
 10
34.74516600406098
 20
8.68629150101524
 30
0.0
 11
32.20101012677668
 21
11.23044737829954
 31
0.0
  0
LINE
  5
C8
330
1F
100
AcDbEntity
  8
interior
100
AcDbLine
 10
32.20101012677668
 20
11.23044737829954
 30
0.0
 11
32.20101012677668
 21
14.82842712474619
 31
0.0
  0
LINE
  5
C9
330
1F
100
AcDbEntity
  8
interior
100
AcDbLine
 10
32.20101012677668
 20
14.82842712474619
 30
0.0
 11
28.60303038033003
 21
14.82842712474618
 31
0.0
  0
LINE
  5
CA
330
1F
100
AcDbEntity
  8
interior
100
AcDbLine
 10
28.60303038033003
 20
14.82842712474618
 30
0.0
 11
26.05887450304573
 21
17.37258300203049
 31
0.0
  0
LINE
  5
CB
330
1F
100
AcDbEntity
  8
Laser interior
100
AcDbLine
 10
32.20101012677669
 20
6.142135623730946
 30
0.0
 11
33.54516600406099
 21
6.142135623730944
 31
0.0
  0
LINE
  5
CC
330
1F
100
AcDbEntity
  8
Laser interior
100
AcDbLine
 10
35.94516600406098
 20
6.14213562373094
 30
0.0
 11
37.28932188134527
 21
6.142135623730939
 31
0.0
  0
LINE
  5
CD
330
1F
100
AcDbEntity
  8
Laser interior
100
AcDbLine
 10
45.97561338236052
 20
16.17258300203049
 30
0.0
 11
45.97561338236053
 21
14.82842712474618
 31
0.0
  0
LINE
  5
CE
330
1F
100
AcDbEntity
  8
Laser interior
100
AcDbLine
 10
45.97561338236052
 20
19.91673887931478
 30
0.0
 11
45.97561338236052
 21
18.57258300203049
 31
0.0
  0
LINE
  5
CF
330
1F
100
AcDbEntity
  8
Laser interior
100
AcDbLine
 10
40.88730162779193
 20
18.57258300203049
 30
0.0
 11
40.88730162779193
 21
16.17258300203049
 31
0.0
  0
LINE
  5
D0
330
1F
100
AcDbEntity
  8
Laser interior
100
AcDbLine
 10
50.91774900609148
 20
11.23044737829954
 30
0.0
 11
53.31774900609147
 21
11.23044737829954
 31
0.0
  0
LINE
  5
D1
330
1F
100
AcDbEntity
  8
Laser interior
100
AcDbLine
 10
45.97561338236052
 20
14.82842712474618
 30
0.0
 11
43.43145750507622
 21
17.37258300203049
 31
0.0
  0
LINE
  5
D2
330
1F
100
AcDbEntity
  8
Laser interior
100
AcDbLine
 10
49.57359312880718
 20
14.82842712474619
 30
0.0
 11
45.97561338236052
 21
14.82842712474618
 31
0.0
  0
LINE
  5
D3
330
1F
100
AcDbEntity
  8
Laser interior
100
AcDbLine
 10
49.57359312880718
 20
11.23044737829954
 30
0.0
 11
49.57359312880718
 21
14.82842712474619
 31
0.0
  0
LINE
  5
D4
330
1F
100
AcDbEntity
  8
Laser interior
100
AcDbLine
 10
52.11774900609147
 20
8.68629150101524
 30
0.0
 11
49.57359312880718
 21
11.23044737829954
 31
0.0
  0
LINE
  5
D5
330
1F
100
AcDbEntity
  8
Laser interior
100
AcDbLine
 10
49.57359312880718
 20
6.14213562373094
 30
0.0
 11
52.11774900609147
 21
8.68629150101524
 31
0.0
  0
LINE
  5
D6
330
1F
100
AcDbEntity
  8
Laser interior
100
AcDbLine
 10
49.57359312880718
 20
2.544155877284291
 30
0.0
 11
49.57359312880718
 21
6.14213562373094
 31
0.0
  0
LINE
  5
D7
330
1F
100
AcDbEntity
  8
Laser interior
100
AcDbLine
 10
45.97561338236051
 20
2.544155877284291
 30
0.0
 11
49.57359312880718
 21
2.544155877284291
 31
0.0
  0
LINE
  5
D8
330
1F
100
AcDbEntity
  8
Laser interior
100
AcDbLine
 10
43.43145750507622
 20
0.0
 30
0.0
 11
45.97561338236051
 21
2.544155877284291
 31
0.0
  0
LINE
  5
D9
330
1F
100
AcDbEntity
  8
Laser interior
100
AcDbLine
 10
40.88730162779193
 20
2.544155877284291
 30
0.0
 11
43.43145750507622
 21
0.0
 31
0.0
  0
LINE
  5
DA
330
1F
100
AcDbEntity
  8
Laser interior
100
AcDbLine
 10
37.28932188134527
 20
2.544155877284291
 30
0.0
 11
40.88730162779193
 21
2.544155877284291
 31
0.0
  0
LINE
  5
DB
330
1F
100
AcDbEntity
  8
Laser interior
100
AcDbLine
 10
37.28932188134527
 20
6.142135623730951
 30
0.0
 11
37.28932188134527
 21
2.544155877284291
 31
0.0
  0
LINE
  5
DC
330
1F
100
AcDbEntity
  8
Laser interior
100
AcDbLine
 10
34.74516600406098
 20
8.68629150101524
 30
0.0
 11
37.28932188134527
 21
6.142135623730951
 31
0.0
  0
LINE
  5
DD
330
1F
100
AcDbEntity
  8
Laser interior
100
AcDbLine
 10
37.28932188134527
 20
11.23044737829953
 30
0.0
 11
34.74516600406098
 21
8.68629150101524
 31
0.0
  0
LINE
  5
DE
330
1F
100
AcDbEntity
  8
Laser interior
100
AcDbLine
 10
37.28932188134527
 20
14.82842712474619
 30
0.0
 11
37.28932188134527
 21
11.23044737829953
 31
0.0
  0
LINE
  5
DF
330
1F
100
AcDbEntity
  8
Laser interior
100
AcDbLine
 10
40.88730162779193
 20
14.82842712474619
 30
0.0
 11
37.28932188134527
 21
14.82842712474619
 31
0.0
  0
LINE
  5
E0
330
1F
100
AcDbEntity
  8
Laser interior
100
AcDbLine
 10
43.43145750507622
 20
17.37258300203048
 30
0.0
 11
40.88730162779193
 21
14.82842712474619
 31
0.0
  0
LINE
  5
E1
330
1F
100
AcDbEntity
  8
Laser interior
100
AcDbLine
 10
40.88730162779193
 20
14.82842712474619
 30
0.0
 11
41.93145750507622
 21
14.82842712474619
 31
0.0
  0
LINE
  5
E2
330
1F
100
AcDbEntity
  8
Laser interior
100
AcDbLine
 10
44.93145750507622
 20
14.82842712474618
 30
0.0
 11
45.97561338236052
 21
14.82842712474618
 31
0.0
  0
LINE
  5
E3
330
1F
100
AcDbEntity
  8
Laser interior
100
AcDbLine
 10
45.97561338236051
 20
2.54415587728429
 30
0.0
 11
44.93145750507622
 21
2.544155877284293
 31
0.0
  0
LINE
  5
E4
330
1F
100
AcDbEntity
  8
Laser interior
100
AcDbLine
 10
41.93145750507622
 20
2.544155877284297
 30
0.0
 11
40.88730162779193
 21
2.5441558772843
 31
0.0
  0
LINE
  5
E5
330
1F
100
AcDbEntity
  8
Laser interior
100
AcDbLine
 10
49.57359312880718
 20
11.23044737829953
 30
0.0
 11
49.57359312880718
 21
10.18629150101524
 31
0.0
  0
LINE
  5
E6
330
1F
100
AcDbEntity
  8
Laser interior
100
AcDbLine
 10
49.57359312880717
 20
7.186291501015241
 30
0.0
 11
49.57359312880716
 21
6.14213562373094
 31
0.0
  0
LINE
  5
E7
330
1F
100
AcDbEntity
  8
Laser interior
100
AcDbLine
 10
37.28932188134527
 20
6.142135623730951
 30
0.0
 11
37.28932188134527
 21
7.186291501015241
 31
0.0
  0
LINE
  5
E8
330
1F
100
AcDbEntity
  8
Laser interior
100
AcDbLine
 10
37.28932188134528
 20
10.18629150101524
 30
0.0
 11
37.28932188134529
 21
11.23044737829954
 31
0.0
  0
LINE
  5
E9
330
1F
100
AcDbEntity
  8
interior
100
AcDbLine
 10
37.28932188134528
 20
10.18629150101524
 30
0.0
 11
37.28932188134529
 21
11.23044737829954
 31
0.0
  0
LINE
  5
EA
330
1F
100
AcDbEntity
  8
interior
100
AcDbLine
 10
37.28932188134527
 20
6.142135623730951
 30
0.0
 11
37.28932188134527
 21
7.186291501015241
 31
0.0
  0
LINE
  5
EB
330
1F
100
AcDbEntity
  8
interior
100
AcDbLine
 10
49.57359312880717
 20
7.186291501015241
 30
0.0
 11
49.57359312880716
 21
6.14213562373094
 31
0.0
  0
LINE
  5
EC
330
1F
100
AcDbEntity
  8
interior
100
AcDbLine
 10
49.57359312880718
 20
11.23044737829953
 30
0.0
 11
49.57359312880718
 21
10.18629150101524
 31
0.0
  0
LINE
  5
ED
330
1F
100
AcDbEntity
  8
interior
100
AcDbLine
 10
41.93145750507622
 20
2.544155877284297
 30
0.0
 11
40.88730162779193
 21
2.5441558772843
 31
0.0
  0
LINE
  5
EE
330
1F
100
AcDbEntity
  8
interior
100
AcDbLine
 10
45.97561338236051
 20
2.54415587728429
 30
0.0
 11
44.93145750507622
 21
2.544155877284293
 31
0.0
  0
LINE
  5
EF
330
1F
100
AcDbEntity
  8
interior
100
AcDbLine
 10
44.93145750507622
 20
14.82842712474618
 30
0.0
 11
45.97561338236052
 21
14.82842712474618
 31
0.0
  0
LINE
  5
F0
330
1F
100
AcDbEntity
  8
interior
100
AcDbLine
 10
40.88730162779193
 20
14.82842712474619
 30
0.0
 11
41.93145750507622
 21
14.82842712474619
 31
0.0
  0
LINE
  5
F1
330
1F
100
AcDbEntity
  8
interior
100
AcDbLine
 10
43.43145750507622
 20
17.37258300203048
 30
0.0
 11
40.88730162779193
 21
14.82842712474619
 31
0.0
  0
LINE
  5
F2
330
1F
100
AcDbEntity
  8
interior
100
AcDbLine
 10
40.88730162779193
 20
14.82842712474619
 30
0.0
 11
37.28932188134527
 21
14.82842712474619
 31
0.0
  0
LINE
  5
F3
330
1F
100
AcDbEntity
  8
interior
100
AcDbLine
 10
37.28932188134527
 20
14.82842712474619
 30
0.0
 11
37.28932188134527
 21
11.23044737829953
 31
0.0
  0
LINE
  5
F4
330
1F
100
AcDbEntity
  8
interior
100
AcDbLine
 10
37.28932188134527
 20
11.23044737829953
 30
0.0
 11
34.74516600406098
 21
8.68629150101524
 31
0.0
  0
LINE
  5
F5
330
1F
100
AcDbEntity
  8
interior
100
AcDbLine
 10
34.74516600406098
 20
8.68629150101524
 30
0.0
 11
37.28932188134527
 21
6.142135623730951
 31
0.0
  0
LINE
  5
F6
330
1F
100
AcDbEntity
  8
interior
100
AcDbLine
 10
37.28932188134527
 20
6.142135623730951
 30
0.0
 11
37.28932188134527
 21
2.544155877284291
 31
0.0
  0
LINE
  5
F7
330
1F
100
AcDbEntity
  8
interior
100
AcDbLine
 10
37.28932188134527
 20
2.544155877284291
 30
0.0
 11
40.88730162779193
 21
2.544155877284291
 31
0.0
  0
LINE
  5
F8
330
1F
100
AcDbEntity
  8
interior
100
AcDbLine
 10
40.88730162779193
 20
2.544155877284291
 30
0.0
 11
43.43145750507622
 21
0.0
 31
0.0
  0
LINE
  5
F9
330
1F
100
AcDbEntity
  8
interior
100
AcDbLine
 10
43.43145750507622
 20
0.0
 30
0.0
 11
45.97561338236051
 21
2.544155877284291
 31
0.0
  0
LINE
  5
FA
330
1F
100
AcDbEntity
  8
interior
100
AcDbLine
 10
45.97561338236051
 20
2.544155877284291
 30
0.0
 11
49.57359312880718
 21
2.544155877284291
 31
0.0
  0
LINE
  5
FB
330
1F
100
AcDbEntity
  8
interior
100
AcDbLine
 10
49.57359312880718
 20
2.544155877284291
 30
0.0
 11
49.57359312880718
 21
6.14213562373094
 31
0.0
  0
LINE
  5
FC
330
1F
100
AcDbEntity
  8
interior
100
AcDbLine
 10
49.57359312880718
 20
6.14213562373094
 30
0.0
 11
52.11774900609147
 21
8.68629150101524
 31
0.0
  0
LINE
  5
FD
330
1F
100
AcDbEntity
  8
interior
100
AcDbLine
 10
52.11774900609147
 20
8.68629150101524
 30
0.0
 11
49.57359312880718
 21
11.23044737829954
 31
0.0
  0
LINE
  5
FE
330
1F
100
AcDbEntity
  8
interior
100
AcDbLine
 10
49.57359312880718
 20
11.23044737829954
 30
0.0
 11
49.57359312880718
 21
14.82842712474619
 31
0.0
  0
LINE
  5
FF
330
1F
100
AcDbEntity
  8
interior
100
AcDbLine
 10
49.57359312880718
 20
14.82842712474619
 30
0.0
 11
45.97561338236052
 21
14.82842712474618
 31
0.0
  0
LINE
  5
100
330
1F
100
AcDbEntity
  8
interior
100
AcDbLine
 10
45.97561338236052
 20
14.82842712474618
 30
0.0
 11
43.43145750507622
 21
17.37258300203049
 31
0.0
  0
LINE
  5
101
330
1F
100
AcDbEntity
  8
Laser interior
100
AcDbLine
 10
49.57359312880718
 20
6.142135623730946
 30
0.0
 11
50.91774900609148
 21
6.142135623730944
 31
0.0
  0
LINE
  5
102
330
1F
100
AcDbEntity
  8
Laser interior
100
AcDbLine
 10
53.31774900609147
 20
6.14213562373094
 30
0.0
 11
54.66190488337577
 21
6.142135623730939
 31
0.0
  0
LINE
  5
103
330
1F
100
AcDbEntity
  8
Laser interior
100
AcDbLine
 10
63.34819638439102
 20
16.17258300203049
 30
0.0
 11
63.34819638439102
 21
14.82842712474618
 31
0.0
  0
LINE
  5
104
330
1F
100
AcDbEntity
  8
Laser interior
100
AcDbLine
 10
63.348196384391
 20
19.91673887931478
 30
0.0
 11
63.34819638439101
 21
18.57258300203049
 31
0.0
  0
LINE
  5
105
330
1F
100
AcDbEntity
  8
Laser interior
100
AcDbLine
 10
58.25988462982242
 20
18.57258300203049
 30
0.0
 11
58.25988462982241
 21
16.17258300203049
 31
0.0
  0
LINE
  5
106
330
1F
100
AcDbEntity
  8
Laser interior
100
AcDbLine
 10
68.29033200812196
 20
11.23044737829954
 30
0.0
 11
70.69033200812197
 21
11.23044737829954
 31
0.0
  0
LINE
  5
107
330
1F
100
AcDbEntity
  8
Laser interior
100
AcDbLine
 10
63.34819638439102
 20
14.82842712474618
 30
0.0
 11
60.80404050710671
 21
17.37258300203049
 31
0.0
  0
LINE
  5
108
330
1F
100
AcDbEntity
  8
Laser interior
100
AcDbLine
 10
66.94617613083767
 20
14.82842712474619
 30
0.0
 11
63.34819638439102
 21
14.82842712474618
 31
0.0
  0
LINE
  5
109
330
1F
100
AcDbEntity
  8
Laser interior
100
AcDbLine
 10
66.94617613083767
 20
11.23044737829954
 30
0.0
 11
66.94617613083767
 21
14.82842712474619
 31
0.0
  0
LINE
  5
10A
330
1F
100
AcDbEntity
  8
Laser interior
100
AcDbLine
 10
69.49033200812197
 20
8.68629150101524
 30
0.0
 11
66.94617613083767
 21
11.23044737829954
 31
0.0
  0
LINE
  5
10B
330
1F
100
AcDbEntity
  8
Laser interior
100
AcDbLine
 10
66.94617613083767
 20
6.14213562373094
 30
0.0
 11
69.49033200812197
 21
8.68629150101524
 31
0.0
  0
LINE
  5
10C
330
1F
100
AcDbEntity
  8
Laser interior
100
AcDbLine
 10
66.94617613083767
 20
2.544155877284291
 30
0.0
 11
66.94617613083767
 21
6.14213562373094
 31
0.0
  0
LINE
  5
10D
330
1F
100
AcDbEntity
  8
Laser interior
100
AcDbLine
 10
63.348196384391
 20
2.544155877284291
 30
0.0
 11
66.94617613083767
 21
2.544155877284291
 31
0.0
  0
LINE
  5
10E
330
1F
100
AcDbEntity
  8
Laser interior
100
AcDbLine
 10
60.80404050710671
 20
0.0
 30
0.0
 11
63.348196384391
 21
2.544155877284291
 31
0.0
  0
LINE
  5
10F
330
1F
100
AcDbEntity
  8
Laser interior
100
AcDbLine
 10
58.25988462982242
 20
2.544155877284291
 30
0.0
 11
60.80404050710671
 21
0.0
 31
0.0
  0
LINE
  5
110
330
1F
100
AcDbEntity
  8
Laser interior
100
AcDbLine
 10
54.66190488337576
 20
2.544155877284291
 30
0.0
 11
58.25988462982242
 21
2.544155877284291
 31
0.0
  0
LINE
  5
111
330
1F
100
AcDbEntity
  8
Laser interior
100
AcDbLine
 10
54.66190488337576
 20
6.142135623730951
 30
0.0
 11
54.66190488337576
 21
2.544155877284291
 31
0.0
  0
LINE
  5
112
330
1F
100
AcDbEntity
  8
Laser interior
100
AcDbLine
 10
52.11774900609147
 20
8.68629150101524
 30
0.0
 11
54.66190488337576
 21
6.142135623730951
 31
0.0
  0
LINE
  5
113
330
1F
100
AcDbEntity
  8
Laser interior
100
AcDbLine
 10
54.66190488337576
 20
11.23044737829953
 30
0.0
 11
52.11774900609147
 21
8.68629150101524
 31
0.0
  0
LINE
  5
114
330
1F
100
AcDbEntity
  8
Laser interior
100
AcDbLine
 10
54.66190488337576
 20
14.82842712474619
 30
0.0
 11
54.66190488337576
 21
11.23044737829953
 31
0.0
  0
LINE
  5
115
330
1F
100
AcDbEntity
  8
Laser interior
100
AcDbLine
 10
58.25988462982242
 20
14.82842712474619
 30
0.0
 11
54.66190488337576
 21
14.82842712474619
 31
0.0
  0
LINE
  5
116
330
1F
100
AcDbEntity
  8
Laser interior
100
AcDbLine
 10
60.80404050710671
 20
17.37258300203048
 30
0.0
 11
58.25988462982242
 21
14.82842712474619
 31
0.0
  0
LINE
  5
117
330
1F
100
AcDbEntity
  8
Laser interior
100
AcDbLine
 10
58.25988462982242
 20
14.82842712474619
 30
0.0
 11
59.30404050710671
 21
14.82842712474619
 31
0.0
  0
LINE
  5
118
330
1F
100
AcDbEntity
  8
Laser interior
100
AcDbLine
 10
62.30404050710671
 20
14.82842712474618
 30
0.0
 11
63.34819638439102
 21
14.82842712474618
 31
0.0
  0
LINE
  5
119
330
1F
100
AcDbEntity
  8
Laser interior
100
AcDbLine
 10
63.348196384391
 20
2.54415587728429
 30
0.0
 11
62.30404050710671
 21
2.544155877284293
 31
0.0
  0
LINE
  5
11A
330
1F
100
AcDbEntity
  8
Laser interior
100
AcDbLine
 10
59.30404050710671
 20
2.544155877284297
 30
0.0
 11
58.25988462982241
 21
2.5441558772843
 31
0.0
  0
LINE
  5
11B
330
1F
100
AcDbEntity
  8
Laser interior
100
AcDbLine
 10
66.94617613083767
 20
11.23044737829953
 30
0.0
 11
66.94617613083766
 21
10.18629150101524
 31
0.0
  0
LINE
  5
11C
330
1F
100
AcDbEntity
  8
Laser interior
100
AcDbLine
 10
66.94617613083766
 20
7.186291501015241
 30
0.0
 11
66.94617613083766
 21
6.14213562373094
 31
0.0
  0
LINE
  5
11D
330
1F
100
AcDbEntity
  8
Laser interior
100
AcDbLine
 10
54.66190488337576
 20
6.142135623730951
 30
0.0
 11
54.66190488337577
 21
7.186291501015241
 31
0.0
  0
LINE
  5
11E
330
1F
100
AcDbEntity
  8
Laser interior
100
AcDbLine
 10
54.66190488337577
 20
10.18629150101524
 30
0.0
 11
54.66190488337577
 21
11.23044737829954
 31
0.0
  0
LINE
  5
11F
330
1F
100
AcDbEntity
  8
interior
100
AcDbLine
 10
54.66190488337577
 20
10.18629150101524
 30
0.0
 11
54.66190488337577
 21
11.23044737829954
 31
0.0
  0
LINE
  5
120
330
1F
100
AcDbEntity
  8
interior
100
AcDbLine
 10
54.66190488337576
 20
6.142135623730951
 30
0.0
 11
54.66190488337577
 21
7.186291501015241
 31
0.0
  0
LINE
  5
121
330
1F
100
AcDbEntity
  8
interior
100
AcDbLine
 10
66.94617613083766
 20
7.186291501015241
 30
0.0
 11
66.94617613083766
 21
6.14213562373094
 31
0.0
  0
LINE
  5
122
330
1F
100
AcDbEntity
  8
interior
100
AcDbLine
 10
66.94617613083767
 20
11.23044737829953
 30
0.0
 11
66.94617613083766
 21
10.18629150101524
 31
0.0
  0
LINE
  5
123
330
1F
100
AcDbEntity
  8
interior
100
AcDbLine
 10
59.30404050710671
 20
2.544155877284297
 30
0.0
 11
58.25988462982241
 21
2.5441558772843
 31
0.0
  0
LINE
  5
124
330
1F
100
AcDbEntity
  8
interior
100
AcDbLine
 10
63.348196384391
 20
2.54415587728429
 30
0.0
 11
62.30404050710671
 21
2.544155877284293
 31
0.0
  0
LINE
  5
125
330
1F
100
AcDbEntity
  8
interior
100
AcDbLine
 10
62.30404050710671
 20
14.82842712474618
 30
0.0
 11
63.34819638439102
 21
14.82842712474618
 31
0.0
  0
LINE
  5
126
330
1F
100
AcDbEntity
  8
interior
100
AcDbLine
 10
58.25988462982242
 20
14.82842712474619
 30
0.0
 11
59.30404050710671
 21
14.82842712474619
 31
0.0
  0
LINE
  5
127
330
1F
100
AcDbEntity
  8
interior
100
AcDbLine
 10
60.80404050710671
 20
17.37258300203048
 30
0.0
 11
58.25988462982242
 21
14.82842712474619
 31
0.0
  0
LINE
  5
128
330
1F
100
AcDbEntity
  8
interior
100
AcDbLine
 10
58.25988462982242
 20
14.82842712474619
 30
0.0
 11
54.66190488337576
 21
14.82842712474619
 31
0.0
  0
LINE
  5
129
330
1F
100
AcDbEntity
  8
interior
100
AcDbLine
 10
54.66190488337576
 20
14.82842712474619
 30
0.0
 11
54.66190488337576
 21
11.23044737829953
 31
0.0
  0
LINE
  5
12A
330
1F
100
AcDbEntity
  8
interior
100
AcDbLine
 10
54.66190488337576
 20
11.23044737829953
 30
0.0
 11
52.11774900609147
 21
8.68629150101524
 31
0.0
  0
LINE
  5
12B
330
1F
100
AcDbEntity
  8
interior
100
AcDbLine
 10
52.11774900609147
 20
8.68629150101524
 30
0.0
 11
54.66190488337576
 21
6.142135623730951
 31
0.0
  0
LINE
  5
12C
330
1F
100
AcDbEntity
  8
interior
100
AcDbLine
 10
54.66190488337576
 20
6.142135623730951
 30
0.0
 11
54.66190488337576
 21
2.544155877284291
 31
0.0
  0
LINE
  5
12D
330
1F
100
AcDbEntity
  8
interior
100
AcDbLine
 10
54.66190488337576
 20
2.544155877284291
 30
0.0
 11
58.25988462982242
 21
2.544155877284291
 31
0.0
  0
LINE
  5
12E
330
1F
100
AcDbEntity
  8
interior
100
AcDbLine
 10
58.25988462982242
 20
2.544155877284291
 30
0.0
 11
60.80404050710671
 21
0.0
 31
0.0
  0
LINE
  5
12F
330
1F
100
AcDbEntity
  8
interior
100
AcDbLine
 10
60.80404050710671
 20
0.0
 30
0.0
 11
63.348196384391
 21
2.544155877284291
 31
0.0
  0
LINE
  5
130
330
1F
100
AcDbEntity
  8
interior
100
AcDbLine
 10
63.348196384391
 20
2.544155877284291
 30
0.0
 11
66.94617613083767
 21
2.544155877284291
 31
0.0
  0
LINE
  5
131
330
1F
100
AcDbEntity
  8
interior
100
AcDbLine
 10
66.94617613083767
 20
2.544155877284291
 30
0.0
 11
66.94617613083767
 21
6.14213562373094
 31
0.0
  0
LINE
  5
132
330
1F
100
AcDbEntity
  8
interior
100
AcDbLine
 10
66.94617613083767
 20
6.14213562373094
 30
0.0
 11
69.49033200812197
 21
8.68629150101524
 31
0.0
  0
LINE
  5
133
330
1F
100
AcDbEntity
  8
interior
100
AcDbLine
 10
69.49033200812197
 20
8.68629150101524
 30
0.0
 11
66.94617613083767
 21
11.23044737829954
 31
0.0
  0
LINE
  5
134
330
1F
100
AcDbEntity
  8
interior
100
AcDbLine
 10
66.94617613083767
 20
11.23044737829954
 30
0.0
 11
66.94617613083767
 21
14.82842712474619
 31
0.0
  0
LINE
  5
135
330
1F
100
AcDbEntity
  8
interior
100
AcDbLine
 10
66.94617613083767
 20
14.82842712474619
 30
0.0
 11
63.34819638439102
 21
14.82842712474618
 31
0.0
  0
LINE
  5
136
330
1F
100
AcDbEntity
  8
interior
100
AcDbLine
 10
63.34819638439102
 20
14.82842712474618
 30
0.0
 11
60.80404050710671
 21
17.37258300203049
 31
0.0
  0
LINE
  5
137
330
1F
100
AcDbEntity
  8
Laser interior
100
AcDbLine
 10
66.94617613083767
 20
6.142135623730946
 30
0.0
 11
68.29033200812196
 21
6.142135623730944
 31
0.0
  0
LINE
  5
138
330
1F
100
AcDbEntity
  8
Laser interior
100
AcDbLine
 10
70.69033200812197
 20
6.14213562373094
 30
0.0
 11
72.03448788540625
 21
6.142135623730939
 31
0.0
  0
LINE
  5
139
330
1F
100
AcDbEntity
  8
Laser interior
100
AcDbLine
 10
80.72077938642151
 20
16.17258300203049
 30
0.0
 11
80.72077938642151
 21
14.82842712474618
 31
0.0
  0
LINE
  5
13A
330
1F
100
AcDbEntity
  8
Laser interior
100
AcDbLine
 10
80.7207793864215
 20
19.91673887931478
 30
0.0
 11
80.7207793864215
 21
18.57258300203049
 31
0.0
  0
LINE
  5
13B
330
1F
100
AcDbEntity
  8
Laser interior
100
AcDbLine
 10
75.6324676318529
 20
18.57258300203049
 30
0.0
 11
75.6324676318529
 21
16.17258300203049
 31
0.0
  0
LINE
  5
13C
330
1F
100
AcDbEntity
  8
Laser interior
100
AcDbLine
 10
80.72077938642151
 20
14.82842712474618
 30
0.0
 11
78.17662350913722
 21
17.37258300203049
 31
0.0
  0
LINE
  5
13D
330
1F
100
AcDbEntity
  8
Laser interior
100
AcDbLine
 10
84.31875913286817
 20
14.82842712474619
 30
0.0
 11
80.72077938642151
 21
14.82842712474618
 31
0.0
  0
LINE
  5
13E
330
1F
100
AcDbEntity
  8
Laser interior
100
AcDbLine
 10
84.31875913286817
 20
11.23044737829954
 30
0.0
 11
84.31875913286817
 21
14.82842712474619
 31
0.0
  0
LINE
  5
13F
330
1F
100
AcDbEntity
  8
Laser interior
100
AcDbLine
 10
86.86291501015246
 20
8.68629150101524
 30
0.0
 11
84.31875913286817
 21
11.23044737829954
 31
0.0
  0
LINE
  5
140
330
1F
100
AcDbEntity
  8
Laser interior
100
AcDbLine
 10
84.31875913286817
 20
6.14213562373094
 30
0.0
 11
86.86291501015246
 21
8.68629150101524
 31
0.0
  0
LINE
  5
141
330
1F
100
AcDbEntity
  8
Laser interior
100
AcDbLine
 10
84.31875913286817
 20
2.544155877284291
 30
0.0
 11
84.31875913286817
 21
6.14213562373094
 31
0.0
  0
LINE
  5
142
330
1F
100
AcDbEntity
  8
Laser interior
100
AcDbLine
 10
80.7207793864215
 20
2.544155877284291
 30
0.0
 11
84.31875913286817
 21
2.544155877284291
 31
0.0
  0
LINE
  5
143
330
1F
100
AcDbEntity
  8
Laser interior
100
AcDbLine
 10
78.17662350913722
 20
0.0
 30
0.0
 11
80.7207793864215
 21
2.544155877284291
 31
0.0
  0
LINE
  5
144
330
1F
100
AcDbEntity
  8
Laser interior
100
AcDbLine
 10
75.63246763185292
 20
2.544155877284291
 30
0.0
 11
78.17662350913722
 21
0.0
 31
0.0
  0
LINE
  5
145
330
1F
100
AcDbEntity
  8
Laser interior
100
AcDbLine
 10
72.03448788540626
 20
2.544155877284291
 30
0.0
 11
75.63246763185292
 21
2.544155877284291
 31
0.0
  0
LINE
  5
146
330
1F
100
AcDbEntity
  8
Laser interior
100
AcDbLine
 10
72.03448788540626
 20
6.142135623730951
 30
0.0
 11
72.03448788540626
 21
2.544155877284291
 31
0.0
  0
LINE
  5
147
330
1F
100
AcDbEntity
  8
Laser interior
100
AcDbLine
 10
69.49033200812197
 20
8.68629150101524
 30
0.0
 11
72.03448788540626
 21
6.142135623730951
 31
0.0
  0
LINE
  5
148
330
1F
100
AcDbEntity
  8
Laser interior
100
AcDbLine
 10
72.03448788540626
 20
11.23044737829953
 30
0.0
 11
69.49033200812197
 21
8.68629150101524
 31
0.0
  0
LINE
  5
149
330
1F
100
AcDbEntity
  8
Laser interior
100
AcDbLine
 10
72.03448788540626
 20
14.82842712474619
 30
0.0
 11
72.03448788540626
 21
11.23044737829953
 31
0.0
  0
LINE
  5
14A
330
1F
100
AcDbEntity
  8
Laser interior
100
AcDbLine
 10
75.63246763185292
 20
14.82842712474619
 30
0.0
 11
72.03448788540626
 21
14.82842712474619
 31
0.0
  0
LINE
  5
14B
330
1F
100
AcDbEntity
  8
Laser interior
100
AcDbLine
 10
78.17662350913722
 20
17.37258300203048
 30
0.0
 11
75.63246763185292
 21
14.82842712474619
 31
0.0
  0
LINE
  5
14C
330
1F
100
AcDbEntity
  8
Laser interior
100
AcDbLine
 10
75.63246763185292
 20
14.82842712474619
 30
0.0
 11
76.67662350913722
 21
14.82842712474619
 31
0.0
  0
LINE
  5
14D
330
1F
100
AcDbEntity
  8
Laser interior
100
AcDbLine
 10
79.67662350913722
 20
14.82842712474618
 30
0.0
 11
80.72077938642151
 21
14.82842712474618
 31
0.0
  0
LINE
  5
14E
330
1F
100
AcDbEntity
  8
Laser interior
100
AcDbLine
 10
80.7207793864215
 20
2.54415587728429
 30
0.0
 11
79.67662350913722
 21
2.544155877284293
 31
0.0
  0
LINE
  5
14F
330
1F
100
AcDbEntity
  8
Laser interior
100
AcDbLine
 10
76.67662350913722
 20
2.544155877284297
 30
0.0
 11
75.6324676318529
 21
2.5441558772843
 31
0.0
  0
LINE
  5
150
330
1F
100
AcDbEntity
  8
Laser interior
100
AcDbLine
 10
84.31875913286817
 20
11.23044737829953
 30
0.0
 11
84.31875913286815
 21
10.18629150101524
 31
0.0
  0
LINE
  5
151
330
1F
100
AcDbEntity
  8
Laser interior
100
AcDbLine
 10
84.31875913286815
 20
7.186291501015241
 30
0.0
 11
84.31875913286815
 21
6.14213562373094
 31
0.0
  0
LINE
  5
152
330
1F
100
AcDbEntity
  8
Laser interior
100
AcDbLine
 10
72.03448788540626
 20
6.142135623730951
 30
0.0
 11
72.03448788540626
 21
7.186291501015241
 31
0.0
  0
LINE
  5
153
330
1F
100
AcDbEntity
  8
Laser interior
100
AcDbLine
 10
72.03448788540626
 20
10.18629150101524
 30
0.0
 11
72.03448788540626
 21
11.23044737829954
 31
0.0
  0
LINE
  5
154
330
1F
100
AcDbEntity
  8
interior
100
AcDbLine
 10
72.03448788540626
 20
10.18629150101524
 30
0.0
 11
72.03448788540626
 21
11.23044737829954
 31
0.0
  0
LINE
  5
155
330
1F
100
AcDbEntity
  8
interior
100
AcDbLine
 10
72.03448788540626
 20
6.142135623730951
 30
0.0
 11
72.03448788540626
 21
7.186291501015241
 31
0.0
  0
LINE
  5
156
330
1F
100
AcDbEntity
  8
interior
100
AcDbLine
 10
84.31875913286815
 20
7.186291501015241
 30
0.0
 11
84.31875913286815
 21
6.14213562373094
 31
0.0
  0
LINE
  5
157
330
1F
100
AcDbEntity
  8
interior
100
AcDbLine
 10
84.31875913286817
 20
11.23044737829953
 30
0.0
 11
84.31875913286815
 21
10.18629150101524
 31
0.0
  0
LINE
  5
158
330
1F
100
AcDbEntity
  8
interior
100
AcDbLine
 10
76.67662350913722
 20
2.544155877284297
 30
0.0
 11
75.6324676318529
 21
2.5441558772843
 31
0.0
  0
LINE
  5
159
330
1F
100
AcDbEntity
  8
interior
100
AcDbLine
 10
80.7207793864215
 20
2.54415587728429
 30
0.0
 11
79.67662350913722
 21
2.544155877284293
 31
0.0
  0
LINE
  5
15A
330
1F
100
AcDbEntity
  8
interior
100
AcDbLine
 10
79.67662350913722
 20
14.82842712474618
 30
0.0
 11
80.72077938642151
 21
14.82842712474618
 31
0.0
  0
LINE
  5
15B
330
1F
100
AcDbEntity
  8
interior
100
AcDbLine
 10
75.63246763185292
 20
14.82842712474619
 30
0.0
 11
76.67662350913722
 21
14.82842712474619
 31
0.0
  0
LINE
  5
15C
330
1F
100
AcDbEntity
  8
interior
100
AcDbLine
 10
78.17662350913722
 20
17.37258300203048
 30
0.0
 11
75.63246763185292
 21
14.82842712474619
 31
0.0
  0
LINE
  5
15D
330
1F
100
AcDbEntity
  8
interior
100
AcDbLine
 10
75.63246763185292
 20
14.82842712474619
 30
0.0
 11
72.03448788540626
 21
14.82842712474619
 31
0.0
  0
LINE
  5
15E
330
1F
100
AcDbEntity
  8
interior
100
AcDbLine
 10
72.03448788540626
 20
14.82842712474619
 30
0.0
 11
72.03448788540626
 21
11.23044737829953
 31
0.0
  0
LINE
  5
15F
330
1F
100
AcDbEntity
  8
interior
100
AcDbLine
 10
72.03448788540626
 20
11.23044737829953
 30
0.0
 11
69.49033200812197
 21
8.68629150101524
 31
0.0
  0
LINE
  5
160
330
1F
100
AcDbEntity
  8
interior
100
AcDbLine
 10
69.49033200812197
 20
8.68629150101524
 30
0.0
 11
72.03448788540626
 21
6.142135623730951
 31
0.0
  0
LINE
  5
161
330
1F
100
AcDbEntity
  8
interior
100
AcDbLine
 10
72.03448788540626
 20
6.142135623730951
 30
0.0
 11
72.03448788540626
 21
2.544155877284291
 31
0.0
  0
LINE
  5
162
330
1F
100
AcDbEntity
  8
interior
100
AcDbLine
 10
72.03448788540626
 20
2.544155877284291
 30
0.0
 11
75.63246763185292
 21
2.544155877284291
 31
0.0
  0
LINE
  5
163
330
1F
100
AcDbEntity
  8
interior
100
AcDbLine
 10
75.63246763185292
 20
2.544155877284291
 30
0.0
 11
78.17662350913722
 21
0.0
 31
0.0
  0
LINE
  5
164
330
1F
100
AcDbEntity
  8
interior
100
AcDbLine
 10
78.17662350913722
 20
0.0
 30
0.0
 11
80.7207793864215
 21
2.544155877284291
 31
0.0
  0
LINE
  5
165
330
1F
100
AcDbEntity
  8
interior
100
AcDbLine
 10
80.7207793864215
 20
2.544155877284291
 30
0.0
 11
84.31875913286817
 21
2.544155877284291
 31
0.0
  0
LINE
  5
166
330
1F
100
AcDbEntity
  8
interior
100
AcDbLine
 10
84.31875913286817
 20
2.544155877284291
 30
0.0
 11
84.31875913286817
 21
6.14213562373094
 31
0.0
  0
LINE
  5
167
330
1F
100
AcDbEntity
  8
interior
100
AcDbLine
 10
84.31875913286817
 20
6.14213562373094
 30
0.0
 11
86.86291501015246
 21
8.68629150101524
 31
0.0
  0
LINE
  5
168
330
1F
100
AcDbEntity
  8
interior
100
AcDbLine
 10
86.86291501015246
 20
8.68629150101524
 30
0.0
 11
84.31875913286817
 21
11.23044737829954
 31
0.0
  0
LINE
  5
169
330
1F
100
AcDbEntity
  8
interior
100
AcDbLine
 10
84.31875913286817
 20
11.23044737829954
 30
0.0
 11
84.31875913286817
 21
14.82842712474619
 31
0.0
  0
LINE
  5
16A
330
1F
100
AcDbEntity
  8
interior
100
AcDbLine
 10
84.31875913286817
 20
14.82842712474619
 30
0.0
 11
80.72077938642151
 21
14.82842712474618
 31
0.0
  0
LINE
  5
16B
330
1F
100
AcDbEntity
  8
interior
100
AcDbLine
 10
80.72077938642151
 20
14.82842712474618
 30
0.0
 11
78.17662350913722
 21
17.37258300203049
 31
0.0
  0
LINE
  5
16C
330
1F
100
AcDbEntity
  8
Laser interior
100
AcDbLine
 10
11.23044737829954
 20
33.54516600406099
 30
0.0
 11
11.23044737829954
 21
32.20101012677667
 31
0.0
  0
LINE
  5
16D
330
1F
100
AcDbEntity
  8
Laser interior
100
AcDbLine
 10
11.23044737829953
 20
37.28932188134527
 30
0.0
 11
11.23044737829954
 21
35.94516600406098
 31
0.0
  0
LINE
  5
16E
330
1F
100
AcDbEntity
  8
Laser interior
100
AcDbLine
 10
6.142135623730944
 20
35.94516600406098
 30
0.0
 11
6.14213562373094
 21
33.54516600406098
 31
0.0
  0
LINE
  5
16F
330
1F
100
AcDbEntity
  8
Laser interior
100
AcDbLine
 10
16.17258300203049
 20
28.60303038033003
 30
0.0
 11
18.57258300203049
 21
28.60303038033003
 31
0.0
  0
LINE
  5
170
330
1F
100
AcDbEntity
  8
Laser interior
100
AcDbLine
 10
11.23044737829954
 20
32.20101012677667
 30
0.0
 11
8.68629150101524
 21
34.74516600406098
 31
0.0
  0
LINE
  5
171
330
1F
100
AcDbEntity
  8
Laser interior
100
AcDbLine
 10
14.82842712474619
 20
32.20101012677668
 30
0.0
 11
11.23044737829954
 21
32.20101012677667
 31
0.0
  0
LINE
  5
172
330
1F
100
AcDbEntity
  8
Laser interior
100
AcDbLine
 10
14.82842712474619
 20
28.60303038033003
 30
0.0
 11
14.82842712474619
 21
32.20101012677668
 31
0.0
  0
LINE
  5
173
330
1F
100
AcDbEntity
  8
Laser interior
100
AcDbLine
 10
17.37258300203049
 20
26.05887450304573
 30
0.0
 11
14.82842712474619
 21
28.60303038033003
 31
0.0
  0
LINE
  5
174
330
1F
100
AcDbEntity
  8
Laser interior
100
AcDbLine
 10
14.82842712474619
 20
23.51471862576143
 30
0.0
 11
17.37258300203049
 21
26.05887450304573
 31
0.0
  0
LINE
  5
175
330
1F
100
AcDbEntity
  8
Laser interior
100
AcDbLine
 10
14.82842712474619
 20
19.91673887931479
 30
0.0
 11
14.82842712474619
 21
23.51471862576143
 31
0.0
  0
LINE
  5
176
330
1F
100
AcDbEntity
  8
Laser interior
100
AcDbLine
 10
11.23044737829953
 20
19.91673887931479
 30
0.0
 11
14.82842712474619
 21
19.91673887931479
 31
0.0
  0
LINE
  5
177
330
1F
100
AcDbEntity
  8
Laser interior
100
AcDbLine
 10
8.68629150101524
 20
17.37258300203049
 30
0.0
 11
11.23044737829953
 21
19.91673887931479
 31
0.0
  0
LINE
  5
178
330
1F
100
AcDbEntity
  8
Laser interior
100
AcDbLine
 10
6.142135623730951
 20
19.91673887931479
 30
0.0
 11
8.68629150101524
 21
17.37258300203049
 31
0.0
  0
LINE
  5
179
330
1F
100
AcDbEntity
  8
Laser interior
100
AcDbLine
 10
2.544155877284291
 20
19.91673887931479
 30
0.0
 11
6.142135623730951
 21
19.91673887931479
 31
0.0
  0
LINE
  5
17A
330
1F
100
AcDbEntity
  8
Laser interior
100
AcDbLine
 10
2.544155877284291
 20
23.51471862576144
 30
0.0
 11
2.544155877284291
 21
19.91673887931479
 31
0.0
  0
LINE
  5
17B
330
1F
100
AcDbEntity
  8
Laser interior
100
AcDbLine
 10
0.0
 20
26.05887450304573
 30
0.0
 11
2.544155877284291
 21
23.51471862576144
 31
0.0
  0
LINE
  5
17C
330
1F
100
AcDbEntity
  8
Laser interior
100
AcDbLine
 10
2.544155877284291
 20
28.60303038033002
 30
0.0
 11
0.0
 21
26.05887450304573
 31
0.0
  0
LINE
  5
17D
330
1F
100
AcDbEntity
  8
Laser interior
100
AcDbLine
 10
2.544155877284291
 20
32.20101012677668
 30
0.0
 11
2.544155877284291
 21
28.60303038033002
 31
0.0
  0
LINE
  5
17E
330
1F
100
AcDbEntity
  8
Laser interior
100
AcDbLine
 10
6.142135623730951
 20
32.20101012677668
 30
0.0
 11
2.544155877284291
 21
32.20101012677668
 31
0.0
  0
LINE
  5
17F
330
1F
100
AcDbEntity
  8
Laser interior
100
AcDbLine
 10
8.68629150101524
 20
34.74516600406098
 30
0.0
 11
6.142135623730951
 21
32.20101012677668
 31
0.0
  0
LINE
  5
180
330
1F
100
AcDbEntity
  8
Laser interior
100
AcDbLine
 10
6.142135623730951
 20
32.20101012677668
 30
0.0
 11
7.186291501015241
 21
32.20101012677668
 31
0.0
  0
LINE
  5
181
330
1F
100
AcDbEntity
  8
Laser interior
100
AcDbLine
 10
10.18629150101524
 20
32.20101012677668
 30
0.0
 11
11.23044737829954
 21
32.20101012677667
 31
0.0
  0
LINE
  5
182
330
1F
100
AcDbEntity
  8
Laser interior
100
AcDbLine
 10
11.23044737829953
 20
19.91673887931478
 30
0.0
 11
10.18629150101524
 21
19.91673887931479
 31
0.0
  0
LINE
  5
183
330
1F
100
AcDbEntity
  8
Laser interior
100
AcDbLine
 10
7.186291501015241
 20
19.91673887931479
 30
0.0
 11
6.14213562373094
 21
19.91673887931479
 31
0.0
  0
LINE
  5
184
330
1F
100
AcDbEntity
  8
Laser interior
100
AcDbLine
 10
14.82842712474619
 20
28.60303038033002
 30
0.0
 11
14.82842712474619
 21
27.55887450304573
 31
0.0
  0
LINE
  5
185
330
1F
100
AcDbEntity
  8
Laser interior
100
AcDbLine
 10
14.82842712474618
 20
24.55887450304573
 30
0.0
 11
14.82842712474618
 21
23.51471862576143
 31
0.0
  0
LINE
  5
186
330
1F
100
AcDbEntity
  8
Laser interior
100
AcDbLine
 10
2.54415587728429
 20
23.51471862576144
 30
0.0
 11
2.544155877284293
 21
24.55887450304573
 31
0.0
  0
LINE
  5
187
330
1F
100
AcDbEntity
  8
Laser interior
100
AcDbLine
 10
2.544155877284297
 20
27.55887450304573
 30
0.0
 11
2.5441558772843
 21
28.60303038033003
 31
0.0
  0
LINE
  5
188
330
1F
100
AcDbEntity
  8
interior
100
AcDbLine
 10
2.544155877284297
 20
27.55887450304573
 30
0.0
 11
2.5441558772843
 21
28.60303038033003
 31
0.0
  0
LINE
  5
189
330
1F
100
AcDbEntity
  8
interior
100
AcDbLine
 10
2.54415587728429
 20
23.51471862576144
 30
0.0
 11
2.544155877284293
 21
24.55887450304573
 31
0.0
  0
LINE
  5
18A
330
1F
100
AcDbEntity
  8
interior
100
AcDbLine
 10
14.82842712474618
 20
24.55887450304573
 30
0.0
 11
14.82842712474618
 21
23.51471862576143
 31
0.0
  0
LINE
  5
18B
330
1F
100
AcDbEntity
  8
interior
100
AcDbLine
 10
14.82842712474619
 20
28.60303038033002
 30
0.0
 11
14.82842712474619
 21
27.55887450304573
 31
0.0
  0
LINE
  5
18C
330
1F
100
AcDbEntity
  8
interior
100
AcDbLine
 10
7.186291501015241
 20
19.91673887931479
 30
0.0
 11
6.14213562373094
 21
19.91673887931479
 31
0.0
  0
LINE
  5
18D
330
1F
100
AcDbEntity
  8
interior
100
AcDbLine
 10
11.23044737829953
 20
19.91673887931478
 30
0.0
 11
10.18629150101524
 21
19.91673887931479
 31
0.0
  0
LINE
  5
18E
330
1F
100
AcDbEntity
  8
interior
100
AcDbLine
 10
10.18629150101524
 20
32.20101012677668
 30
0.0
 11
11.23044737829954
 21
32.20101012677667
 31
0.0
  0
LINE
  5
18F
330
1F
100
AcDbEntity
  8
interior
100
AcDbLine
 10
6.142135623730951
 20
32.20101012677668
 30
0.0
 11
7.186291501015241
 21
32.20101012677668
 31
0.0
  0
LINE
  5
190
330
1F
100
AcDbEntity
  8
interior
100
AcDbLine
 10
8.68629150101524
 20
34.74516600406098
 30
0.0
 11
6.142135623730951
 21
32.20101012677668
 31
0.0
  0
LINE
  5
191
330
1F
100
AcDbEntity
  8
interior
100
AcDbLine
 10
6.142135623730951
 20
32.20101012677668
 30
0.0
 11
2.544155877284291
 21
32.20101012677668
 31
0.0
  0
LINE
  5
192
330
1F
100
AcDbEntity
  8
interior
100
AcDbLine
 10
2.544155877284291
 20
32.20101012677668
 30
0.0
 11
2.544155877284291
 21
28.60303038033002
 31
0.0
  0
LINE
  5
193
330
1F
100
AcDbEntity
  8
interior
100
AcDbLine
 10
2.544155877284291
 20
28.60303038033002
 30
0.0
 11
0.0
 21
26.05887450304573
 31
0.0
  0
LINE
  5
194
330
1F
100
AcDbEntity
  8
interior
100
AcDbLine
 10
0.0
 20
26.05887450304573
 30
0.0
 11
2.544155877284291
 21
23.51471862576144
 31
0.0
  0
LINE
  5
195
330
1F
100
AcDbEntity
  8
interior
100
AcDbLine
 10
2.544155877284291
 20
23.51471862576144
 30
0.0
 11
2.544155877284291
 21
19.91673887931479
 31
0.0
  0
LINE
  5
196
330
1F
100
AcDbEntity
  8
interior
100
AcDbLine
 10
2.544155877284291
 20
19.91673887931479
 30
0.0
 11
6.142135623730951
 21
19.91673887931479
 31
0.0
  0
LINE
  5
197
330
1F
100
AcDbEntity
  8
interior
100
AcDbLine
 10
6.142135623730951
 20
19.91673887931479
 30
0.0
 11
8.68629150101524
 21
17.37258300203049
 31
0.0
  0
LINE
  5
198
330
1F
100
AcDbEntity
  8
interior
100
AcDbLine
 10
8.68629150101524
 20
17.37258300203049
 30
0.0
 11
11.23044737829953
 21
19.91673887931479
 31
0.0
  0
LINE
  5
199
330
1F
100
AcDbEntity
  8
interior
100
AcDbLine
 10
11.23044737829953
 20
19.91673887931479
 30
0.0
 11
14.82842712474619
 21
19.91673887931479
 31
0.0
  0
LINE
  5
19A
330
1F
100
AcDbEntity
  8
interior
100
AcDbLine
 10
14.82842712474619
 20
19.91673887931479
 30
0.0
 11
14.82842712474619
 21
23.51471862576143
 31
0.0
  0
LINE
  5
19B
330
1F
100
AcDbEntity
  8
interior
100
AcDbLine
 10
14.82842712474619
 20
23.51471862576143
 30
0.0
 11
17.37258300203049
 21
26.05887450304573
 31
0.0
  0
LINE
  5
19C
330
1F
100
AcDbEntity
  8
interior
100
AcDbLine
 10
17.37258300203049
 20
26.05887450304573
 30
0.0
 11
14.82842712474619
 21
28.60303038033003
 31
0.0
  0
LINE
  5
19D
330
1F
100
AcDbEntity
  8
interior
100
AcDbLine
 10
14.82842712474619
 20
28.60303038033003
 30
0.0
 11
14.82842712474619
 21
32.20101012677668
 31
0.0
  0
LINE
  5
19E
330
1F
100
AcDbEntity
  8
interior
100
AcDbLine
 10
14.82842712474619
 20
32.20101012677668
 30
0.0
 11
11.23044737829954
 21
32.20101012677667
 31
0.0
  0
LINE
  5
19F
330
1F
100
AcDbEntity
  8
interior
100
AcDbLine
 10
11.23044737829954
 20
32.20101012677667
 30
0.0
 11
8.68629150101524
 21
34.74516600406098
 31
0.0
  0
LINE
  5
1A0
330
1F
100
AcDbEntity
  8
Laser interior
100
AcDbLine
 10
14.8284271247462
 20
23.51471862576144
 30
0.0
 11
16.17258300203049
 21
23.51471862576144
 31
0.0
  0
LINE
  5
1A1
330
1F
100
AcDbEntity
  8
Laser interior
100
AcDbLine
 10
18.57258300203049
 20
23.51471862576143
 30
0.0
 11
19.91673887931478
 21
23.51471862576143
 31
0.0
  0
LINE
  5
1A2
330
1F
100
AcDbEntity
  8
Laser interior
100
AcDbLine
 10
28.60303038033003
 20
33.54516600406099
 30
0.0
 11
28.60303038033004
 21
32.20101012677667
 31
0.0
  0
LINE
  5
1A3
330
1F
100
AcDbEntity
  8
Laser interior
100
AcDbLine
 10
28.60303038033003
 20
37.28932188134527
 30
0.0
 11
28.60303038033003
 21
35.94516600406098
 31
0.0
  0
LINE
  5
1A4
330
1F
100
AcDbEntity
  8
Laser interior
100
AcDbLine
 10
23.51471862576144
 20
35.94516600406098
 30
0.0
 11
23.51471862576143
 21
33.54516600406098
 31
0.0
  0
LINE
  5
1A5
330
1F
100
AcDbEntity
  8
Laser interior
100
AcDbLine
 10
33.54516600406099
 20
28.60303038033003
 30
0.0
 11
35.94516600406098
 21
28.60303038033003
 31
0.0
  0
LINE
  5
1A6
330
1F
100
AcDbEntity
  8
Laser interior
100
AcDbLine
 10
28.60303038033003
 20
32.20101012677667
 30
0.0
 11
26.05887450304573
 21
34.74516600406098
 31
0.0
  0
LINE
  5
1A7
330
1F
100
AcDbEntity
  8
Laser interior
100
AcDbLine
 10
32.20101012677668
 20
32.20101012677668
 30
0.0
 11
28.60303038033003
 21
32.20101012677667
 31
0.0
  0
LINE
  5
1A8
330
1F
100
AcDbEntity
  8
Laser interior
100
AcDbLine
 10
32.20101012677668
 20
28.60303038033003
 30
0.0
 11
32.20101012677668
 21
32.20101012677668
 31
0.0
  0
LINE
  5
1A9
330
1F
100
AcDbEntity
  8
Laser interior
100
AcDbLine
 10
34.74516600406098
 20
26.05887450304573
 30
0.0
 11
32.20101012677668
 21
28.60303038033003
 31
0.0
  0
LINE
  5
1AA
330
1F
100
AcDbEntity
  8
Laser interior
100
AcDbLine
 10
32.20101012677668
 20
23.51471862576143
 30
0.0
 11
34.74516600406098
 21
26.05887450304573
 31
0.0
  0
LINE
  5
1AB
330
1F
100
AcDbEntity
  8
Laser interior
100
AcDbLine
 10
32.20101012677668
 20
19.91673887931479
 30
0.0
 11
32.20101012677668
 21
23.51471862576143
 31
0.0
  0
LINE
  5
1AC
330
1F
100
AcDbEntity
  8
Laser interior
100
AcDbLine
 10
28.60303038033002
 20
19.91673887931479
 30
0.0
 11
32.20101012677668
 21
19.91673887931479
 31
0.0
  0
LINE
  5
1AD
330
1F
100
AcDbEntity
  8
Laser interior
100
AcDbLine
 10
26.05887450304573
 20
17.37258300203049
 30
0.0
 11
28.60303038033002
 21
19.91673887931479
 31
0.0
  0
LINE
  5
1AE
330
1F
100
AcDbEntity
  8
Laser interior
100
AcDbLine
 10
23.51471862576144
 20
19.91673887931479
 30
0.0
 11
26.05887450304573
 21
17.37258300203049
 31
0.0
  0
LINE
  5
1AF
330
1F
100
AcDbEntity
  8
Laser interior
100
AcDbLine
 10
19.91673887931479
 20
19.91673887931479
 30
0.0
 11
23.51471862576144
 21
19.91673887931479
 31
0.0
  0
LINE
  5
1B0
330
1F
100
AcDbEntity
  8
Laser interior
100
AcDbLine
 10
19.91673887931479
 20
23.51471862576144
 30
0.0
 11
19.91673887931479
 21
19.91673887931479
 31
0.0
  0
LINE
  5
1B1
330
1F
100
AcDbEntity
  8
Laser interior
100
AcDbLine
 10
17.37258300203049
 20
26.05887450304573
 30
0.0
 11
19.91673887931479
 21
23.51471862576144
 31
0.0
  0
LINE
  5
1B2
330
1F
100
AcDbEntity
  8
Laser interior
100
AcDbLine
 10
19.91673887931479
 20
28.60303038033002
 30
0.0
 11
17.37258300203049
 21
26.05887450304573
 31
0.0
  0
LINE
  5
1B3
330
1F
100
AcDbEntity
  8
Laser interior
100
AcDbLine
 10
19.91673887931479
 20
32.20101012677668
 30
0.0
 11
19.91673887931479
 21
28.60303038033002
 31
0.0
  0
LINE
  5
1B4
330
1F
100
AcDbEntity
  8
Laser interior
100
AcDbLine
 10
23.51471862576144
 20
32.20101012677668
 30
0.0
 11
19.91673887931479
 21
32.20101012677668
 31
0.0
  0
LINE
  5
1B5
330
1F
100
AcDbEntity
  8
Laser interior
100
AcDbLine
 10
26.05887450304573
 20
34.74516600406098
 30
0.0
 11
23.51471862576144
 21
32.20101012677668
 31
0.0
  0
LINE
  5
1B6
330
1F
100
AcDbEntity
  8
Laser interior
100
AcDbLine
 10
23.51471862576144
 20
32.20101012677668
 30
0.0
 11
24.55887450304573
 21
32.20101012677668
 31
0.0
  0
LINE
  5
1B7
330
1F
100
AcDbEntity
  8
Laser interior
100
AcDbLine
 10
27.55887450304573
 20
32.20101012677668
 30
0.0
 11
28.60303038033003
 21
32.20101012677667
 31
0.0
  0
LINE
  5
1B8
330
1F
100
AcDbEntity
  8
Laser interior
100
AcDbLine
 10
28.60303038033002
 20
19.91673887931478
 30
0.0
 11
27.55887450304573
 21
19.91673887931479
 31
0.0
  0
LINE
  5
1B9
330
1F
100
AcDbEntity
  8
Laser interior
100
AcDbLine
 10
24.55887450304573
 20
19.91673887931479
 30
0.0
 11
23.51471862576143
 21
19.91673887931479
 31
0.0
  0
LINE
  5
1BA
330
1F
100
AcDbEntity
  8
Laser interior
100
AcDbLine
 10
32.20101012677668
 20
28.60303038033002
 30
0.0
 11
32.20101012677668
 21
27.55887450304573
 31
0.0
  0
LINE
  5
1BB
330
1F
100
AcDbEntity
  8
Laser interior
100
AcDbLine
 10
32.20101012677668
 20
24.55887450304573
 30
0.0
 11
32.20101012677667
 21
23.51471862576143
 31
0.0
  0
LINE
  5
1BC
330
1F
100
AcDbEntity
  8
Laser interior
100
AcDbLine
 10
19.91673887931478
 20
23.51471862576144
 30
0.0
 11
19.91673887931479
 21
24.55887450304573
 31
0.0
  0
LINE
  5
1BD
330
1F
100
AcDbEntity
  8
Laser interior
100
AcDbLine
 10
19.91673887931479
 20
27.55887450304573
 30
0.0
 11
19.91673887931479
 21
28.60303038033003
 31
0.0
  0
LINE
  5
1BE
330
1F
100
AcDbEntity
  8
interior
100
AcDbLine
 10
19.91673887931479
 20
27.55887450304573
 30
0.0
 11
19.91673887931479
 21
28.60303038033003
 31
0.0
  0
LINE
  5
1BF
330
1F
100
AcDbEntity
  8
interior
100
AcDbLine
 10
19.91673887931478
 20
23.51471862576144
 30
0.0
 11
19.91673887931479
 21
24.55887450304573
 31
0.0
  0
LINE
  5
1C0
330
1F
100
AcDbEntity
  8
interior
100
AcDbLine
 10
32.20101012677668
 20
24.55887450304573
 30
0.0
 11
32.20101012677667
 21
23.51471862576143
 31
0.0
  0
LINE
  5
1C1
330
1F
100
AcDbEntity
  8
interior
100
AcDbLine
 10
32.20101012677668
 20
28.60303038033002
 30
0.0
 11
32.20101012677668
 21
27.55887450304573
 31
0.0
  0
LINE
  5
1C2
330
1F
100
AcDbEntity
  8
interior
100
AcDbLine
 10
24.55887450304573
 20
19.91673887931479
 30
0.0
 11
23.51471862576143
 21
19.91673887931479
 31
0.0
  0
LINE
  5
1C3
330
1F
100
AcDbEntity
  8
interior
100
AcDbLine
 10
28.60303038033002
 20
19.91673887931478
 30
0.0
 11
27.55887450304573
 21
19.91673887931479
 31
0.0
  0
LINE
  5
1C4
330
1F
100
AcDbEntity
  8
interior
100
AcDbLine
 10
27.55887450304573
 20
32.20101012677668
 30
0.0
 11
28.60303038033003
 21
32.20101012677667
 31
0.0
  0
LINE
  5
1C5
330
1F
100
AcDbEntity
  8
interior
100
AcDbLine
 10
23.51471862576144
 20
32.20101012677668
 30
0.0
 11
24.55887450304573
 21
32.20101012677668
 31
0.0
  0
LINE
  5
1C6
330
1F
100
AcDbEntity
  8
interior
100
AcDbLine
 10
26.05887450304573
 20
34.74516600406098
 30
0.0
 11
23.51471862576144
 21
32.20101012677668
 31
0.0
  0
LINE
  5
1C7
330
1F
100
AcDbEntity
  8
interior
100
AcDbLine
 10
23.51471862576144
 20
32.20101012677668
 30
0.0
 11
19.91673887931479
 21
32.20101012677668
 31
0.0
  0
LINE
  5
1C8
330
1F
100
AcDbEntity
  8
interior
100
AcDbLine
 10
19.91673887931479
 20
32.20101012677668
 30
0.0
 11
19.91673887931479
 21
28.60303038033002
 31
0.0
  0
LINE
  5
1C9
330
1F
100
AcDbEntity
  8
interior
100
AcDbLine
 10
19.91673887931479
 20
28.60303038033002
 30
0.0
 11
17.37258300203049
 21
26.05887450304573
 31
0.0
  0
LINE
  5
1CA
330
1F
100
AcDbEntity
  8
interior
100
AcDbLine
 10
17.37258300203049
 20
26.05887450304573
 30
0.0
 11
19.91673887931479
 21
23.51471862576144
 31
0.0
  0
LINE
  5
1CB
330
1F
100
AcDbEntity
  8
interior
100
AcDbLine
 10
19.91673887931479
 20
23.51471862576144
 30
0.0
 11
19.91673887931479
 21
19.91673887931479
 31
0.0
  0
LINE
  5
1CC
330
1F
100
AcDbEntity
  8
interior
100
AcDbLine
 10
19.91673887931479
 20
19.91673887931479
 30
0.0
 11
23.51471862576144
 21
19.91673887931479
 31
0.0
  0
LINE
  5
1CD
330
1F
100
AcDbEntity
  8
interior
100
AcDbLine
 10
23.51471862576144
 20
19.91673887931479
 30
0.0
 11
26.05887450304573
 21
17.37258300203049
 31
0.0
  0
LINE
  5
1CE
330
1F
100
AcDbEntity
  8
interior
100
AcDbLine
 10
26.05887450304573
 20
17.37258300203049
 30
0.0
 11
28.60303038033002
 21
19.91673887931479
 31
0.0
  0
LINE
  5
1CF
330
1F
100
AcDbEntity
  8
interior
100
AcDbLine
 10
28.60303038033002
 20
19.91673887931479
 30
0.0
 11
32.20101012677668
 21
19.91673887931479
 31
0.0
  0
LINE
  5
1D0
330
1F
100
AcDbEntity
  8
interior
100
AcDbLine
 10
32.20101012677668
 20
19.91673887931479
 30
0.0
 11
32.20101012677668
 21
23.51471862576143
 31
0.0
  0
LINE
  5
1D1
330
1F
100
AcDbEntity
  8
interior
100
AcDbLine
 10
32.20101012677668
 20
23.51471862576143
 30
0.0
 11
34.74516600406098
 21
26.05887450304573
 31
0.0
  0
LINE
  5
1D2
330
1F
100
AcDbEntity
  8
interior
100
AcDbLine
 10
34.74516600406098
 20
26.05887450304573
 30
0.0
 11
32.20101012677668
 21
28.60303038033003
 31
0.0
  0
LINE
  5
1D3
330
1F
100
AcDbEntity
  8
interior
100
AcDbLine
 10
32.20101012677668
 20
28.60303038033003
 30
0.0
 11
32.20101012677668
 21
32.20101012677668
 31
0.0
  0
LINE
  5
1D4
330
1F
100
AcDbEntity
  8
interior
100
AcDbLine
 10
32.20101012677668
 20
32.20101012677668
 30
0.0
 11
28.60303038033003
 21
32.20101012677667
 31
0.0
  0
LINE
  5
1D5
330
1F
100
AcDbEntity
  8
interior
100
AcDbLine
 10
28.60303038033003
 20
32.20101012677667
 30
0.0
 11
26.05887450304573
 21
34.74516600406098
 31
0.0
  0
LINE
  5
1D6
330
1F
100
AcDbEntity
  8
Laser interior
100
AcDbLine
 10
32.20101012677669
 20
23.51471862576144
 30
0.0
 11
33.54516600406099
 21
23.51471862576144
 31
0.0
  0
LINE
  5
1D7
330
1F
100
AcDbEntity
  8
Laser interior
100
AcDbLine
 10
35.94516600406098
 20
23.51471862576143
 30
0.0
 11
37.28932188134527
 21
23.51471862576143
 31
0.0
  0
LINE
  5
1D8
330
1F
100
AcDbEntity
  8
Laser interior
100
AcDbLine
 10
45.97561338236052
 20
33.54516600406099
 30
0.0
 11
45.97561338236053
 21
32.20101012677667
 31
0.0
  0
LINE
  5
1D9
330
1F
100
AcDbEntity
  8
Laser interior
100
AcDbLine
 10
45.97561338236052
 20
37.28932188134527
 30
0.0
 11
45.97561338236052
 21
35.94516600406098
 31
0.0
  0
LINE
  5
1DA
330
1F
100
AcDbEntity
  8
Laser interior
100
AcDbLine
 10
40.88730162779193
 20
35.94516600406098
 30
0.0
 11
40.88730162779193
 21
33.54516600406098
 31
0.0
  0
LINE
  5
1DB
330
1F
100
AcDbEntity
  8
Laser interior
100
AcDbLine
 10
50.91774900609148
 20
28.60303038033003
 30
0.0
 11
53.31774900609147
 21
28.60303038033003
 31
0.0
  0
LINE
  5
1DC
330
1F
100
AcDbEntity
  8
Laser interior
100
AcDbLine
 10
45.97561338236052
 20
32.20101012677667
 30
0.0
 11
43.43145750507622
 21
34.74516600406098
 31
0.0
  0
LINE
  5
1DD
330
1F
100
AcDbEntity
  8
Laser interior
100
AcDbLine
 10
49.57359312880718
 20
32.20101012677668
 30
0.0
 11
45.97561338236052
 21
32.20101012677667
 31
0.0
  0
LINE
  5
1DE
330
1F
100
AcDbEntity
  8
Laser interior
100
AcDbLine
 10
49.57359312880718
 20
28.60303038033003
 30
0.0
 11
49.57359312880718
 21
32.20101012677668
 31
0.0
  0
LINE
  5
1DF
330
1F
100
AcDbEntity
  8
Laser interior
100
AcDbLine
 10
52.11774900609147
 20
26.05887450304573
 30
0.0
 11
49.57359312880718
 21
28.60303038033003
 31
0.0
  0
LINE
  5
1E0
330
1F
100
AcDbEntity
  8
Laser interior
100
AcDbLine
 10
49.57359312880718
 20
23.51471862576143
 30
0.0
 11
52.11774900609147
 21
26.05887450304573
 31
0.0
  0
LINE
  5
1E1
330
1F
100
AcDbEntity
  8
Laser interior
100
AcDbLine
 10
49.57359312880718
 20
19.91673887931479
 30
0.0
 11
49.57359312880718
 21
23.51471862576143
 31
0.0
  0
LINE
  5
1E2
330
1F
100
AcDbEntity
  8
Laser interior
100
AcDbLine
 10
45.97561338236051
 20
19.91673887931479
 30
0.0
 11
49.57359312880718
 21
19.91673887931479
 31
0.0
  0
LINE
  5
1E3
330
1F
100
AcDbEntity
  8
Laser interior
100
AcDbLine
 10
43.43145750507622
 20
17.37258300203049
 30
0.0
 11
45.97561338236051
 21
19.91673887931479
 31
0.0
  0
LINE
  5
1E4
330
1F
100
AcDbEntity
  8
Laser interior
100
AcDbLine
 10
40.88730162779193
 20
19.91673887931479
 30
0.0
 11
43.43145750507622
 21
17.37258300203049
 31
0.0
  0
LINE
  5
1E5
330
1F
100
AcDbEntity
  8
Laser interior
100
AcDbLine
 10
37.28932188134527
 20
19.91673887931479
 30
0.0
 11
40.88730162779193
 21
19.91673887931479
 31
0.0
  0
LINE
  5
1E6
330
1F
100
AcDbEntity
  8
Laser interior
100
AcDbLine
 10
37.28932188134527
 20
23.51471862576144
 30
0.0
 11
37.28932188134527
 21
19.91673887931479
 31
0.0
  0
LINE
  5
1E7
330
1F
100
AcDbEntity
  8
Laser interior
100
AcDbLine
 10
34.74516600406098
 20
26.05887450304573
 30
0.0
 11
37.28932188134527
 21
23.51471862576144
 31
0.0
  0
LINE
  5
1E8
330
1F
100
AcDbEntity
  8
Laser interior
100
AcDbLine
 10
37.28932188134527
 20
28.60303038033002
 30
0.0
 11
34.74516600406098
 21
26.05887450304573
 31
0.0
  0
LINE
  5
1E9
330
1F
100
AcDbEntity
  8
Laser interior
100
AcDbLine
 10
37.28932188134527
 20
32.20101012677668
 30
0.0
 11
37.28932188134527
 21
28.60303038033002
 31
0.0
  0
LINE
  5
1EA
330
1F
100
AcDbEntity
  8
Laser interior
100
AcDbLine
 10
40.88730162779193
 20
32.20101012677668
 30
0.0
 11
37.28932188134527
 21
32.20101012677668
 31
0.0
  0
LINE
  5
1EB
330
1F
100
AcDbEntity
  8
Laser interior
100
AcDbLine
 10
43.43145750507622
 20
34.74516600406098
 30
0.0
 11
40.88730162779193
 21
32.20101012677668
 31
0.0
  0
LINE
  5
1EC
330
1F
100
AcDbEntity
  8
Laser interior
100
AcDbLine
 10
40.88730162779193
 20
32.20101012677668
 30
0.0
 11
41.93145750507622
 21
32.20101012677668
 31
0.0
  0
LINE
  5
1ED
330
1F
100
AcDbEntity
  8
Laser interior
100
AcDbLine
 10
44.93145750507622
 20
32.20101012677668
 30
0.0
 11
45.97561338236052
 21
32.20101012677667
 31
0.0
  0
LINE
  5
1EE
330
1F
100
AcDbEntity
  8
Laser interior
100
AcDbLine
 10
45.97561338236051
 20
19.91673887931478
 30
0.0
 11
44.93145750507622
 21
19.91673887931479
 31
0.0
  0
LINE
  5
1EF
330
1F
100
AcDbEntity
  8
Laser interior
100
AcDbLine
 10
41.93145750507622
 20
19.91673887931479
 30
0.0
 11
40.88730162779193
 21
19.91673887931479
 31
0.0
  0
LINE
  5
1F0
330
1F
100
AcDbEntity
  8
Laser interior
100
AcDbLine
 10
49.57359312880718
 20
28.60303038033002
 30
0.0
 11
49.57359312880718
 21
27.55887450304573
 31
0.0
  0
LINE
  5
1F1
330
1F
100
AcDbEntity
  8
Laser interior
100
AcDbLine
 10
49.57359312880717
 20
24.55887450304573
 30
0.0
 11
49.57359312880716
 21
23.51471862576143
 31
0.0
  0
LINE
  5
1F2
330
1F
100
AcDbEntity
  8
Laser interior
100
AcDbLine
 10
37.28932188134527
 20
23.51471862576144
 30
0.0
 11
37.28932188134527
 21
24.55887450304573
 31
0.0
  0
LINE
  5
1F3
330
1F
100
AcDbEntity
  8
Laser interior
100
AcDbLine
 10
37.28932188134528
 20
27.55887450304573
 30
0.0
 11
37.28932188134529
 21
28.60303038033003
 31
0.0
  0
LINE
  5
1F4
330
1F
100
AcDbEntity
  8
interior
100
AcDbLine
 10
37.28932188134528
 20
27.55887450304573
 30
0.0
 11
37.28932188134529
 21
28.60303038033003
 31
0.0
  0
LINE
  5
1F5
330
1F
100
AcDbEntity
  8
interior
100
AcDbLine
 10
37.28932188134527
 20
23.51471862576144
 30
0.0
 11
37.28932188134527
 21
24.55887450304573
 31
0.0
  0
LINE
  5
1F6
330
1F
100
AcDbEntity
  8
interior
100
AcDbLine
 10
49.57359312880717
 20
24.55887450304573
 30
0.0
 11
49.57359312880716
 21
23.51471862576143
 31
0.0
  0
LINE
  5
1F7
330
1F
100
AcDbEntity
  8
interior
100
AcDbLine
 10
49.57359312880718
 20
28.60303038033002
 30
0.0
 11
49.57359312880718
 21
27.55887450304573
 31
0.0
  0
LINE
  5
1F8
330
1F
100
AcDbEntity
  8
interior
100
AcDbLine
 10
41.93145750507622
 20
19.91673887931479
 30
0.0
 11
40.88730162779193
 21
19.91673887931479
 31
0.0
  0
LINE
  5
1F9
330
1F
100
AcDbEntity
  8
interior
100
AcDbLine
 10
45.97561338236051
 20
19.91673887931478
 30
0.0
 11
44.93145750507622
 21
19.91673887931479
 31
0.0
  0
LINE
  5
1FA
330
1F
100
AcDbEntity
  8
interior
100
AcDbLine
 10
44.93145750507622
 20
32.20101012677668
 30
0.0
 11
45.97561338236052
 21
32.20101012677667
 31
0.0
  0
LINE
  5
1FB
330
1F
100
AcDbEntity
  8
interior
100
AcDbLine
 10
40.88730162779193
 20
32.20101012677668
 30
0.0
 11
41.93145750507622
 21
32.20101012677668
 31
0.0
  0
LINE
  5
1FC
330
1F
100
AcDbEntity
  8
interior
100
AcDbLine
 10
43.43145750507622
 20
34.74516600406098
 30
0.0
 11
40.88730162779193
 21
32.20101012677668
 31
0.0
  0
LINE
  5
1FD
330
1F
100
AcDbEntity
  8
interior
100
AcDbLine
 10
40.88730162779193
 20
32.20101012677668
 30
0.0
 11
37.28932188134527
 21
32.20101012677668
 31
0.0
  0
LINE
  5
1FE
330
1F
100
AcDbEntity
  8
interior
100
AcDbLine
 10
37.28932188134527
 20
32.20101012677668
 30
0.0
 11
37.28932188134527
 21
28.60303038033002
 31
0.0
  0
LINE
  5
1FF
330
1F
100
AcDbEntity
  8
interior
100
AcDbLine
 10
37.28932188134527
 20
28.60303038033002
 30
0.0
 11
34.74516600406098
 21
26.05887450304573
 31
0.0
  0
LINE
  5
200
330
1F
100
AcDbEntity
  8
interior
100
AcDbLine
 10
34.74516600406098
 20
26.05887450304573
 30
0.0
 11
37.28932188134527
 21
23.51471862576144
 31
0.0
  0
LINE
  5
201
330
1F
100
AcDbEntity
  8
interior
100
AcDbLine
 10
37.28932188134527
 20
23.51471862576144
 30
0.0
 11
37.28932188134527
 21
19.91673887931479
 31
0.0
  0
LINE
  5
202
330
1F
100
AcDbEntity
  8
interior
100
AcDbLine
 10
37.28932188134527
 20
19.91673887931479
 30
0.0
 11
40.88730162779193
 21
19.91673887931479
 31
0.0
  0
LINE
  5
203
330
1F
100
AcDbEntity
  8
interior
100
AcDbLine
 10
40.88730162779193
 20
19.91673887931479
 30
0.0
 11
43.43145750507622
 21
17.37258300203049
 31
0.0
  0
LINE
  5
204
330
1F
100
AcDbEntity
  8
interior
100
AcDbLine
 10
43.43145750507622
 20
17.37258300203049
 30
0.0
 11
45.97561338236051
 21
19.91673887931479
 31
0.0
  0
LINE
  5
205
330
1F
100
AcDbEntity
  8
interior
100
AcDbLine
 10
45.97561338236051
 20
19.91673887931479
 30
0.0
 11
49.57359312880718
 21
19.91673887931479
 31
0.0
  0
LINE
  5
206
330
1F
100
AcDbEntity
  8
interior
100
AcDbLine
 10
49.57359312880718
 20
19.91673887931479
 30
0.0
 11
49.57359312880718
 21
23.51471862576143
 31
0.0
  0
LINE
  5
207
330
1F
100
AcDbEntity
  8
interior
100
AcDbLine
 10
49.57359312880718
 20
23.51471862576143
 30
0.0
 11
52.11774900609147
 21
26.05887450304573
 31
0.0
  0
LINE
  5
208
330
1F
100
AcDbEntity
  8
interior
100
AcDbLine
 10
52.11774900609147
 20
26.05887450304573
 30
0.0
 11
49.57359312880718
 21
28.60303038033003
 31
0.0
  0
LINE
  5
209
330
1F
100
AcDbEntity
  8
interior
100
AcDbLine
 10
49.57359312880718
 20
28.60303038033003
 30
0.0
 11
49.57359312880718
 21
32.20101012677668
 31
0.0
  0
LINE
  5
20A
330
1F
100
AcDbEntity
  8
interior
100
AcDbLine
 10
49.57359312880718
 20
32.20101012677668
 30
0.0
 11
45.97561338236052
 21
32.20101012677667
 31
0.0
  0
LINE
  5
20B
330
1F
100
AcDbEntity
  8
interior
100
AcDbLine
 10
45.97561338236052
 20
32.20101012677667
 30
0.0
 11
43.43145750507622
 21
34.74516600406098
 31
0.0
  0
LINE
  5
20C
330
1F
100
AcDbEntity
  8
Laser interior
100
AcDbLine
 10
49.57359312880718
 20
23.51471862576144
 30
0.0
 11
50.91774900609148
 21
23.51471862576144
 31
0.0
  0
LINE
  5
20D
330
1F
100
AcDbEntity
  8
Laser interior
100
AcDbLine
 10
53.31774900609147
 20
23.51471862576143
 30
0.0
 11
54.66190488337577
 21
23.51471862576143
 31
0.0
  0
LINE
  5
20E
330
1F
100
AcDbEntity
  8
Laser interior
100
AcDbLine
 10
63.34819638439102
 20
33.54516600406099
 30
0.0
 11
63.34819638439102
 21
32.20101012677667
 31
0.0
  0
LINE
  5
20F
330
1F
100
AcDbEntity
  8
Laser interior
100
AcDbLine
 10
63.348196384391
 20
37.28932188134527
 30
0.0
 11
63.34819638439101
 21
35.94516600406098
 31
0.0
  0
LINE
  5
210
330
1F
100
AcDbEntity
  8
Laser interior
100
AcDbLine
 10
58.25988462982242
 20
35.94516600406098
 30
0.0
 11
58.25988462982241
 21
33.54516600406098
 31
0.0
  0
LINE
  5
211
330
1F
100
AcDbEntity
  8
Laser interior
100
AcDbLine
 10
68.29033200812196
 20
28.60303038033003
 30
0.0
 11
70.69033200812197
 21
28.60303038033003
 31
0.0
  0
LINE
  5
212
330
1F
100
AcDbEntity
  8
Laser interior
100
AcDbLine
 10
63.34819638439102
 20
32.20101012677667
 30
0.0
 11
60.80404050710671
 21
34.74516600406098
 31
0.0
  0
LINE
  5
213
330
1F
100
AcDbEntity
  8
Laser interior
100
AcDbLine
 10
66.94617613083767
 20
32.20101012677668
 30
0.0
 11
63.34819638439102
 21
32.20101012677667
 31
0.0
  0
LINE
  5
214
330
1F
100
AcDbEntity
  8
Laser interior
100
AcDbLine
 10
66.94617613083767
 20
28.60303038033003
 30
0.0
 11
66.94617613083767
 21
32.20101012677668
 31
0.0
  0
LINE
  5
215
330
1F
100
AcDbEntity
  8
Laser interior
100
AcDbLine
 10
69.49033200812197
 20
26.05887450304573
 30
0.0
 11
66.94617613083767
 21
28.60303038033003
 31
0.0
  0
LINE
  5
216
330
1F
100
AcDbEntity
  8
Laser interior
100
AcDbLine
 10
66.94617613083767
 20
23.51471862576143
 30
0.0
 11
69.49033200812197
 21
26.05887450304573
 31
0.0
  0
LINE
  5
217
330
1F
100
AcDbEntity
  8
Laser interior
100
AcDbLine
 10
66.94617613083767
 20
19.91673887931479
 30
0.0
 11
66.94617613083767
 21
23.51471862576143
 31
0.0
  0
LINE
  5
218
330
1F
100
AcDbEntity
  8
Laser interior
100
AcDbLine
 10
63.348196384391
 20
19.91673887931479
 30
0.0
 11
66.94617613083767
 21
19.91673887931479
 31
0.0
  0
LINE
  5
219
330
1F
100
AcDbEntity
  8
Laser interior
100
AcDbLine
 10
60.80404050710671
 20
17.37258300203049
 30
0.0
 11
63.348196384391
 21
19.91673887931479
 31
0.0
  0
LINE
  5
21A
330
1F
100
AcDbEntity
  8
Laser interior
100
AcDbLine
 10
58.25988462982242
 20
19.91673887931479
 30
0.0
 11
60.80404050710671
 21
17.37258300203049
 31
0.0
  0
LINE
  5
21B
330
1F
100
AcDbEntity
  8
Laser interior
100
AcDbLine
 10
54.66190488337576
 20
19.91673887931479
 30
0.0
 11
58.25988462982242
 21
19.91673887931479
 31
0.0
  0
LINE
  5
21C
330
1F
100
AcDbEntity
  8
Laser interior
100
AcDbLine
 10
54.66190488337576
 20
23.51471862576144
 30
0.0
 11
54.66190488337576
 21
19.91673887931479
 31
0.0
  0
LINE
  5
21D
330
1F
100
AcDbEntity
  8
Laser interior
100
AcDbLine
 10
52.11774900609147
 20
26.05887450304573
 30
0.0
 11
54.66190488337576
 21
23.51471862576144
 31
0.0
  0
LINE
  5
21E
330
1F
100
AcDbEntity
  8
Laser interior
100
AcDbLine
 10
54.66190488337576
 20
28.60303038033002
 30
0.0
 11
52.11774900609147
 21
26.05887450304573
 31
0.0
  0
LINE
  5
21F
330
1F
100
AcDbEntity
  8
Laser interior
100
AcDbLine
 10
54.66190488337576
 20
32.20101012677668
 30
0.0
 11
54.66190488337576
 21
28.60303038033002
 31
0.0
  0
LINE
  5
220
330
1F
100
AcDbEntity
  8
Laser interior
100
AcDbLine
 10
58.25988462982242
 20
32.20101012677668
 30
0.0
 11
54.66190488337576
 21
32.20101012677668
 31
0.0
  0
LINE
  5
221
330
1F
100
AcDbEntity
  8
Laser interior
100
AcDbLine
 10
60.80404050710671
 20
34.74516600406098
 30
0.0
 11
58.25988462982242
 21
32.20101012677668
 31
0.0
  0
LINE
  5
222
330
1F
100
AcDbEntity
  8
Laser interior
100
AcDbLine
 10
58.25988462982242
 20
32.20101012677668
 30
0.0
 11
59.30404050710671
 21
32.20101012677668
 31
0.0
  0
LINE
  5
223
330
1F
100
AcDbEntity
  8
Laser interior
100
AcDbLine
 10
62.30404050710671
 20
32.20101012677668
 30
0.0
 11
63.34819638439102
 21
32.20101012677667
 31
0.0
  0
LINE
  5
224
330
1F
100
AcDbEntity
  8
Laser interior
100
AcDbLine
 10
63.348196384391
 20
19.91673887931478
 30
0.0
 11
62.30404050710671
 21
19.91673887931479
 31
0.0
  0
LINE
  5
225
330
1F
100
AcDbEntity
  8
Laser interior
100
AcDbLine
 10
59.30404050710671
 20
19.91673887931479
 30
0.0
 11
58.25988462982241
 21
19.91673887931479
 31
0.0
  0
LINE
  5
226
330
1F
100
AcDbEntity
  8
Laser interior
100
AcDbLine
 10
66.94617613083767
 20
28.60303038033002
 30
0.0
 11
66.94617613083766
 21
27.55887450304573
 31
0.0
  0
LINE
  5
227
330
1F
100
AcDbEntity
  8
Laser interior
100
AcDbLine
 10
66.94617613083766
 20
24.55887450304573
 30
0.0
 11
66.94617613083766
 21
23.51471862576143
 31
0.0
  0
LINE
  5
228
330
1F
100
AcDbEntity
  8
Laser interior
100
AcDbLine
 10
54.66190488337576
 20
23.51471862576144
 30
0.0
 11
54.66190488337577
 21
24.55887450304573
 31
0.0
  0
LINE
  5
229
330
1F
100
AcDbEntity
  8
Laser interior
100
AcDbLine
 10
54.66190488337577
 20
27.55887450304573
 30
0.0
 11
54.66190488337577
 21
28.60303038033003
 31
0.0
  0
LINE
  5
22A
330
1F
100
AcDbEntity
  8
interior
100
AcDbLine
 10
54.66190488337577
 20
27.55887450304573
 30
0.0
 11
54.66190488337577
 21
28.60303038033003
 31
0.0
  0
LINE
  5
22B
330
1F
100
AcDbEntity
  8
interior
100
AcDbLine
 10
54.66190488337576
 20
23.51471862576144
 30
0.0
 11
54.66190488337577
 21
24.55887450304573
 31
0.0
  0
LINE
  5
22C
330
1F
100
AcDbEntity
  8
interior
100
AcDbLine
 10
66.94617613083766
 20
24.55887450304573
 30
0.0
 11
66.94617613083766
 21
23.51471862576143
 31
0.0
  0
LINE
  5
22D
330
1F
100
AcDbEntity
  8
interior
100
AcDbLine
 10
66.94617613083767
 20
28.60303038033002
 30
0.0
 11
66.94617613083766
 21
27.55887450304573
 31
0.0
  0
LINE
  5
22E
330
1F
100
AcDbEntity
  8
interior
100
AcDbLine
 10
59.30404050710671
 20
19.91673887931479
 30
0.0
 11
58.25988462982241
 21
19.91673887931479
 31
0.0
  0
LINE
  5
22F
330
1F
100
AcDbEntity
  8
interior
100
AcDbLine
 10
63.348196384391
 20
19.91673887931478
 30
0.0
 11
62.30404050710671
 21
19.91673887931479
 31
0.0
  0
LINE
  5
230
330
1F
100
AcDbEntity
  8
interior
100
AcDbLine
 10
62.30404050710671
 20
32.20101012677668
 30
0.0
 11
63.34819638439102
 21
32.20101012677667
 31
0.0
  0
LINE
  5
231
330
1F
100
AcDbEntity
  8
interior
100
AcDbLine
 10
58.25988462982242
 20
32.20101012677668
 30
0.0
 11
59.30404050710671
 21
32.20101012677668
 31
0.0
  0
LINE
  5
232
330
1F
100
AcDbEntity
  8
interior
100
AcDbLine
 10
60.80404050710671
 20
34.74516600406098
 30
0.0
 11
58.25988462982242
 21
32.20101012677668
 31
0.0
  0
LINE
  5
233
330
1F
100
AcDbEntity
  8
interior
100
AcDbLine
 10
58.25988462982242
 20
32.20101012677668
 30
0.0
 11
54.66190488337576
 21
32.20101012677668
 31
0.0
  0
LINE
  5
234
330
1F
100
AcDbEntity
  8
interior
100
AcDbLine
 10
54.66190488337576
 20
32.20101012677668
 30
0.0
 11
54.66190488337576
 21
28.60303038033002
 31
0.0
  0
LINE
  5
235
330
1F
100
AcDbEntity
  8
interior
100
AcDbLine
 10
54.66190488337576
 20
28.60303038033002
 30
0.0
 11
52.11774900609147
 21
26.05887450304573
 31
0.0
  0
LINE
  5
236
330
1F
100
AcDbEntity
  8
interior
100
AcDbLine
 10
52.11774900609147
 20
26.05887450304573
 30
0.0
 11
54.66190488337576
 21
23.51471862576144
 31
0.0
  0
LINE
  5
237
330
1F
100
AcDbEntity
  8
interior
100
AcDbLine
 10
54.66190488337576
 20
23.51471862576144
 30
0.0
 11
54.66190488337576
 21
19.91673887931479
 31
0.0
  0
LINE
  5
238
330
1F
100
AcDbEntity
  8
interior
100
AcDbLine
 10
54.66190488337576
 20
19.91673887931479
 30
0.0
 11
58.25988462982242
 21
19.91673887931479
 31
0.0
  0
LINE
  5
239
330
1F
100
AcDbEntity
  8
interior
100
AcDbLine
 10
58.25988462982242
 20
19.91673887931479
 30
0.0
 11
60.80404050710671
 21
17.37258300203049
 31
0.0
  0
LINE
  5
23A
330
1F
100
AcDbEntity
  8
interior
100
AcDbLine
 10
60.80404050710671
 20
17.37258300203049
 30
0.0
 11
63.348196384391
 21
19.91673887931479
 31
0.0
  0
LINE
  5
23B
330
1F
100
AcDbEntity
  8
interior
100
AcDbLine
 10
63.348196384391
 20
19.91673887931479
 30
0.0
 11
66.94617613083767
 21
19.91673887931479
 31
0.0
  0
LINE
  5
23C
330
1F
100
AcDbEntity
  8
interior
100
AcDbLine
 10
66.94617613083767
 20
19.91673887931479
 30
0.0
 11
66.94617613083767
 21
23.51471862576143
 31
0.0
  0
LINE
  5
23D
330
1F
100
AcDbEntity
  8
interior
100
AcDbLine
 10
66.94617613083767
 20
23.51471862576143
 30
0.0
 11
69.49033200812197
 21
26.05887450304573
 31
0.0
  0
LINE
  5
23E
330
1F
100
AcDbEntity
  8
interior
100
AcDbLine
 10
69.49033200812197
 20
26.05887450304573
 30
0.0
 11
66.94617613083767
 21
28.60303038033003
 31
0.0
  0
LINE
  5
23F
330
1F
100
AcDbEntity
  8
interior
100
AcDbLine
 10
66.94617613083767
 20
28.60303038033003
 30
0.0
 11
66.94617613083767
 21
32.20101012677668
 31
0.0
  0
LINE
  5
240
330
1F
100
AcDbEntity
  8
interior
100
AcDbLine
 10
66.94617613083767
 20
32.20101012677668
 30
0.0
 11
63.34819638439102
 21
32.20101012677667
 31
0.0
  0
LINE
  5
241
330
1F
100
AcDbEntity
  8
interior
100
AcDbLine
 10
63.34819638439102
 20
32.20101012677667
 30
0.0
 11
60.80404050710671
 21
34.74516600406098
 31
0.0
  0
LINE
  5
242
330
1F
100
AcDbEntity
  8
Laser interior
100
AcDbLine
 10
66.94617613083767
 20
23.51471862576144
 30
0.0
 11
68.29033200812196
 21
23.51471862576144
 31
0.0
  0
LINE
  5
243
330
1F
100
AcDbEntity
  8
Laser interior
100
AcDbLine
 10
70.69033200812197
 20
23.51471862576143
 30
0.0
 11
72.03448788540625
 21
23.51471862576143
 31
0.0
  0
LINE
  5
244
330
1F
100
AcDbEntity
  8
Laser interior
100
AcDbLine
 10
80.72077938642151
 20
33.54516600406099
 30
0.0
 11
80.72077938642151
 21
32.20101012677667
 31
0.0
  0
LINE
  5
245
330
1F
100
AcDbEntity
  8
Laser interior
100
AcDbLine
 10
80.7207793864215
 20
37.28932188134527
 30
0.0
 11
80.7207793864215
 21
35.94516600406098
 31
0.0
  0
LINE
  5
246
330
1F
100
AcDbEntity
  8
Laser interior
100
AcDbLine
 10
75.6324676318529
 20
35.94516600406098
 30
0.0
 11
75.6324676318529
 21
33.54516600406098
 31
0.0
  0
LINE
  5
247
330
1F
100
AcDbEntity
  8
Laser interior
100
AcDbLine
 10
80.72077938642151
 20
32.20101012677667
 30
0.0
 11
78.17662350913722
 21
34.74516600406098
 31
0.0
  0
LINE
  5
248
330
1F
100
AcDbEntity
  8
Laser interior
100
AcDbLine
 10
84.31875913286817
 20
32.20101012677668
 30
0.0
 11
80.72077938642151
 21
32.20101012677667
 31
0.0
  0
LINE
  5
249
330
1F
100
AcDbEntity
  8
Laser interior
100
AcDbLine
 10
84.31875913286817
 20
28.60303038033003
 30
0.0
 11
84.31875913286817
 21
32.20101012677668
 31
0.0
  0
LINE
  5
24A
330
1F
100
AcDbEntity
  8
Laser interior
100
AcDbLine
 10
86.86291501015246
 20
26.05887450304573
 30
0.0
 11
84.31875913286817
 21
28.60303038033003
 31
0.0
  0
LINE
  5
24B
330
1F
100
AcDbEntity
  8
Laser interior
100
AcDbLine
 10
84.31875913286817
 20
23.51471862576143
 30
0.0
 11
86.86291501015246
 21
26.05887450304573
 31
0.0
  0
LINE
  5
24C
330
1F
100
AcDbEntity
  8
Laser interior
100
AcDbLine
 10
84.31875913286817
 20
19.91673887931479
 30
0.0
 11
84.31875913286817
 21
23.51471862576143
 31
0.0
  0
LINE
  5
24D
330
1F
100
AcDbEntity
  8
Laser interior
100
AcDbLine
 10
80.7207793864215
 20
19.91673887931479
 30
0.0
 11
84.31875913286817
 21
19.91673887931479
 31
0.0
  0
LINE
  5
24E
330
1F
100
AcDbEntity
  8
Laser interior
100
AcDbLine
 10
78.17662350913722
 20
17.37258300203049
 30
0.0
 11
80.7207793864215
 21
19.91673887931479
 31
0.0
  0
LINE
  5
24F
330
1F
100
AcDbEntity
  8
Laser interior
100
AcDbLine
 10
75.63246763185292
 20
19.91673887931479
 30
0.0
 11
78.17662350913722
 21
17.37258300203049
 31
0.0
  0
LINE
  5
250
330
1F
100
AcDbEntity
  8
Laser interior
100
AcDbLine
 10
72.03448788540626
 20
19.91673887931479
 30
0.0
 11
75.63246763185292
 21
19.91673887931479
 31
0.0
  0
LINE
  5
251
330
1F
100
AcDbEntity
  8
Laser interior
100
AcDbLine
 10
72.03448788540626
 20
23.51471862576144
 30
0.0
 11
72.03448788540626
 21
19.91673887931479
 31
0.0
  0
LINE
  5
252
330
1F
100
AcDbEntity
  8
Laser interior
100
AcDbLine
 10
69.49033200812197
 20
26.05887450304573
 30
0.0
 11
72.03448788540626
 21
23.51471862576144
 31
0.0
  0
LINE
  5
253
330
1F
100
AcDbEntity
  8
Laser interior
100
AcDbLine
 10
72.03448788540626
 20
28.60303038033002
 30
0.0
 11
69.49033200812197
 21
26.05887450304573
 31
0.0
  0
LINE
  5
254
330
1F
100
AcDbEntity
  8
Laser interior
100
AcDbLine
 10
72.03448788540626
 20
32.20101012677668
 30
0.0
 11
72.03448788540626
 21
28.60303038033002
 31
0.0
  0
LINE
  5
255
330
1F
100
AcDbEntity
  8
Laser interior
100
AcDbLine
 10
75.63246763185292
 20
32.20101012677668
 30
0.0
 11
72.03448788540626
 21
32.20101012677668
 31
0.0
  0
LINE
  5
256
330
1F
100
AcDbEntity
  8
Laser interior
100
AcDbLine
 10
78.17662350913722
 20
34.74516600406098
 30
0.0
 11
75.63246763185292
 21
32.20101012677668
 31
0.0
  0
LINE
  5
257
330
1F
100
AcDbEntity
  8
Laser interior
100
AcDbLine
 10
75.63246763185292
 20
32.20101012677668
 30
0.0
 11
76.67662350913722
 21
32.20101012677668
 31
0.0
  0
LINE
  5
258
330
1F
100
AcDbEntity
  8
Laser interior
100
AcDbLine
 10
79.67662350913722
 20
32.20101012677668
 30
0.0
 11
80.72077938642151
 21
32.20101012677667
 31
0.0
  0
LINE
  5
259
330
1F
100
AcDbEntity
  8
Laser interior
100
AcDbLine
 10
80.7207793864215
 20
19.91673887931478
 30
0.0
 11
79.67662350913722
 21
19.91673887931479
 31
0.0
  0
LINE
  5
25A
330
1F
100
AcDbEntity
  8
Laser interior
100
AcDbLine
 10
76.67662350913722
 20
19.91673887931479
 30
0.0
 11
75.6324676318529
 21
19.91673887931479
 31
0.0
  0
LINE
  5
25B
330
1F
100
AcDbEntity
  8
Laser interior
100
AcDbLine
 10
84.31875913286817
 20
28.60303038033002
 30
0.0
 11
84.31875913286815
 21
27.55887450304573
 31
0.0
  0
LINE
  5
25C
330
1F
100
AcDbEntity
  8
Laser interior
100
AcDbLine
 10
84.31875913286815
 20
24.55887450304573
 30
0.0
 11
84.31875913286815
 21
23.51471862576143
 31
0.0
  0
LINE
  5
25D
330
1F
100
AcDbEntity
  8
Laser interior
100
AcDbLine
 10
72.03448788540626
 20
23.51471862576144
 30
0.0
 11
72.03448788540626
 21
24.55887450304573
 31
0.0
  0
LINE
  5
25E
330
1F
100
AcDbEntity
  8
Laser interior
100
AcDbLine
 10
72.03448788540626
 20
27.55887450304573
 30
0.0
 11
72.03448788540626
 21
28.60303038033003
 31
0.0
  0
LINE
  5
25F
330
1F
100
AcDbEntity
  8
interior
100
AcDbLine
 10
72.03448788540626
 20
27.55887450304573
 30
0.0
 11
72.03448788540626
 21
28.60303038033003
 31
0.0
  0
LINE
  5
260
330
1F
100
AcDbEntity
  8
interior
100
AcDbLine
 10
72.03448788540626
 20
23.51471862576144
 30
0.0
 11
72.03448788540626
 21
24.55887450304573
 31
0.0
  0
LINE
  5
261
330
1F
100
AcDbEntity
  8
interior
100
AcDbLine
 10
84.31875913286815
 20
24.55887450304573
 30
0.0
 11
84.31875913286815
 21
23.51471862576143
 31
0.0
  0
LINE
  5
262
330
1F
100
AcDbEntity
  8
interior
100
AcDbLine
 10
84.31875913286817
 20
28.60303038033002
 30
0.0
 11
84.31875913286815
 21
27.55887450304573
 31
0.0
  0
LINE
  5
263
330
1F
100
AcDbEntity
  8
interior
100
AcDbLine
 10
76.67662350913722
 20
19.91673887931479
 30
0.0
 11
75.6324676318529
 21
19.91673887931479
 31
0.0
  0
LINE
  5
264
330
1F
100
AcDbEntity
  8
interior
100
AcDbLine
 10
80.7207793864215
 20
19.91673887931478
 30
0.0
 11
79.67662350913722
 21
19.91673887931479
 31
0.0
  0
LINE
  5
265
330
1F
100
AcDbEntity
  8
interior
100
AcDbLine
 10
79.67662350913722
 20
32.20101012677668
 30
0.0
 11
80.72077938642151
 21
32.20101012677667
 31
0.0
  0
LINE
  5
266
330
1F
100
AcDbEntity
  8
interior
100
AcDbLine
 10
75.63246763185292
 20
32.20101012677668
 30
0.0
 11
76.67662350913722
 21
32.20101012677668
 31
0.0
  0
LINE
  5
267
330
1F
100
AcDbEntity
  8
interior
100
AcDbLine
 10
78.17662350913722
 20
34.74516600406098
 30
0.0
 11
75.63246763185292
 21
32.20101012677668
 31
0.0
  0
LINE
  5
268
330
1F
100
AcDbEntity
  8
interior
100
AcDbLine
 10
75.63246763185292
 20
32.20101012677668
 30
0.0
 11
72.03448788540626
 21
32.20101012677668
 31
0.0
  0
LINE
  5
269
330
1F
100
AcDbEntity
  8
interior
100
AcDbLine
 10
72.03448788540626
 20
32.20101012677668
 30
0.0
 11
72.03448788540626
 21
28.60303038033002
 31
0.0
  0
LINE
  5
26A
330
1F
100
AcDbEntity
  8
interior
100
AcDbLine
 10
72.03448788540626
 20
28.60303038033002
 30
0.0
 11
69.49033200812197
 21
26.05887450304573
 31
0.0
  0
LINE
  5
26B
330
1F
100
AcDbEntity
  8
interior
100
AcDbLine
 10
69.49033200812197
 20
26.05887450304573
 30
0.0
 11
72.03448788540626
 21
23.51471862576144
 31
0.0
  0
LINE
  5
26C
330
1F
100
AcDbEntity
  8
interior
100
AcDbLine
 10
72.03448788540626
 20
23.51471862576144
 30
0.0
 11
72.03448788540626
 21
19.91673887931479
 31
0.0
  0
LINE
  5
26D
330
1F
100
AcDbEntity
  8
interior
100
AcDbLine
 10
72.03448788540626
 20
19.91673887931479
 30
0.0
 11
75.63246763185292
 21
19.91673887931479
 31
0.0
  0
LINE
  5
26E
330
1F
100
AcDbEntity
  8
interior
100
AcDbLine
 10
75.63246763185292
 20
19.91673887931479
 30
0.0
 11
78.17662350913722
 21
17.37258300203049
 31
0.0
  0
LINE
  5
26F
330
1F
100
AcDbEntity
  8
interior
100
AcDbLine
 10
78.17662350913722
 20
17.37258300203049
 30
0.0
 11
80.7207793864215
 21
19.91673887931479
 31
0.0
  0
LINE
  5
270
330
1F
100
AcDbEntity
  8
interior
100
AcDbLine
 10
80.7207793864215
 20
19.91673887931479
 30
0.0
 11
84.31875913286817
 21
19.91673887931479
 31
0.0
  0
LINE
  5
271
330
1F
100
AcDbEntity
  8
interior
100
AcDbLine
 10
84.31875913286817
 20
19.91673887931479
 30
0.0
 11
84.31875913286817
 21
23.51471862576143
 31
0.0
  0
LINE
  5
272
330
1F
100
AcDbEntity
  8
interior
100
AcDbLine
 10
84.31875913286817
 20
23.51471862576143
 30
0.0
 11
86.86291501015246
 21
26.05887450304573
 31
0.0
  0
LINE
  5
273
330
1F
100
AcDbEntity
  8
interior
100
AcDbLine
 10
86.86291501015246
 20
26.05887450304573
 30
0.0
 11
84.31875913286817
 21
28.60303038033003
 31
0.0
  0
LINE
  5
274
330
1F
100
AcDbEntity
  8
interior
100
AcDbLine
 10
84.31875913286817
 20
28.60303038033003
 30
0.0
 11
84.31875913286817
 21
32.20101012677668
 31
0.0
  0
LINE
  5
275
330
1F
100
AcDbEntity
  8
interior
100
AcDbLine
 10
84.31875913286817
 20
32.20101012677668
 30
0.0
 11
80.72077938642151
 21
32.20101012677667
 31
0.0
  0
LINE
  5
276
330
1F
100
AcDbEntity
  8
interior
100
AcDbLine
 10
80.72077938642151
 20
32.20101012677667
 30
0.0
 11
78.17662350913722
 21
34.74516600406098
 31
0.0
  0
LINE
  5
277
330
1F
100
AcDbEntity
  8
Laser interior
100
AcDbLine
 10
11.23044737829954
 20
50.91774900609148
 30
0.0
 11
11.23044737829954
 21
49.57359312880716
 31
0.0
  0
LINE
  5
278
330
1F
100
AcDbEntity
  8
Laser interior
100
AcDbLine
 10
11.23044737829953
 20
54.66190488337577
 30
0.0
 11
11.23044737829954
 21
53.31774900609147
 31
0.0
  0
LINE
  5
279
330
1F
100
AcDbEntity
  8
Laser interior
100
AcDbLine
 10
6.142135623730944
 20
53.31774900609147
 30
0.0
 11
6.14213562373094
 21
50.91774900609147
 31
0.0
  0
LINE
  5
27A
330
1F
100
AcDbEntity
  8
Laser interior
100
AcDbLine
 10
16.17258300203049
 20
45.97561338236052
 30
0.0
 11
18.57258300203049
 21
45.97561338236052
 31
0.0
  0
LINE
  5
27B
330
1F
100
AcDbEntity
  8
Laser interior
100
AcDbLine
 10
11.23044737829954
 20
49.57359312880716
 30
0.0
 11
8.68629150101524
 21
52.11774900609147
 31
0.0
  0
LINE
  5
27C
330
1F
100
AcDbEntity
  8
Laser interior
100
AcDbLine
 10
14.82842712474619
 20
49.57359312880718
 30
0.0
 11
11.23044737829954
 21
49.57359312880716
 31
0.0
  0
LINE
  5
27D
330
1F
100
AcDbEntity
  8
Laser interior
100
AcDbLine
 10
14.82842712474619
 20
45.97561338236052
 30
0.0
 11
14.82842712474619
 21
49.57359312880718
 31
0.0
  0
LINE
  5
27E
330
1F
100
AcDbEntity
  8
Laser interior
100
AcDbLine
 10
17.37258300203049
 20
43.43145750507622
 30
0.0
 11
14.82842712474619
 21
45.97561338236052
 31
0.0
  0
LINE
  5
27F
330
1F
100
AcDbEntity
  8
Laser interior
100
AcDbLine
 10
14.82842712474619
 20
40.88730162779193
 30
0.0
 11
17.37258300203049
 21
43.43145750507622
 31
0.0
  0
LINE
  5
280
330
1F
100
AcDbEntity
  8
Laser interior
100
AcDbLine
 10
14.82842712474619
 20
37.28932188134527
 30
0.0
 11
14.82842712474619
 21
40.88730162779193
 31
0.0
  0
LINE
  5
281
330
1F
100
AcDbEntity
  8
Laser interior
100
AcDbLine
 10
11.23044737829953
 20
37.28932188134527
 30
0.0
 11
14.82842712474619
 21
37.28932188134527
 31
0.0
  0
LINE
  5
282
330
1F
100
AcDbEntity
  8
Laser interior
100
AcDbLine
 10
8.68629150101524
 20
34.74516600406098
 30
0.0
 11
11.23044737829953
 21
37.28932188134527
 31
0.0
  0
LINE
  5
283
330
1F
100
AcDbEntity
  8
Laser interior
100
AcDbLine
 10
6.142135623730951
 20
37.28932188134527
 30
0.0
 11
8.68629150101524
 21
34.74516600406098
 31
0.0
  0
LINE
  5
284
330
1F
100
AcDbEntity
  8
Laser interior
100
AcDbLine
 10
2.544155877284291
 20
37.28932188134527
 30
0.0
 11
6.142135623730951
 21
37.28932188134527
 31
0.0
  0
LINE
  5
285
330
1F
100
AcDbEntity
  8
Laser interior
100
AcDbLine
 10
2.544155877284291
 20
40.88730162779193
 30
0.0
 11
2.544155877284291
 21
37.28932188134527
 31
0.0
  0
LINE
  5
286
330
1F
100
AcDbEntity
  8
Laser interior
100
AcDbLine
 10
0.0
 20
43.43145750507622
 30
0.0
 11
2.544155877284291
 21
40.88730162779193
 31
0.0
  0
LINE
  5
287
330
1F
100
AcDbEntity
  8
Laser interior
100
AcDbLine
 10
2.544155877284291
 20
45.97561338236051
 30
0.0
 11
0.0
 21
43.43145750507622
 31
0.0
  0
LINE
  5
288
330
1F
100
AcDbEntity
  8
Laser interior
100
AcDbLine
 10
2.544155877284291
 20
49.57359312880718
 30
0.0
 11
2.544155877284291
 21
45.97561338236051
 31
0.0
  0
LINE
  5
289
330
1F
100
AcDbEntity
  8
Laser interior
100
AcDbLine
 10
6.142135623730951
 20
49.57359312880718
 30
0.0
 11
2.544155877284291
 21
49.57359312880718
 31
0.0
  0
LINE
  5
28A
330
1F
100
AcDbEntity
  8
Laser interior
100
AcDbLine
 10
8.68629150101524
 20
52.11774900609146
 30
0.0
 11
6.142135623730951
 21
49.57359312880718
 31
0.0
  0
LINE
  5
28B
330
1F
100
AcDbEntity
  8
Laser interior
100
AcDbLine
 10
6.142135623730951
 20
49.57359312880718
 30
0.0
 11
7.186291501015241
 21
49.57359312880718
 31
0.0
  0
LINE
  5
28C
330
1F
100
AcDbEntity
  8
Laser interior
100
AcDbLine
 10
10.18629150101524
 20
49.57359312880717
 30
0.0
 11
11.23044737829954
 21
49.57359312880716
 31
0.0
  0
LINE
  5
28D
330
1F
100
AcDbEntity
  8
Laser interior
100
AcDbLine
 10
11.23044737829953
 20
37.28932188134527
 30
0.0
 11
10.18629150101524
 21
37.28932188134527
 31
0.0
  0
LINE
  5
28E
330
1F
100
AcDbEntity
  8
Laser interior
100
AcDbLine
 10
7.186291501015241
 20
37.28932188134528
 30
0.0
 11
6.14213562373094
 21
37.28932188134529
 31
0.0
  0
LINE
  5
28F
330
1F
100
AcDbEntity
  8
Laser interior
100
AcDbLine
 10
14.82842712474619
 20
45.97561338236051
 30
0.0
 11
14.82842712474619
 21
44.93145750507622
 31
0.0
  0
LINE
  5
290
330
1F
100
AcDbEntity
  8
Laser interior
100
AcDbLine
 10
14.82842712474618
 20
41.93145750507622
 30
0.0
 11
14.82842712474618
 21
40.88730162779193
 31
0.0
  0
LINE
  5
291
330
1F
100
AcDbEntity
  8
Laser interior
100
AcDbLine
 10
2.54415587728429
 20
40.88730162779193
 30
0.0
 11
2.544155877284293
 21
41.93145750507622
 31
0.0
  0
LINE
  5
292
330
1F
100
AcDbEntity
  8
Laser interior
100
AcDbLine
 10
2.544155877284297
 20
44.93145750507622
 30
0.0
 11
2.5441558772843
 21
45.97561338236052
 31
0.0
  0
LINE
  5
293
330
1F
100
AcDbEntity
  8
interior
100
AcDbLine
 10
2.544155877284297
 20
44.93145750507622
 30
0.0
 11
2.5441558772843
 21
45.97561338236052
 31
0.0
  0
LINE
  5
294
330
1F
100
AcDbEntity
  8
interior
100
AcDbLine
 10
2.54415587728429
 20
40.88730162779193
 30
0.0
 11
2.544155877284293
 21
41.93145750507622
 31
0.0
  0
LINE
  5
295
330
1F
100
AcDbEntity
  8
interior
100
AcDbLine
 10
14.82842712474618
 20
41.93145750507622
 30
0.0
 11
14.82842712474618
 21
40.88730162779193
 31
0.0
  0
LINE
  5
296
330
1F
100
AcDbEntity
  8
interior
100
AcDbLine
 10
14.82842712474619
 20
45.97561338236051
 30
0.0
 11
14.82842712474619
 21
44.93145750507622
 31
0.0
  0
LINE
  5
297
330
1F
100
AcDbEntity
  8
interior
100
AcDbLine
 10
7.186291501015241
 20
37.28932188134528
 30
0.0
 11
6.14213562373094
 21
37.28932188134529
 31
0.0
  0
LINE
  5
298
330
1F
100
AcDbEntity
  8
interior
100
AcDbLine
 10
11.23044737829953
 20
37.28932188134527
 30
0.0
 11
10.18629150101524
 21
37.28932188134527
 31
0.0
  0
LINE
  5
299
330
1F
100
AcDbEntity
  8
interior
100
AcDbLine
 10
10.18629150101524
 20
49.57359312880717
 30
0.0
 11
11.23044737829954
 21
49.57359312880716
 31
0.0
  0
LINE
  5
29A
330
1F
100
AcDbEntity
  8
interior
100
AcDbLine
 10
6.142135623730951
 20
49.57359312880718
 30
0.0
 11
7.186291501015241
 21
49.57359312880718
 31
0.0
  0
LINE
  5
29B
330
1F
100
AcDbEntity
  8
interior
100
AcDbLine
 10
8.68629150101524
 20
52.11774900609146
 30
0.0
 11
6.142135623730951
 21
49.57359312880718
 31
0.0
  0
LINE
  5
29C
330
1F
100
AcDbEntity
  8
interior
100
AcDbLine
 10
6.142135623730951
 20
49.57359312880718
 30
0.0
 11
2.544155877284291
 21
49.57359312880718
 31
0.0
  0
LINE
  5
29D
330
1F
100
AcDbEntity
  8
interior
100
AcDbLine
 10
2.544155877284291
 20
49.57359312880718
 30
0.0
 11
2.544155877284291
 21
45.97561338236051
 31
0.0
  0
LINE
  5
29E
330
1F
100
AcDbEntity
  8
interior
100
AcDbLine
 10
2.544155877284291
 20
45.97561338236051
 30
0.0
 11
0.0
 21
43.43145750507622
 31
0.0
  0
LINE
  5
29F
330
1F
100
AcDbEntity
  8
interior
100
AcDbLine
 10
0.0
 20
43.43145750507622
 30
0.0
 11
2.544155877284291
 21
40.88730162779193
 31
0.0
  0
LINE
  5
2A0
330
1F
100
AcDbEntity
  8
interior
100
AcDbLine
 10
2.544155877284291
 20
40.88730162779193
 30
0.0
 11
2.544155877284291
 21
37.28932188134527
 31
0.0
  0
LINE
  5
2A1
330
1F
100
AcDbEntity
  8
interior
100
AcDbLine
 10
2.544155877284291
 20
37.28932188134527
 30
0.0
 11
6.142135623730951
 21
37.28932188134527
 31
0.0
  0
LINE
  5
2A2
330
1F
100
AcDbEntity
  8
interior
100
AcDbLine
 10
6.142135623730951
 20
37.28932188134527
 30
0.0
 11
8.68629150101524
 21
34.74516600406098
 31
0.0
  0
LINE
  5
2A3
330
1F
100
AcDbEntity
  8
interior
100
AcDbLine
 10
8.68629150101524
 20
34.74516600406098
 30
0.0
 11
11.23044737829953
 21
37.28932188134527
 31
0.0
  0
LINE
  5
2A4
330
1F
100
AcDbEntity
  8
interior
100
AcDbLine
 10
11.23044737829953
 20
37.28932188134527
 30
0.0
 11
14.82842712474619
 21
37.28932188134527
 31
0.0
  0
LINE
  5
2A5
330
1F
100
AcDbEntity
  8
interior
100
AcDbLine
 10
14.82842712474619
 20
37.28932188134527
 30
0.0
 11
14.82842712474619
 21
40.88730162779193
 31
0.0
  0
LINE
  5
2A6
330
1F
100
AcDbEntity
  8
interior
100
AcDbLine
 10
14.82842712474619
 20
40.88730162779193
 30
0.0
 11
17.37258300203049
 21
43.43145750507622
 31
0.0
  0
LINE
  5
2A7
330
1F
100
AcDbEntity
  8
interior
100
AcDbLine
 10
17.37258300203049
 20
43.43145750507622
 30
0.0
 11
14.82842712474619
 21
45.97561338236052
 31
0.0
  0
LINE
  5
2A8
330
1F
100
AcDbEntity
  8
interior
100
AcDbLine
 10
14.82842712474619
 20
45.97561338236052
 30
0.0
 11
14.82842712474619
 21
49.57359312880718
 31
0.0
  0
LINE
  5
2A9
330
1F
100
AcDbEntity
  8
interior
100
AcDbLine
 10
14.82842712474619
 20
49.57359312880718
 30
0.0
 11
11.23044737829954
 21
49.57359312880716
 31
0.0
  0
LINE
  5
2AA
330
1F
100
AcDbEntity
  8
interior
100
AcDbLine
 10
11.23044737829954
 20
49.57359312880716
 30
0.0
 11
8.68629150101524
 21
52.11774900609147
 31
0.0
  0
LINE
  5
2AB
330
1F
100
AcDbEntity
  8
Laser interior
100
AcDbLine
 10
14.8284271247462
 20
40.88730162779193
 30
0.0
 11
16.17258300203049
 21
40.88730162779193
 31
0.0
  0
LINE
  5
2AC
330
1F
100
AcDbEntity
  8
Laser interior
100
AcDbLine
 10
18.57258300203049
 20
40.88730162779193
 30
0.0
 11
19.91673887931478
 21
40.88730162779192
 31
0.0
  0
LINE
  5
2AD
330
1F
100
AcDbEntity
  8
Laser interior
100
AcDbLine
 10
28.60303038033003
 20
50.91774900609148
 30
0.0
 11
28.60303038033004
 21
49.57359312880716
 31
0.0
  0
LINE
  5
2AE
330
1F
100
AcDbEntity
  8
Laser interior
100
AcDbLine
 10
28.60303038033003
 20
54.66190488337577
 30
0.0
 11
28.60303038033003
 21
53.31774900609147
 31
0.0
  0
LINE
  5
2AF
330
1F
100
AcDbEntity
  8
Laser interior
100
AcDbLine
 10
23.51471862576144
 20
53.31774900609147
 30
0.0
 11
23.51471862576143
 21
50.91774900609147
 31
0.0
  0
LINE
  5
2B0
330
1F
100
AcDbEntity
  8
Laser interior
100
AcDbLine
 10
33.54516600406099
 20
45.97561338236052
 30
0.0
 11
35.94516600406098
 21
45.97561338236052
 31
0.0
  0
LINE
  5
2B1
330
1F
100
AcDbEntity
  8
Laser interior
100
AcDbLine
 10
28.60303038033003
 20
49.57359312880716
 30
0.0
 11
26.05887450304573
 21
52.11774900609147
 31
0.0
  0
LINE
  5
2B2
330
1F
100
AcDbEntity
  8
Laser interior
100
AcDbLine
 10
32.20101012677668
 20
49.57359312880718
 30
0.0
 11
28.60303038033003
 21
49.57359312880716
 31
0.0
  0
LINE
  5
2B3
330
1F
100
AcDbEntity
  8
Laser interior
100
AcDbLine
 10
32.20101012677668
 20
45.97561338236052
 30
0.0
 11
32.20101012677668
 21
49.57359312880718
 31
0.0
  0
LINE
  5
2B4
330
1F
100
AcDbEntity
  8
Laser interior
100
AcDbLine
 10
34.74516600406098
 20
43.43145750507622
 30
0.0
 11
32.20101012677668
 21
45.97561338236052
 31
0.0
  0
LINE
  5
2B5
330
1F
100
AcDbEntity
  8
Laser interior
100
AcDbLine
 10
32.20101012677668
 20
40.88730162779193
 30
0.0
 11
34.74516600406098
 21
43.43145750507622
 31
0.0
  0
LINE
  5
2B6
330
1F
100
AcDbEntity
  8
Laser interior
100
AcDbLine
 10
32.20101012677668
 20
37.28932188134527
 30
0.0
 11
32.20101012677668
 21
40.88730162779193
 31
0.0
  0
LINE
  5
2B7
330
1F
100
AcDbEntity
  8
Laser interior
100
AcDbLine
 10
28.60303038033002
 20
37.28932188134527
 30
0.0
 11
32.20101012677668
 21
37.28932188134527
 31
0.0
  0
LINE
  5
2B8
330
1F
100
AcDbEntity
  8
Laser interior
100
AcDbLine
 10
26.05887450304573
 20
34.74516600406098
 30
0.0
 11
28.60303038033002
 21
37.28932188134527
 31
0.0
  0
LINE
  5
2B9
330
1F
100
AcDbEntity
  8
Laser interior
100
AcDbLine
 10
23.51471862576144
 20
37.28932188134527
 30
0.0
 11
26.05887450304573
 21
34.74516600406098
 31
0.0
  0
LINE
  5
2BA
330
1F
100
AcDbEntity
  8
Laser interior
100
AcDbLine
 10
19.91673887931479
 20
37.28932188134527
 30
0.0
 11
23.51471862576144
 21
37.28932188134527
 31
0.0
  0
LINE
  5
2BB
330
1F
100
AcDbEntity
  8
Laser interior
100
AcDbLine
 10
19.91673887931479
 20
40.88730162779193
 30
0.0
 11
19.91673887931479
 21
37.28932188134527
 31
0.0
  0
LINE
  5
2BC
330
1F
100
AcDbEntity
  8
Laser interior
100
AcDbLine
 10
17.37258300203049
 20
43.43145750507622
 30
0.0
 11
19.91673887931479
 21
40.88730162779193
 31
0.0
  0
LINE
  5
2BD
330
1F
100
AcDbEntity
  8
Laser interior
100
AcDbLine
 10
19.91673887931479
 20
45.97561338236051
 30
0.0
 11
17.37258300203049
 21
43.43145750507622
 31
0.0
  0
LINE
  5
2BE
330
1F
100
AcDbEntity
  8
Laser interior
100
AcDbLine
 10
19.91673887931479
 20
49.57359312880718
 30
0.0
 11
19.91673887931479
 21
45.97561338236051
 31
0.0
  0
LINE
  5
2BF
330
1F
100
AcDbEntity
  8
Laser interior
100
AcDbLine
 10
23.51471862576144
 20
49.57359312880718
 30
0.0
 11
19.91673887931479
 21
49.57359312880718
 31
0.0
  0
LINE
  5
2C0
330
1F
100
AcDbEntity
  8
Laser interior
100
AcDbLine
 10
26.05887450304573
 20
52.11774900609146
 30
0.0
 11
23.51471862576144
 21
49.57359312880718
 31
0.0
  0
LINE
  5
2C1
330
1F
100
AcDbEntity
  8
Laser interior
100
AcDbLine
 10
23.51471862576144
 20
49.57359312880718
 30
0.0
 11
24.55887450304573
 21
49.57359312880718
 31
0.0
  0
LINE
  5
2C2
330
1F
100
AcDbEntity
  8
Laser interior
100
AcDbLine
 10
27.55887450304573
 20
49.57359312880717
 30
0.0
 11
28.60303038033003
 21
49.57359312880716
 31
0.0
  0
LINE
  5
2C3
330
1F
100
AcDbEntity
  8
Laser interior
100
AcDbLine
 10
28.60303038033002
 20
37.28932188134527
 30
0.0
 11
27.55887450304573
 21
37.28932188134527
 31
0.0
  0
LINE
  5
2C4
330
1F
100
AcDbEntity
  8
Laser interior
100
AcDbLine
 10
24.55887450304573
 20
37.28932188134528
 30
0.0
 11
23.51471862576143
 21
37.28932188134529
 31
0.0
  0
LINE
  5
2C5
330
1F
100
AcDbEntity
  8
Laser interior
100
AcDbLine
 10
32.20101012677668
 20
45.97561338236051
 30
0.0
 11
32.20101012677668
 21
44.93145750507622
 31
0.0
  0
LINE
  5
2C6
330
1F
100
AcDbEntity
  8
Laser interior
100
AcDbLine
 10
32.20101012677668
 20
41.93145750507622
 30
0.0
 11
32.20101012677667
 21
40.88730162779193
 31
0.0
  0
LINE
  5
2C7
330
1F
100
AcDbEntity
  8
Laser interior
100
AcDbLine
 10
19.91673887931478
 20
40.88730162779193
 30
0.0
 11
19.91673887931479
 21
41.93145750507622
 31
0.0
  0
LINE
  5
2C8
330
1F
100
AcDbEntity
  8
Laser interior
100
AcDbLine
 10
19.91673887931479
 20
44.93145750507622
 30
0.0
 11
19.91673887931479
 21
45.97561338236052
 31
0.0
  0
LINE
  5
2C9
330
1F
100
AcDbEntity
  8
interior
100
AcDbLine
 10
19.91673887931479
 20
44.93145750507622
 30
0.0
 11
19.91673887931479
 21
45.97561338236052
 31
0.0
  0
LINE
  5
2CA
330
1F
100
AcDbEntity
  8
interior
100
AcDbLine
 10
19.91673887931478
 20
40.88730162779193
 30
0.0
 11
19.91673887931479
 21
41.93145750507622
 31
0.0
  0
LINE
  5
2CB
330
1F
100
AcDbEntity
  8
interior
100
AcDbLine
 10
32.20101012677668
 20
41.93145750507622
 30
0.0
 11
32.20101012677667
 21
40.88730162779193
 31
0.0
  0
LINE
  5
2CC
330
1F
100
AcDbEntity
  8
interior
100
AcDbLine
 10
32.20101012677668
 20
45.97561338236051
 30
0.0
 11
32.20101012677668
 21
44.93145750507622
 31
0.0
  0
LINE
  5
2CD
330
1F
100
AcDbEntity
  8
interior
100
AcDbLine
 10
24.55887450304573
 20
37.28932188134528
 30
0.0
 11
23.51471862576143
 21
37.28932188134529
 31
0.0
  0
LINE
  5
2CE
330
1F
100
AcDbEntity
  8
interior
100
AcDbLine
 10
28.60303038033002
 20
37.28932188134527
 30
0.0
 11
27.55887450304573
 21
37.28932188134527
 31
0.0
  0
LINE
  5
2CF
330
1F
100
AcDbEntity
  8
interior
100
AcDbLine
 10
27.55887450304573
 20
49.57359312880717
 30
0.0
 11
28.60303038033003
 21
49.57359312880716
 31
0.0
  0
LINE
  5
2D0
330
1F
100
AcDbEntity
  8
interior
100
AcDbLine
 10
23.51471862576144
 20
49.57359312880718
 30
0.0
 11
24.55887450304573
 21
49.57359312880718
 31
0.0
  0
LINE
  5
2D1
330
1F
100
AcDbEntity
  8
interior
100
AcDbLine
 10
26.05887450304573
 20
52.11774900609146
 30
0.0
 11
23.51471862576144
 21
49.57359312880718
 31
0.0
  0
LINE
  5
2D2
330
1F
100
AcDbEntity
  8
interior
100
AcDbLine
 10
23.51471862576144
 20
49.57359312880718
 30
0.0
 11
19.91673887931479
 21
49.57359312880718
 31
0.0
  0
LINE
  5
2D3
330
1F
100
AcDbEntity
  8
interior
100
AcDbLine
 10
19.91673887931479
 20
49.57359312880718
 30
0.0
 11
19.91673887931479
 21
45.97561338236051
 31
0.0
  0
LINE
  5
2D4
330
1F
100
AcDbEntity
  8
interior
100
AcDbLine
 10
19.91673887931479
 20
45.97561338236051
 30
0.0
 11
17.37258300203049
 21
43.43145750507622
 31
0.0
  0
LINE
  5
2D5
330
1F
100
AcDbEntity
  8
interior
100
AcDbLine
 10
17.37258300203049
 20
43.43145750507622
 30
0.0
 11
19.91673887931479
 21
40.88730162779193
 31
0.0
  0
LINE
  5
2D6
330
1F
100
AcDbEntity
  8
interior
100
AcDbLine
 10
19.91673887931479
 20
40.88730162779193
 30
0.0
 11
19.91673887931479
 21
37.28932188134527
 31
0.0
  0
LINE
  5
2D7
330
1F
100
AcDbEntity
  8
interior
100
AcDbLine
 10
19.91673887931479
 20
37.28932188134527
 30
0.0
 11
23.51471862576144
 21
37.28932188134527
 31
0.0
  0
LINE
  5
2D8
330
1F
100
AcDbEntity
  8
interior
100
AcDbLine
 10
23.51471862576144
 20
37.28932188134527
 30
0.0
 11
26.05887450304573
 21
34.74516600406098
 31
0.0
  0
LINE
  5
2D9
330
1F
100
AcDbEntity
  8
interior
100
AcDbLine
 10
26.05887450304573
 20
34.74516600406098
 30
0.0
 11
28.60303038033002
 21
37.28932188134527
 31
0.0
  0
LINE
  5
2DA
330
1F
100
AcDbEntity
  8
interior
100
AcDbLine
 10
28.60303038033002
 20
37.28932188134527
 30
0.0
 11
32.20101012677668
 21
37.28932188134527
 31
0.0
  0
LINE
  5
2DB
330
1F
100
AcDbEntity
  8
interior
100
AcDbLine
 10
32.20101012677668
 20
37.28932188134527
 30
0.0
 11
32.20101012677668
 21
40.88730162779193
 31
0.0
  0
LINE
  5
2DC
330
1F
100
AcDbEntity
  8
interior
100
AcDbLine
 10
32.20101012677668
 20
40.88730162779193
 30
0.0
 11
34.74516600406098
 21
43.43145750507622
 31
0.0
  0
LINE
  5
2DD
330
1F
100
AcDbEntity
  8
interior
100
AcDbLine
 10
34.74516600406098
 20
43.43145750507622
 30
0.0
 11
32.20101012677668
 21
45.97561338236052
 31
0.0
  0
LINE
  5
2DE
330
1F
100
AcDbEntity
  8
interior
100
AcDbLine
 10
32.20101012677668
 20
45.97561338236052
 30
0.0
 11
32.20101012677668
 21
49.57359312880718
 31
0.0
  0
LINE
  5
2DF
330
1F
100
AcDbEntity
  8
interior
100
AcDbLine
 10
32.20101012677668
 20
49.57359312880718
 30
0.0
 11
28.60303038033003
 21
49.57359312880716
 31
0.0
  0
LINE
  5
2E0
330
1F
100
AcDbEntity
  8
interior
100
AcDbLine
 10
28.60303038033003
 20
49.57359312880716
 30
0.0
 11
26.05887450304573
 21
52.11774900609147
 31
0.0
  0
LINE
  5
2E1
330
1F
100
AcDbEntity
  8
Laser interior
100
AcDbLine
 10
32.20101012677669
 20
40.88730162779193
 30
0.0
 11
33.54516600406099
 21
40.88730162779193
 31
0.0
  0
LINE
  5
2E2
330
1F
100
AcDbEntity
  8
Laser interior
100
AcDbLine
 10
35.94516600406098
 20
40.88730162779193
 30
0.0
 11
37.28932188134527
 21
40.88730162779192
 31
0.0
  0
LINE
  5
2E3
330
1F
100
AcDbEntity
  8
Laser interior
100
AcDbLine
 10
45.97561338236052
 20
50.91774900609148
 30
0.0
 11
45.97561338236053
 21
49.57359312880716
 31
0.0
  0
LINE
  5
2E4
330
1F
100
AcDbEntity
  8
Laser interior
100
AcDbLine
 10
45.97561338236052
 20
54.66190488337577
 30
0.0
 11
45.97561338236052
 21
53.31774900609147
 31
0.0
  0
LINE
  5
2E5
330
1F
100
AcDbEntity
  8
Laser interior
100
AcDbLine
 10
40.88730162779193
 20
53.31774900609147
 30
0.0
 11
40.88730162779193
 21
50.91774900609147
 31
0.0
  0
LINE
  5
2E6
330
1F
100
AcDbEntity
  8
Laser interior
100
AcDbLine
 10
50.91774900609148
 20
45.97561338236052
 30
0.0
 11
53.31774900609147
 21
45.97561338236052
 31
0.0
  0
LINE
  5
2E7
330
1F
100
AcDbEntity
  8
Laser interior
100
AcDbLine
 10
45.97561338236052
 20
49.57359312880716
 30
0.0
 11
43.43145750507622
 21
52.11774900609147
 31
0.0
  0
LINE
  5
2E8
330
1F
100
AcDbEntity
  8
Laser interior
100
AcDbLine
 10
49.57359312880718
 20
49.57359312880718
 30
0.0
 11
45.97561338236052
 21
49.57359312880716
 31
0.0
  0
LINE
  5
2E9
330
1F
100
AcDbEntity
  8
Laser interior
100
AcDbLine
 10
49.57359312880718
 20
45.97561338236052
 30
0.0
 11
49.57359312880718
 21
49.57359312880718
 31
0.0
  0
LINE
  5
2EA
330
1F
100
AcDbEntity
  8
Laser interior
100
AcDbLine
 10
52.11774900609147
 20
43.43145750507622
 30
0.0
 11
49.57359312880718
 21
45.97561338236052
 31
0.0
  0
LINE
  5
2EB
330
1F
100
AcDbEntity
  8
Laser interior
100
AcDbLine
 10
49.57359312880718
 20
40.88730162779193
 30
0.0
 11
52.11774900609147
 21
43.43145750507622
 31
0.0
  0
LINE
  5
2EC
330
1F
100
AcDbEntity
  8
Laser interior
100
AcDbLine
 10
49.57359312880718
 20
37.28932188134527
 30
0.0
 11
49.57359312880718
 21
40.88730162779193
 31
0.0
  0
LINE
  5
2ED
330
1F
100
AcDbEntity
  8
Laser interior
100
AcDbLine
 10
45.97561338236051
 20
37.28932188134527
 30
0.0
 11
49.57359312880718
 21
37.28932188134527
 31
0.0
  0
LINE
  5
2EE
330
1F
100
AcDbEntity
  8
Laser interior
100
AcDbLine
 10
43.43145750507622
 20
34.74516600406098
 30
0.0
 11
45.97561338236051
 21
37.28932188134527
 31
0.0
  0
LINE
  5
2EF
330
1F
100
AcDbEntity
  8
Laser interior
100
AcDbLine
 10
40.88730162779193
 20
37.28932188134527
 30
0.0
 11
43.43145750507622
 21
34.74516600406098
 31
0.0
  0
LINE
  5
2F0
330
1F
100
AcDbEntity
  8
Laser interior
100
AcDbLine
 10
37.28932188134527
 20
37.28932188134527
 30
0.0
 11
40.88730162779193
 21
37.28932188134527
 31
0.0
  0
LINE
  5
2F1
330
1F
100
AcDbEntity
  8
Laser interior
100
AcDbLine
 10
37.28932188134527
 20
40.88730162779193
 30
0.0
 11
37.28932188134527
 21
37.28932188134527
 31
0.0
  0
LINE
  5
2F2
330
1F
100
AcDbEntity
  8
Laser interior
100
AcDbLine
 10
34.74516600406098
 20
43.43145750507622
 30
0.0
 11
37.28932188134527
 21
40.88730162779193
 31
0.0
  0
LINE
  5
2F3
330
1F
100
AcDbEntity
  8
Laser interior
100
AcDbLine
 10
37.28932188134527
 20
45.97561338236051
 30
0.0
 11
34.74516600406098
 21
43.43145750507622
 31
0.0
  0
LINE
  5
2F4
330
1F
100
AcDbEntity
  8
Laser interior
100
AcDbLine
 10
37.28932188134527
 20
49.57359312880718
 30
0.0
 11
37.28932188134527
 21
45.97561338236051
 31
0.0
  0
LINE
  5
2F5
330
1F
100
AcDbEntity
  8
Laser interior
100
AcDbLine
 10
40.88730162779193
 20
49.57359312880718
 30
0.0
 11
37.28932188134527
 21
49.57359312880718
 31
0.0
  0
LINE
  5
2F6
330
1F
100
AcDbEntity
  8
Laser interior
100
AcDbLine
 10
43.43145750507622
 20
52.11774900609146
 30
0.0
 11
40.88730162779193
 21
49.57359312880718
 31
0.0
  0
LINE
  5
2F7
330
1F
100
AcDbEntity
  8
Laser interior
100
AcDbLine
 10
40.88730162779193
 20
49.57359312880718
 30
0.0
 11
41.93145750507622
 21
49.57359312880718
 31
0.0
  0
LINE
  5
2F8
330
1F
100
AcDbEntity
  8
Laser interior
100
AcDbLine
 10
44.93145750507622
 20
49.57359312880717
 30
0.0
 11
45.97561338236052
 21
49.57359312880716
 31
0.0
  0
LINE
  5
2F9
330
1F
100
AcDbEntity
  8
Laser interior
100
AcDbLine
 10
45.97561338236051
 20
37.28932188134527
 30
0.0
 11
44.93145750507622
 21
37.28932188134527
 31
0.0
  0
LINE
  5
2FA
330
1F
100
AcDbEntity
  8
Laser interior
100
AcDbLine
 10
41.93145750507622
 20
37.28932188134528
 30
0.0
 11
40.88730162779193
 21
37.28932188134529
 31
0.0
  0
LINE
  5
2FB
330
1F
100
AcDbEntity
  8
Laser interior
100
AcDbLine
 10
49.57359312880718
 20
45.97561338236051
 30
0.0
 11
49.57359312880718
 21
44.93145750507622
 31
0.0
  0
LINE
  5
2FC
330
1F
100
AcDbEntity
  8
Laser interior
100
AcDbLine
 10
49.57359312880717
 20
41.93145750507622
 30
0.0
 11
49.57359312880716
 21
40.88730162779193
 31
0.0
  0
LINE
  5
2FD
330
1F
100
AcDbEntity
  8
Laser interior
100
AcDbLine
 10
37.28932188134527
 20
40.88730162779193
 30
0.0
 11
37.28932188134527
 21
41.93145750507622
 31
0.0
  0
LINE
  5
2FE
330
1F
100
AcDbEntity
  8
Laser interior
100
AcDbLine
 10
37.28932188134528
 20
44.93145750507622
 30
0.0
 11
37.28932188134529
 21
45.97561338236052
 31
0.0
  0
LINE
  5
2FF
330
1F
100
AcDbEntity
  8
interior
100
AcDbLine
 10
37.28932188134528
 20
44.93145750507622
 30
0.0
 11
37.28932188134529
 21
45.97561338236052
 31
0.0
  0
LINE
  5
300
330
1F
100
AcDbEntity
  8
interior
100
AcDbLine
 10
37.28932188134527
 20
40.88730162779193
 30
0.0
 11
37.28932188134527
 21
41.93145750507622
 31
0.0
  0
LINE
  5
301
330
1F
100
AcDbEntity
  8
interior
100
AcDbLine
 10
49.57359312880717
 20
41.93145750507622
 30
0.0
 11
49.57359312880716
 21
40.88730162779193
 31
0.0
  0
LINE
  5
302
330
1F
100
AcDbEntity
  8
interior
100
AcDbLine
 10
49.57359312880718
 20
45.97561338236051
 30
0.0
 11
49.57359312880718
 21
44.93145750507622
 31
0.0
  0
LINE
  5
303
330
1F
100
AcDbEntity
  8
interior
100
AcDbLine
 10
41.93145750507622
 20
37.28932188134528
 30
0.0
 11
40.88730162779193
 21
37.28932188134529
 31
0.0
  0
LINE
  5
304
330
1F
100
AcDbEntity
  8
interior
100
AcDbLine
 10
45.97561338236051
 20
37.28932188134527
 30
0.0
 11
44.93145750507622
 21
37.28932188134527
 31
0.0
  0
LINE
  5
305
330
1F
100
AcDbEntity
  8
interior
100
AcDbLine
 10
44.93145750507622
 20
49.57359312880717
 30
0.0
 11
45.97561338236052
 21
49.57359312880716
 31
0.0
  0
LINE
  5
306
330
1F
100
AcDbEntity
  8
interior
100
AcDbLine
 10
40.88730162779193
 20
49.57359312880718
 30
0.0
 11
41.93145750507622
 21
49.57359312880718
 31
0.0
  0
LINE
  5
307
330
1F
100
AcDbEntity
  8
interior
100
AcDbLine
 10
43.43145750507622
 20
52.11774900609146
 30
0.0
 11
40.88730162779193
 21
49.57359312880718
 31
0.0
  0
LINE
  5
308
330
1F
100
AcDbEntity
  8
interior
100
AcDbLine
 10
40.88730162779193
 20
49.57359312880718
 30
0.0
 11
37.28932188134527
 21
49.57359312880718
 31
0.0
  0
LINE
  5
309
330
1F
100
AcDbEntity
  8
interior
100
AcDbLine
 10
37.28932188134527
 20
49.57359312880718
 30
0.0
 11
37.28932188134527
 21
45.97561338236051
 31
0.0
  0
LINE
  5
30A
330
1F
100
AcDbEntity
  8
interior
100
AcDbLine
 10
37.28932188134527
 20
45.97561338236051
 30
0.0
 11
34.74516600406098
 21
43.43145750507622
 31
0.0
  0
LINE
  5
30B
330
1F
100
AcDbEntity
  8
interior
100
AcDbLine
 10
34.74516600406098
 20
43.43145750507622
 30
0.0
 11
37.28932188134527
 21
40.88730162779193
 31
0.0
  0
LINE
  5
30C
330
1F
100
AcDbEntity
  8
interior
100
AcDbLine
 10
37.28932188134527
 20
40.88730162779193
 30
0.0
 11
37.28932188134527
 21
37.28932188134527
 31
0.0
  0
LINE
  5
30D
330
1F
100
AcDbEntity
  8
interior
100
AcDbLine
 10
37.28932188134527
 20
37.28932188134527
 30
0.0
 11
40.88730162779193
 21
37.28932188134527
 31
0.0
  0
LINE
  5
30E
330
1F
100
AcDbEntity
  8
interior
100
AcDbLine
 10
40.88730162779193
 20
37.28932188134527
 30
0.0
 11
43.43145750507622
 21
34.74516600406098
 31
0.0
  0
LINE
  5
30F
330
1F
100
AcDbEntity
  8
interior
100
AcDbLine
 10
43.43145750507622
 20
34.74516600406098
 30
0.0
 11
45.97561338236051
 21
37.28932188134527
 31
0.0
  0
LINE
  5
310
330
1F
100
AcDbEntity
  8
interior
100
AcDbLine
 10
45.97561338236051
 20
37.28932188134527
 30
0.0
 11
49.57359312880718
 21
37.28932188134527
 31
0.0
  0
LINE
  5
311
330
1F
100
AcDbEntity
  8
interior
100
AcDbLine
 10
49.57359312880718
 20
37.28932188134527
 30
0.0
 11
49.57359312880718
 21
40.88730162779193
 31
0.0
  0
LINE
  5
312
330
1F
100
AcDbEntity
  8
interior
100
AcDbLine
 10
49.57359312880718
 20
40.88730162779193
 30
0.0
 11
52.11774900609147
 21
43.43145750507622
 31
0.0
  0
LINE
  5
313
330
1F
100
AcDbEntity
  8
interior
100
AcDbLine
 10
52.11774900609147
 20
43.43145750507622
 30
0.0
 11
49.57359312880718
 21
45.97561338236052
 31
0.0
  0
LINE
  5
314
330
1F
100
AcDbEntity
  8
interior
100
AcDbLine
 10
49.57359312880718
 20
45.97561338236052
 30
0.0
 11
49.57359312880718
 21
49.57359312880718
 31
0.0
  0
LINE
  5
315
330
1F
100
AcDbEntity
  8
interior
100
AcDbLine
 10
49.57359312880718
 20
49.57359312880718
 30
0.0
 11
45.97561338236052
 21
49.57359312880716
 31
0.0
  0
LINE
  5
316
330
1F
100
AcDbEntity
  8
interior
100
AcDbLine
 10
45.97561338236052
 20
49.57359312880716
 30
0.0
 11
43.43145750507622
 21
52.11774900609147
 31
0.0
  0
LINE
  5
317
330
1F
100
AcDbEntity
  8
Laser interior
100
AcDbLine
 10
49.57359312880718
 20
40.88730162779193
 30
0.0
 11
50.91774900609148
 21
40.88730162779193
 31
0.0
  0
LINE
  5
318
330
1F
100
AcDbEntity
  8
Laser interior
100
AcDbLine
 10
53.31774900609147
 20
40.88730162779193
 30
0.0
 11
54.66190488337577
 21
40.88730162779192
 31
0.0
  0
LINE
  5
319
330
1F
100
AcDbEntity
  8
Laser interior
100
AcDbLine
 10
63.34819638439102
 20
50.91774900609148
 30
0.0
 11
63.34819638439102
 21
49.57359312880716
 31
0.0
  0
LINE
  5
31A
330
1F
100
AcDbEntity
  8
Laser interior
100
AcDbLine
 10
63.348196384391
 20
54.66190488337577
 30
0.0
 11
63.34819638439101
 21
53.31774900609147
 31
0.0
  0
LINE
  5
31B
330
1F
100
AcDbEntity
  8
Laser interior
100
AcDbLine
 10
58.25988462982242
 20
53.31774900609147
 30
0.0
 11
58.25988462982241
 21
50.91774900609147
 31
0.0
  0
LINE
  5
31C
330
1F
100
AcDbEntity
  8
Laser interior
100
AcDbLine
 10
68.29033200812196
 20
45.97561338236052
 30
0.0
 11
70.69033200812197
 21
45.97561338236052
 31
0.0
  0
LINE
  5
31D
330
1F
100
AcDbEntity
  8
Laser interior
100
AcDbLine
 10
63.34819638439102
 20
49.57359312880716
 30
0.0
 11
60.80404050710671
 21
52.11774900609147
 31
0.0
  0
LINE
  5
31E
330
1F
100
AcDbEntity
  8
Laser interior
100
AcDbLine
 10
66.94617613083767
 20
49.57359312880718
 30
0.0
 11
63.34819638439102
 21
49.57359312880716
 31
0.0
  0
LINE
  5
31F
330
1F
100
AcDbEntity
  8
Laser interior
100
AcDbLine
 10
66.94617613083767
 20
45.97561338236052
 30
0.0
 11
66.94617613083767
 21
49.57359312880718
 31
0.0
  0
LINE
  5
320
330
1F
100
AcDbEntity
  8
Laser interior
100
AcDbLine
 10
69.49033200812197
 20
43.43145750507622
 30
0.0
 11
66.94617613083767
 21
45.97561338236052
 31
0.0
  0
LINE
  5
321
330
1F
100
AcDbEntity
  8
Laser interior
100
AcDbLine
 10
66.94617613083767
 20
40.88730162779193
 30
0.0
 11
69.49033200812197
 21
43.43145750507622
 31
0.0
  0
LINE
  5
322
330
1F
100
AcDbEntity
  8
Laser interior
100
AcDbLine
 10
66.94617613083767
 20
37.28932188134527
 30
0.0
 11
66.94617613083767
 21
40.88730162779193
 31
0.0
  0
LINE
  5
323
330
1F
100
AcDbEntity
  8
Laser interior
100
AcDbLine
 10
63.348196384391
 20
37.28932188134527
 30
0.0
 11
66.94617613083767
 21
37.28932188134527
 31
0.0
  0
LINE
  5
324
330
1F
100
AcDbEntity
  8
Laser interior
100
AcDbLine
 10
60.80404050710671
 20
34.74516600406098
 30
0.0
 11
63.348196384391
 21
37.28932188134527
 31
0.0
  0
LINE
  5
325
330
1F
100
AcDbEntity
  8
Laser interior
100
AcDbLine
 10
58.25988462982242
 20
37.28932188134527
 30
0.0
 11
60.80404050710671
 21
34.74516600406098
 31
0.0
  0
LINE
  5
326
330
1F
100
AcDbEntity
  8
Laser interior
100
AcDbLine
 10
54.66190488337576
 20
37.28932188134527
 30
0.0
 11
58.25988462982242
 21
37.28932188134527
 31
0.0
  0
LINE
  5
327
330
1F
100
AcDbEntity
  8
Laser interior
100
AcDbLine
 10
54.66190488337576
 20
40.88730162779193
 30
0.0
 11
54.66190488337576
 21
37.28932188134527
 31
0.0
  0
LINE
  5
328
330
1F
100
AcDbEntity
  8
Laser interior
100
AcDbLine
 10
52.11774900609147
 20
43.43145750507622
 30
0.0
 11
54.66190488337576
 21
40.88730162779193
 31
0.0
  0
LINE
  5
329
330
1F
100
AcDbEntity
  8
Laser interior
100
AcDbLine
 10
54.66190488337576
 20
45.97561338236051
 30
0.0
 11
52.11774900609147
 21
43.43145750507622
 31
0.0
  0
LINE
  5
32A
330
1F
100
AcDbEntity
  8
Laser interior
100
AcDbLine
 10
54.66190488337576
 20
49.57359312880718
 30
0.0
 11
54.66190488337576
 21
45.97561338236051
 31
0.0
  0
LINE
  5
32B
330
1F
100
AcDbEntity
  8
Laser interior
100
AcDbLine
 10
58.25988462982242
 20
49.57359312880718
 30
0.0
 11
54.66190488337576
 21
49.57359312880718
 31
0.0
  0
LINE
  5
32C
330
1F
100
AcDbEntity
  8
Laser interior
100
AcDbLine
 10
60.80404050710671
 20
52.11774900609146
 30
0.0
 11
58.25988462982242
 21
49.57359312880718
 31
0.0
  0
LINE
  5
32D
330
1F
100
AcDbEntity
  8
Laser interior
100
AcDbLine
 10
58.25988462982242
 20
49.57359312880718
 30
0.0
 11
59.30404050710671
 21
49.57359312880718
 31
0.0
  0
LINE
  5
32E
330
1F
100
AcDbEntity
  8
Laser interior
100
AcDbLine
 10
62.30404050710671
 20
49.57359312880717
 30
0.0
 11
63.34819638439102
 21
49.57359312880716
 31
0.0
  0
LINE
  5
32F
330
1F
100
AcDbEntity
  8
Laser interior
100
AcDbLine
 10
63.348196384391
 20
37.28932188134527
 30
0.0
 11
62.30404050710671
 21
37.28932188134527
 31
0.0
  0
LINE
  5
330
330
1F
100
AcDbEntity
  8
Laser interior
100
AcDbLine
 10
59.30404050710671
 20
37.28932188134528
 30
0.0
 11
58.25988462982241
 21
37.28932188134529
 31
0.0
  0
LINE
  5
331
330
1F
100
AcDbEntity
  8
Laser interior
100
AcDbLine
 10
66.94617613083767
 20
45.97561338236051
 30
0.0
 11
66.94617613083766
 21
44.93145750507622
 31
0.0
  0
LINE
  5
332
330
1F
100
AcDbEntity
  8
Laser interior
100
AcDbLine
 10
66.94617613083766
 20
41.93145750507622
 30
0.0
 11
66.94617613083766
 21
40.88730162779193
 31
0.0
  0
LINE
  5
333
330
1F
100
AcDbEntity
  8
Laser interior
100
AcDbLine
 10
54.66190488337576
 20
40.88730162779193
 30
0.0
 11
54.66190488337577
 21
41.93145750507622
 31
0.0
  0
LINE
  5
334
330
1F
100
AcDbEntity
  8
Laser interior
100
AcDbLine
 10
54.66190488337577
 20
44.93145750507622
 30
0.0
 11
54.66190488337577
 21
45.97561338236052
 31
0.0
  0
LINE
  5
335
330
1F
100
AcDbEntity
  8
interior
100
AcDbLine
 10
54.66190488337577
 20
44.93145750507622
 30
0.0
 11
54.66190488337577
 21
45.97561338236052
 31
0.0
  0
LINE
  5
336
330
1F
100
AcDbEntity
  8
interior
100
AcDbLine
 10
54.66190488337576
 20
40.88730162779193
 30
0.0
 11
54.66190488337577
 21
41.93145750507622
 31
0.0
  0
LINE
  5
337
330
1F
100
AcDbEntity
  8
interior
100
AcDbLine
 10
66.94617613083766
 20
41.93145750507622
 30
0.0
 11
66.94617613083766
 21
40.88730162779193
 31
0.0
  0
LINE
  5
338
330
1F
100
AcDbEntity
  8
interior
100
AcDbLine
 10
66.94617613083767
 20
45.97561338236051
 30
0.0
 11
66.94617613083766
 21
44.93145750507622
 31
0.0
  0
LINE
  5
339
330
1F
100
AcDbEntity
  8
interior
100
AcDbLine
 10
59.30404050710671
 20
37.28932188134528
 30
0.0
 11
58.25988462982241
 21
37.28932188134529
 31
0.0
  0
LINE
  5
33A
330
1F
100
AcDbEntity
  8
interior
100
AcDbLine
 10
63.348196384391
 20
37.28932188134527
 30
0.0
 11
62.30404050710671
 21
37.28932188134527
 31
0.0
  0
LINE
  5
33B
330
1F
100
AcDbEntity
  8
interior
100
AcDbLine
 10
62.30404050710671
 20
49.57359312880717
 30
0.0
 11
63.34819638439102
 21
49.57359312880716
 31
0.0
  0
LINE
  5
33C
330
1F
100
AcDbEntity
  8
interior
100
AcDbLine
 10
58.25988462982242
 20
49.57359312880718
 30
0.0
 11
59.30404050710671
 21
49.57359312880718
 31
0.0
  0
LINE
  5
33D
330
1F
100
AcDbEntity
  8
interior
100
AcDbLine
 10
60.80404050710671
 20
52.11774900609146
 30
0.0
 11
58.25988462982242
 21
49.57359312880718
 31
0.0
  0
LINE
  5
33E
330
1F
100
AcDbEntity
  8
interior
100
AcDbLine
 10
58.25988462982242
 20
49.57359312880718
 30
0.0
 11
54.66190488337576
 21
49.57359312880718
 31
0.0
  0
LINE
  5
33F
330
1F
100
AcDbEntity
  8
interior
100
AcDbLine
 10
54.66190488337576
 20
49.57359312880718
 30
0.0
 11
54.66190488337576
 21
45.97561338236051
 31
0.0
  0
LINE
  5
340
330
1F
100
AcDbEntity
  8
interior
100
AcDbLine
 10
54.66190488337576
 20
45.97561338236051
 30
0.0
 11
52.11774900609147
 21
43.43145750507622
 31
0.0
  0
LINE
  5
341
330
1F
100
AcDbEntity
  8
interior
100
AcDbLine
 10
52.11774900609147
 20
43.43145750507622
 30
0.0
 11
54.66190488337576
 21
40.88730162779193
 31
0.0
  0
LINE
  5
342
330
1F
100
AcDbEntity
  8
interior
100
AcDbLine
 10
54.66190488337576
 20
40.88730162779193
 30
0.0
 11
54.66190488337576
 21
37.28932188134527
 31
0.0
  0
LINE
  5
343
330
1F
100
AcDbEntity
  8
interior
100
AcDbLine
 10
54.66190488337576
 20
37.28932188134527
 30
0.0
 11
58.25988462982242
 21
37.28932188134527
 31
0.0
  0
LINE
  5
344
330
1F
100
AcDbEntity
  8
interior
100
AcDbLine
 10
58.25988462982242
 20
37.28932188134527
 30
0.0
 11
60.80404050710671
 21
34.74516600406098
 31
0.0
  0
LINE
  5
345
330
1F
100
AcDbEntity
  8
interior
100
AcDbLine
 10
60.80404050710671
 20
34.74516600406098
 30
0.0
 11
63.348196384391
 21
37.28932188134527
 31
0.0
  0
LINE
  5
346
330
1F
100
AcDbEntity
  8
interior
100
AcDbLine
 10
63.348196384391
 20
37.28932188134527
 30
0.0
 11
66.94617613083767
 21
37.28932188134527
 31
0.0
  0
LINE
  5
347
330
1F
100
AcDbEntity
  8
interior
100
AcDbLine
 10
66.94617613083767
 20
37.28932188134527
 30
0.0
 11
66.94617613083767
 21
40.88730162779193
 31
0.0
  0
LINE
  5
348
330
1F
100
AcDbEntity
  8
interior
100
AcDbLine
 10
66.94617613083767
 20
40.88730162779193
 30
0.0
 11
69.49033200812197
 21
43.43145750507622
 31
0.0
  0
LINE
  5
349
330
1F
100
AcDbEntity
  8
interior
100
AcDbLine
 10
69.49033200812197
 20
43.43145750507622
 30
0.0
 11
66.94617613083767
 21
45.97561338236052
 31
0.0
  0
LINE
  5
34A
330
1F
100
AcDbEntity
  8
interior
100
AcDbLine
 10
66.94617613083767
 20
45.97561338236052
 30
0.0
 11
66.94617613083767
 21
49.57359312880718
 31
0.0
  0
LINE
  5
34B
330
1F
100
AcDbEntity
  8
interior
100
AcDbLine
 10
66.94617613083767
 20
49.57359312880718
 30
0.0
 11
63.34819638439102
 21
49.57359312880716
 31
0.0
  0
LINE
  5
34C
330
1F
100
AcDbEntity
  8
interior
100
AcDbLine
 10
63.34819638439102
 20
49.57359312880716
 30
0.0
 11
60.80404050710671
 21
52.11774900609147
 31
0.0
  0
LINE
  5
34D
330
1F
100
AcDbEntity
  8
Laser interior
100
AcDbLine
 10
66.94617613083767
 20
40.88730162779193
 30
0.0
 11
68.29033200812196
 21
40.88730162779193
 31
0.0
  0
LINE
  5
34E
330
1F
100
AcDbEntity
  8
Laser interior
100
AcDbLine
 10
70.69033200812197
 20
40.88730162779193
 30
0.0
 11
72.03448788540625
 21
40.88730162779192
 31
0.0
  0
LINE
  5
34F
330
1F
100
AcDbEntity
  8
Laser interior
100
AcDbLine
 10
80.72077938642151
 20
50.91774900609148
 30
0.0
 11
80.72077938642151
 21
49.57359312880716
 31
0.0
  0
LINE
  5
350
330
1F
100
AcDbEntity
  8
Laser interior
100
AcDbLine
 10
80.7207793864215
 20
54.66190488337577
 30
0.0
 11
80.7207793864215
 21
53.31774900609147
 31
0.0
  0
LINE
  5
351
330
1F
100
AcDbEntity
  8
Laser interior
100
AcDbLine
 10
75.6324676318529
 20
53.31774900609147
 30
0.0
 11
75.6324676318529
 21
50.91774900609147
 31
0.0
  0
LINE
  5
352
330
1F
100
AcDbEntity
  8
Laser interior
100
AcDbLine
 10
80.72077938642151
 20
49.57359312880716
 30
0.0
 11
78.17662350913722
 21
52.11774900609147
 31
0.0
  0
LINE
  5
353
330
1F
100
AcDbEntity
  8
Laser interior
100
AcDbLine
 10
84.31875913286817
 20
49.57359312880718
 30
0.0
 11
80.72077938642151
 21
49.57359312880716
 31
0.0
  0
LINE
  5
354
330
1F
100
AcDbEntity
  8
Laser interior
100
AcDbLine
 10
84.31875913286817
 20
45.97561338236052
 30
0.0
 11
84.31875913286817
 21
49.57359312880718
 31
0.0
  0
LINE
  5
355
330
1F
100
AcDbEntity
  8
Laser interior
100
AcDbLine
 10
86.86291501015246
 20
43.43145750507622
 30
0.0
 11
84.31875913286817
 21
45.97561338236052
 31
0.0
  0
LINE
  5
356
330
1F
100
AcDbEntity
  8
Laser interior
100
AcDbLine
 10
84.31875913286817
 20
40.88730162779193
 30
0.0
 11
86.86291501015246
 21
43.43145750507622
 31
0.0
  0
LINE
  5
357
330
1F
100
AcDbEntity
  8
Laser interior
100
AcDbLine
 10
84.31875913286817
 20
37.28932188134527
 30
0.0
 11
84.31875913286817
 21
40.88730162779193
 31
0.0
  0
LINE
  5
358
330
1F
100
AcDbEntity
  8
Laser interior
100
AcDbLine
 10
80.7207793864215
 20
37.28932188134527
 30
0.0
 11
84.31875913286817
 21
37.28932188134527
 31
0.0
  0
LINE
  5
359
330
1F
100
AcDbEntity
  8
Laser interior
100
AcDbLine
 10
78.17662350913722
 20
34.74516600406098
 30
0.0
 11
80.7207793864215
 21
37.28932188134527
 31
0.0
  0
LINE
  5
35A
330
1F
100
AcDbEntity
  8
Laser interior
100
AcDbLine
 10
75.63246763185292
 20
37.28932188134527
 30
0.0
 11
78.17662350913722
 21
34.74516600406098
 31
0.0
  0
LINE
  5
35B
330
1F
100
AcDbEntity
  8
Laser interior
100
AcDbLine
 10
72.03448788540626
 20
37.28932188134527
 30
0.0
 11
75.63246763185292
 21
37.28932188134527
 31
0.0
  0
LINE
  5
35C
330
1F
100
AcDbEntity
  8
Laser interior
100
AcDbLine
 10
72.03448788540626
 20
40.88730162779193
 30
0.0
 11
72.03448788540626
 21
37.28932188134527
 31
0.0
  0
LINE
  5
35D
330
1F
100
AcDbEntity
  8
Laser interior
100
AcDbLine
 10
69.49033200812197
 20
43.43145750507622
 30
0.0
 11
72.03448788540626
 21
40.88730162779193
 31
0.0
  0
LINE
  5
35E
330
1F
100
AcDbEntity
  8
Laser interior
100
AcDbLine
 10
72.03448788540626
 20
45.97561338236051
 30
0.0
 11
69.49033200812197
 21
43.43145750507622
 31
0.0
  0
LINE
  5
35F
330
1F
100
AcDbEntity
  8
Laser interior
100
AcDbLine
 10
72.03448788540626
 20
49.57359312880718
 30
0.0
 11
72.03448788540626
 21
45.97561338236051
 31
0.0
  0
LINE
  5
360
330
1F
100
AcDbEntity
  8
Laser interior
100
AcDbLine
 10
75.63246763185292
 20
49.57359312880718
 30
0.0
 11
72.03448788540626
 21
49.57359312880718
 31
0.0
  0
LINE
  5
361
330
1F
100
AcDbEntity
  8
Laser interior
100
AcDbLine
 10
78.17662350913722
 20
52.11774900609146
 30
0.0
 11
75.63246763185292
 21
49.57359312880718
 31
0.0
  0
LINE
  5
362
330
1F
100
AcDbEntity
  8
Laser interior
100
AcDbLine
 10
75.63246763185292
 20
49.57359312880718
 30
0.0
 11
76.67662350913722
 21
49.57359312880718
 31
0.0
  0
LINE
  5
363
330
1F
100
AcDbEntity
  8
Laser interior
100
AcDbLine
 10
79.67662350913722
 20
49.57359312880717
 30
0.0
 11
80.72077938642151
 21
49.57359312880716
 31
0.0
  0
LINE
  5
364
330
1F
100
AcDbEntity
  8
Laser interior
100
AcDbLine
 10
80.7207793864215
 20
37.28932188134527
 30
0.0
 11
79.67662350913722
 21
37.28932188134527
 31
0.0
  0
LINE
  5
365
330
1F
100
AcDbEntity
  8
Laser interior
100
AcDbLine
 10
76.67662350913722
 20
37.28932188134528
 30
0.0
 11
75.6324676318529
 21
37.28932188134529
 31
0.0
  0
LINE
  5
366
330
1F
100
AcDbEntity
  8
Laser interior
100
AcDbLine
 10
84.31875913286817
 20
45.97561338236051
 30
0.0
 11
84.31875913286815
 21
44.93145750507622
 31
0.0
  0
LINE
  5
367
330
1F
100
AcDbEntity
  8
Laser interior
100
AcDbLine
 10
84.31875913286815
 20
41.93145750507622
 30
0.0
 11
84.31875913286815
 21
40.88730162779193
 31
0.0
  0
LINE
  5
368
330
1F
100
AcDbEntity
  8
Laser interior
100
AcDbLine
 10
72.03448788540626
 20
40.88730162779193
 30
0.0
 11
72.03448788540626
 21
41.93145750507622
 31
0.0
  0
LINE
  5
369
330
1F
100
AcDbEntity
  8
Laser interior
100
AcDbLine
 10
72.03448788540626
 20
44.93145750507622
 30
0.0
 11
72.03448788540626
 21
45.97561338236052
 31
0.0
  0
LINE
  5
36A
330
1F
100
AcDbEntity
  8
interior
100
AcDbLine
 10
72.03448788540626
 20
44.93145750507622
 30
0.0
 11
72.03448788540626
 21
45.97561338236052
 31
0.0
  0
LINE
  5
36B
330
1F
100
AcDbEntity
  8
interior
100
AcDbLine
 10
72.03448788540626
 20
40.88730162779193
 30
0.0
 11
72.03448788540626
 21
41.93145750507622
 31
0.0
  0
LINE
  5
36C
330
1F
100
AcDbEntity
  8
interior
100
AcDbLine
 10
84.31875913286815
 20
41.93145750507622
 30
0.0
 11
84.31875913286815
 21
40.88730162779193
 31
0.0
  0
LINE
  5
36D
330
1F
100
AcDbEntity
  8
interior
100
AcDbLine
 10
84.31875913286817
 20
45.97561338236051
 30
0.0
 11
84.31875913286815
 21
44.93145750507622
 31
0.0
  0
LINE
  5
36E
330
1F
100
AcDbEntity
  8
interior
100
AcDbLine
 10
76.67662350913722
 20
37.28932188134528
 30
0.0
 11
75.6324676318529
 21
37.28932188134529
 31
0.0
  0
LINE
  5
36F
330
1F
100
AcDbEntity
  8
interior
100
AcDbLine
 10
80.7207793864215
 20
37.28932188134527
 30
0.0
 11
79.67662350913722
 21
37.28932188134527
 31
0.0
  0
LINE
  5
370
330
1F
100
AcDbEntity
  8
interior
100
AcDbLine
 10
79.67662350913722
 20
49.57359312880717
 30
0.0
 11
80.72077938642151
 21
49.57359312880716
 31
0.0
  0
LINE
  5
371
330
1F
100
AcDbEntity
  8
interior
100
AcDbLine
 10
75.63246763185292
 20
49.57359312880718
 30
0.0
 11
76.67662350913722
 21
49.57359312880718
 31
0.0
  0
LINE
  5
372
330
1F
100
AcDbEntity
  8
interior
100
AcDbLine
 10
78.17662350913722
 20
52.11774900609146
 30
0.0
 11
75.63246763185292
 21
49.57359312880718
 31
0.0
  0
LINE
  5
373
330
1F
100
AcDbEntity
  8
interior
100
AcDbLine
 10
75.63246763185292
 20
49.57359312880718
 30
0.0
 11
72.03448788540626
 21
49.57359312880718
 31
0.0
  0
LINE
  5
374
330
1F
100
AcDbEntity
  8
interior
100
AcDbLine
 10
72.03448788540626
 20
49.57359312880718
 30
0.0
 11
72.03448788540626
 21
45.97561338236051
 31
0.0
  0
LINE
  5
375
330
1F
100
AcDbEntity
  8
interior
100
AcDbLine
 10
72.03448788540626
 20
45.97561338236051
 30
0.0
 11
69.49033200812197
 21
43.43145750507622
 31
0.0
  0
LINE
  5
376
330
1F
100
AcDbEntity
  8
interior
100
AcDbLine
 10
69.49033200812197
 20
43.43145750507622
 30
0.0
 11
72.03448788540626
 21
40.88730162779193
 31
0.0
  0
LINE
  5
377
330
1F
100
AcDbEntity
  8
interior
100
AcDbLine
 10
72.03448788540626
 20
40.88730162779193
 30
0.0
 11
72.03448788540626
 21
37.28932188134527
 31
0.0
  0
LINE
  5
378
330
1F
100
AcDbEntity
  8
interior
100
AcDbLine
 10
72.03448788540626
 20
37.28932188134527
 30
0.0
 11
75.63246763185292
 21
37.28932188134527
 31
0.0
  0
LINE
  5
379
330
1F
100
AcDbEntity
  8
interior
100
AcDbLine
 10
75.63246763185292
 20
37.28932188134527
 30
0.0
 11
78.17662350913722
 21
34.74516600406098
 31
0.0
  0
LINE
  5
37A
330
1F
100
AcDbEntity
  8
interior
100
AcDbLine
 10
78.17662350913722
 20
34.74516600406098
 30
0.0
 11
80.7207793864215
 21
37.28932188134527
 31
0.0
  0
LINE
  5
37B
330
1F
100
AcDbEntity
  8
interior
100
AcDbLine
 10
80.7207793864215
 20
37.28932188134527
 30
0.0
 11
84.31875913286817
 21
37.28932188134527
 31
0.0
  0
LINE
  5
37C
330
1F
100
AcDbEntity
  8
interior
100
AcDbLine
 10
84.31875913286817
 20
37.28932188134527
 30
0.0
 11
84.31875913286817
 21
40.88730162779193
 31
0.0
  0
LINE
  5
37D
330
1F
100
AcDbEntity
  8
interior
100
AcDbLine
 10
84.31875913286817
 20
40.88730162779193
 30
0.0
 11
86.86291501015246
 21
43.43145750507622
 31
0.0
  0
LINE
  5
37E
330
1F
100
AcDbEntity
  8
interior
100
AcDbLine
 10
86.86291501015246
 20
43.43145750507622
 30
0.0
 11
84.31875913286817
 21
45.97561338236052
 31
0.0
  0
LINE
  5
37F
330
1F
100
AcDbEntity
  8
interior
100
AcDbLine
 10
84.31875913286817
 20
45.97561338236052
 30
0.0
 11
84.31875913286817
 21
49.57359312880718
 31
0.0
  0
LINE
  5
380
330
1F
100
AcDbEntity
  8
interior
100
AcDbLine
 10
84.31875913286817
 20
49.57359312880718
 30
0.0
 11
80.72077938642151
 21
49.57359312880716
 31
0.0
  0
LINE
  5
381
330
1F
100
AcDbEntity
  8
interior
100
AcDbLine
 10
80.72077938642151
 20
49.57359312880716
 30
0.0
 11
78.17662350913722
 21
52.11774900609147
 31
0.0
  0
LINE
  5
382
330
1F
100
AcDbEntity
  8
Laser interior
100
AcDbLine
 10
11.23044737829954
 20
68.29033200812196
 30
0.0
 11
11.23044737829954
 21
66.94617613083766
 31
0.0
  0
LINE
  5
383
330
1F
100
AcDbEntity
  8
Laser interior
100
AcDbLine
 10
11.23044737829953
 20
72.03448788540625
 30
0.0
 11
11.23044737829954
 21
70.69033200812197
 31
0.0
  0
LINE
  5
384
330
1F
100
AcDbEntity
  8
Laser interior
100
AcDbLine
 10
6.142135623730944
 20
70.69033200812196
 30
0.0
 11
6.14213562373094
 21
68.29033200812196
 31
0.0
  0
LINE
  5
385
330
1F
100
AcDbEntity
  8
Laser interior
100
AcDbLine
 10
16.17258300203049
 20
63.34819638439101
 30
0.0
 11
18.57258300203049
 21
63.34819638439102
 31
0.0
  0
LINE
  5
386
330
1F
100
AcDbEntity
  8
Laser interior
100
AcDbLine
 10
11.23044737829954
 20
66.94617613083766
 30
0.0
 11
8.68629150101524
 21
69.49033200812197
 31
0.0
  0
LINE
  5
387
330
1F
100
AcDbEntity
  8
Laser interior
100
AcDbLine
 10
14.82842712474619
 20
66.94617613083767
 30
0.0
 11
11.23044737829954
 21
66.94617613083766
 31
0.0
  0
LINE
  5
388
330
1F
100
AcDbEntity
  8
Laser interior
100
AcDbLine
 10
14.82842712474619
 20
63.34819638439102
 30
0.0
 11
14.82842712474619
 21
66.94617613083767
 31
0.0
  0
LINE
  5
389
330
1F
100
AcDbEntity
  8
Laser interior
100
AcDbLine
 10
17.37258300203049
 20
60.80404050710671
 30
0.0
 11
14.82842712474619
 21
63.34819638439102
 31
0.0
  0
LINE
  5
38A
330
1F
100
AcDbEntity
  8
Laser interior
100
AcDbLine
 10
14.82842712474619
 20
58.25988462982241
 30
0.0
 11
17.37258300203049
 21
60.80404050710671
 31
0.0
  0
LINE
  5
38B
330
1F
100
AcDbEntity
  8
Laser interior
100
AcDbLine
 10
14.82842712474619
 20
54.66190488337576
 30
0.0
 11
14.82842712474619
 21
58.25988462982241
 31
0.0
  0
LINE
  5
38C
330
1F
100
AcDbEntity
  8
Laser interior
100
AcDbLine
 10
11.23044737829953
 20
54.66190488337576
 30
0.0
 11
14.82842712474619
 21
54.66190488337576
 31
0.0
  0
LINE
  5
38D
330
1F
100
AcDbEntity
  8
Laser interior
100
AcDbLine
 10
8.68629150101524
 20
52.11774900609147
 30
0.0
 11
11.23044737829953
 21
54.66190488337576
 31
0.0
  0
LINE
  5
38E
330
1F
100
AcDbEntity
  8
Laser interior
100
AcDbLine
 10
6.142135623730951
 20
54.66190488337576
 30
0.0
 11
8.68629150101524
 21
52.11774900609147
 31
0.0
  0
LINE
  5
38F
330
1F
100
AcDbEntity
  8
Laser interior
100
AcDbLine
 10
2.544155877284291
 20
54.66190488337576
 30
0.0
 11
6.142135623730951
 21
54.66190488337576
 31
0.0
  0
LINE
  5
390
330
1F
100
AcDbEntity
  8
Laser interior
100
AcDbLine
 10
2.544155877284291
 20
58.25988462982242
 30
0.0
 11
2.544155877284291
 21
54.66190488337576
 31
0.0
  0
LINE
  5
391
330
1F
100
AcDbEntity
  8
Laser interior
100
AcDbLine
 10
0.0
 20
60.80404050710671
 30
0.0
 11
2.544155877284291
 21
58.25988462982242
 31
0.0
  0
LINE
  5
392
330
1F
100
AcDbEntity
  8
Laser interior
100
AcDbLine
 10
2.544155877284291
 20
63.348196384391
 30
0.0
 11
0.0
 21
60.80404050710671
 31
0.0
  0
LINE
  5
393
330
1F
100
AcDbEntity
  8
Laser interior
100
AcDbLine
 10
2.544155877284291
 20
66.94617613083767
 30
0.0
 11
2.544155877284291
 21
63.348196384391
 31
0.0
  0
LINE
  5
394
330
1F
100
AcDbEntity
  8
Laser interior
100
AcDbLine
 10
6.142135623730951
 20
66.94617613083767
 30
0.0
 11
2.544155877284291
 21
66.94617613083767
 31
0.0
  0
LINE
  5
395
330
1F
100
AcDbEntity
  8
Laser interior
100
AcDbLine
 10
8.68629150101524
 20
69.49033200812195
 30
0.0
 11
6.142135623730951
 21
66.94617613083767
 31
0.0
  0
LINE
  5
396
330
1F
100
AcDbEntity
  8
Laser interior
100
AcDbLine
 10
6.142135623730951
 20
66.94617613083767
 30
0.0
 11
7.186291501015241
 21
66.94617613083766
 31
0.0
  0
LINE
  5
397
330
1F
100
AcDbEntity
  8
Laser interior
100
AcDbLine
 10
10.18629150101524
 20
66.94617613083766
 30
0.0
 11
11.23044737829954
 21
66.94617613083766
 31
0.0
  0
LINE
  5
398
330
1F
100
AcDbEntity
  8
Laser interior
100
AcDbLine
 10
11.23044737829953
 20
54.66190488337576
 30
0.0
 11
10.18629150101524
 21
54.66190488337577
 31
0.0
  0
LINE
  5
399
330
1F
100
AcDbEntity
  8
Laser interior
100
AcDbLine
 10
7.186291501015241
 20
54.66190488337577
 30
0.0
 11
6.14213562373094
 21
54.66190488337577
 31
0.0
  0
LINE
  5
39A
330
1F
100
AcDbEntity
  8
Laser interior
100
AcDbLine
 10
14.82842712474619
 20
63.348196384391
 30
0.0
 11
14.82842712474619
 21
62.30404050710671
 31
0.0
  0
LINE
  5
39B
330
1F
100
AcDbEntity
  8
Laser interior
100
AcDbLine
 10
14.82842712474618
 20
59.30404050710671
 30
0.0
 11
14.82842712474618
 21
58.25988462982241
 31
0.0
  0
LINE
  5
39C
330
1F
100
AcDbEntity
  8
Laser interior
100
AcDbLine
 10
2.54415587728429
 20
58.25988462982242
 30
0.0
 11
2.544155877284293
 21
59.30404050710671
 31
0.0
  0
LINE
  5
39D
330
1F
100
AcDbEntity
  8
Laser interior
100
AcDbLine
 10
2.544155877284297
 20
62.30404050710671
 30
0.0
 11
2.5441558772843
 21
63.34819638439102
 31
0.0
  0
LINE
  5
39E
330
1F
100
AcDbEntity
  8
interior
100
AcDbLine
 10
2.544155877284297
 20
62.30404050710671
 30
0.0
 11
2.5441558772843
 21
63.34819638439102
 31
0.0
  0
LINE
  5
39F
330
1F
100
AcDbEntity
  8
interior
100
AcDbLine
 10
2.54415587728429
 20
58.25988462982242
 30
0.0
 11
2.544155877284293
 21
59.30404050710671
 31
0.0
  0
LINE
  5
3A0
330
1F
100
AcDbEntity
  8
interior
100
AcDbLine
 10
14.82842712474618
 20
59.30404050710671
 30
0.0
 11
14.82842712474618
 21
58.25988462982241
 31
0.0
  0
LINE
  5
3A1
330
1F
100
AcDbEntity
  8
interior
100
AcDbLine
 10
14.82842712474619
 20
63.348196384391
 30
0.0
 11
14.82842712474619
 21
62.30404050710671
 31
0.0
  0
LINE
  5
3A2
330
1F
100
AcDbEntity
  8
interior
100
AcDbLine
 10
7.186291501015241
 20
54.66190488337577
 30
0.0
 11
6.14213562373094
 21
54.66190488337577
 31
0.0
  0
LINE
  5
3A3
330
1F
100
AcDbEntity
  8
interior
100
AcDbLine
 10
11.23044737829953
 20
54.66190488337576
 30
0.0
 11
10.18629150101524
 21
54.66190488337577
 31
0.0
  0
LINE
  5
3A4
330
1F
100
AcDbEntity
  8
interior
100
AcDbLine
 10
10.18629150101524
 20
66.94617613083766
 30
0.0
 11
11.23044737829954
 21
66.94617613083766
 31
0.0
  0
LINE
  5
3A5
330
1F
100
AcDbEntity
  8
interior
100
AcDbLine
 10
6.142135623730951
 20
66.94617613083767
 30
0.0
 11
7.186291501015241
 21
66.94617613083766
 31
0.0
  0
LINE
  5
3A6
330
1F
100
AcDbEntity
  8
interior
100
AcDbLine
 10
8.68629150101524
 20
69.49033200812195
 30
0.0
 11
6.142135623730951
 21
66.94617613083767
 31
0.0
  0
LINE
  5
3A7
330
1F
100
AcDbEntity
  8
interior
100
AcDbLine
 10
6.142135623730951
 20
66.94617613083767
 30
0.0
 11
2.544155877284291
 21
66.94617613083767
 31
0.0
  0
LINE
  5
3A8
330
1F
100
AcDbEntity
  8
interior
100
AcDbLine
 10
2.544155877284291
 20
66.94617613083767
 30
0.0
 11
2.544155877284291
 21
63.348196384391
 31
0.0
  0
LINE
  5
3A9
330
1F
100
AcDbEntity
  8
interior
100
AcDbLine
 10
2.544155877284291
 20
63.348196384391
 30
0.0
 11
0.0
 21
60.80404050710671
 31
0.0
  0
LINE
  5
3AA
330
1F
100
AcDbEntity
  8
interior
100
AcDbLine
 10
0.0
 20
60.80404050710671
 30
0.0
 11
2.544155877284291
 21
58.25988462982242
 31
0.0
  0
LINE
  5
3AB
330
1F
100
AcDbEntity
  8
interior
100
AcDbLine
 10
2.544155877284291
 20
58.25988462982242
 30
0.0
 11
2.544155877284291
 21
54.66190488337576
 31
0.0
  0
LINE
  5
3AC
330
1F
100
AcDbEntity
  8
interior
100
AcDbLine
 10
2.544155877284291
 20
54.66190488337576
 30
0.0
 11
6.142135623730951
 21
54.66190488337576
 31
0.0
  0
LINE
  5
3AD
330
1F
100
AcDbEntity
  8
interior
100
AcDbLine
 10
6.142135623730951
 20
54.66190488337576
 30
0.0
 11
8.68629150101524
 21
52.11774900609147
 31
0.0
  0
LINE
  5
3AE
330
1F
100
AcDbEntity
  8
interior
100
AcDbLine
 10
8.68629150101524
 20
52.11774900609147
 30
0.0
 11
11.23044737829953
 21
54.66190488337576
 31
0.0
  0
LINE
  5
3AF
330
1F
100
AcDbEntity
  8
interior
100
AcDbLine
 10
11.23044737829953
 20
54.66190488337576
 30
0.0
 11
14.82842712474619
 21
54.66190488337576
 31
0.0
  0
LINE
  5
3B0
330
1F
100
AcDbEntity
  8
interior
100
AcDbLine
 10
14.82842712474619
 20
54.66190488337576
 30
0.0
 11
14.82842712474619
 21
58.25988462982241
 31
0.0
  0
LINE
  5
3B1
330
1F
100
AcDbEntity
  8
interior
100
AcDbLine
 10
14.82842712474619
 20
58.25988462982241
 30
0.0
 11
17.37258300203049
 21
60.80404050710671
 31
0.0
  0
LINE
  5
3B2
330
1F
100
AcDbEntity
  8
interior
100
AcDbLine
 10
17.37258300203049
 20
60.80404050710671
 30
0.0
 11
14.82842712474619
 21
63.34819638439102
 31
0.0
  0
LINE
  5
3B3
330
1F
100
AcDbEntity
  8
interior
100
AcDbLine
 10
14.82842712474619
 20
63.34819638439102
 30
0.0
 11
14.82842712474619
 21
66.94617613083767
 31
0.0
  0
LINE
  5
3B4
330
1F
100
AcDbEntity
  8
interior
100
AcDbLine
 10
14.82842712474619
 20
66.94617613083767
 30
0.0
 11
11.23044737829954
 21
66.94617613083766
 31
0.0
  0
LINE
  5
3B5
330
1F
100
AcDbEntity
  8
interior
100
AcDbLine
 10
11.23044737829954
 20
66.94617613083766
 30
0.0
 11
8.68629150101524
 21
69.49033200812197
 31
0.0
  0
LINE
  5
3B6
330
1F
100
AcDbEntity
  8
Laser interior
100
AcDbLine
 10
14.8284271247462
 20
58.25988462982242
 30
0.0
 11
16.17258300203049
 21
58.25988462982242
 31
0.0
  0
LINE
  5
3B7
330
1F
100
AcDbEntity
  8
Laser interior
100
AcDbLine
 10
18.57258300203049
 20
58.25988462982241
 30
0.0
 11
19.91673887931478
 21
58.25988462982241
 31
0.0
  0
LINE
  5
3B8
330
1F
100
AcDbEntity
  8
Laser interior
100
AcDbLine
 10
28.60303038033003
 20
68.29033200812196
 30
0.0
 11
28.60303038033004
 21
66.94617613083766
 31
0.0
  0
LINE
  5
3B9
330
1F
100
AcDbEntity
  8
Laser interior
100
AcDbLine
 10
28.60303038033003
 20
72.03448788540625
 30
0.0
 11
28.60303038033003
 21
70.69033200812197
 31
0.0
  0
LINE
  5
3BA
330
1F
100
AcDbEntity
  8
Laser interior
100
AcDbLine
 10
23.51471862576144
 20
70.69033200812196
 30
0.0
 11
23.51471862576143
 21
68.29033200812196
 31
0.0
  0
LINE
  5
3BB
330
1F
100
AcDbEntity
  8
Laser interior
100
AcDbLine
 10
33.54516600406099
 20
63.34819638439101
 30
0.0
 11
35.94516600406098
 21
63.34819638439102
 31
0.0
  0
LINE
  5
3BC
330
1F
100
AcDbEntity
  8
Laser interior
100
AcDbLine
 10
28.60303038033003
 20
66.94617613083766
 30
0.0
 11
26.05887450304573
 21
69.49033200812197
 31
0.0
  0
LINE
  5
3BD
330
1F
100
AcDbEntity
  8
Laser interior
100
AcDbLine
 10
32.20101012677668
 20
66.94617613083767
 30
0.0
 11
28.60303038033003
 21
66.94617613083766
 31
0.0
  0
LINE
  5
3BE
330
1F
100
AcDbEntity
  8
Laser interior
100
AcDbLine
 10
32.20101012677668
 20
63.34819638439102
 30
0.0
 11
32.20101012677668
 21
66.94617613083767
 31
0.0
  0
LINE
  5
3BF
330
1F
100
AcDbEntity
  8
Laser interior
100
AcDbLine
 10
34.74516600406098
 20
60.80404050710671
 30
0.0
 11
32.20101012677668
 21
63.34819638439102
 31
0.0
  0
LINE
  5
3C0
330
1F
100
AcDbEntity
  8
Laser interior
100
AcDbLine
 10
32.20101012677668
 20
58.25988462982241
 30
0.0
 11
34.74516600406098
 21
60.80404050710671
 31
0.0
  0
LINE
  5
3C1
330
1F
100
AcDbEntity
  8
Laser interior
100
AcDbLine
 10
32.20101012677668
 20
54.66190488337576
 30
0.0
 11
32.20101012677668
 21
58.25988462982241
 31
0.0
  0
LINE
  5
3C2
330
1F
100
AcDbEntity
  8
Laser interior
100
AcDbLine
 10
28.60303038033002
 20
54.66190488337576
 30
0.0
 11
32.20101012677668
 21
54.66190488337576
 31
0.0
  0
LINE
  5
3C3
330
1F
100
AcDbEntity
  8
Laser interior
100
AcDbLine
 10
26.05887450304573
 20
52.11774900609147
 30
0.0
 11
28.60303038033002
 21
54.66190488337576
 31
0.0
  0
LINE
  5
3C4
330
1F
100
AcDbEntity
  8
Laser interior
100
AcDbLine
 10
23.51471862576144
 20
54.66190488337576
 30
0.0
 11
26.05887450304573
 21
52.11774900609147
 31
0.0
  0
LINE
  5
3C5
330
1F
100
AcDbEntity
  8
Laser interior
100
AcDbLine
 10
19.91673887931479
 20
54.66190488337576
 30
0.0
 11
23.51471862576144
 21
54.66190488337576
 31
0.0
  0
LINE
  5
3C6
330
1F
100
AcDbEntity
  8
Laser interior
100
AcDbLine
 10
19.91673887931479
 20
58.25988462982242
 30
0.0
 11
19.91673887931479
 21
54.66190488337576
 31
0.0
  0
LINE
  5
3C7
330
1F
100
AcDbEntity
  8
Laser interior
100
AcDbLine
 10
17.37258300203049
 20
60.80404050710671
 30
0.0
 11
19.91673887931479
 21
58.25988462982242
 31
0.0
  0
LINE
  5
3C8
330
1F
100
AcDbEntity
  8
Laser interior
100
AcDbLine
 10
19.91673887931479
 20
63.348196384391
 30
0.0
 11
17.37258300203049
 21
60.80404050710671
 31
0.0
  0
LINE
  5
3C9
330
1F
100
AcDbEntity
  8
Laser interior
100
AcDbLine
 10
19.91673887931479
 20
66.94617613083767
 30
0.0
 11
19.91673887931479
 21
63.348196384391
 31
0.0
  0
LINE
  5
3CA
330
1F
100
AcDbEntity
  8
Laser interior
100
AcDbLine
 10
23.51471862576144
 20
66.94617613083767
 30
0.0
 11
19.91673887931479
 21
66.94617613083767
 31
0.0
  0
LINE
  5
3CB
330
1F
100
AcDbEntity
  8
Laser interior
100
AcDbLine
 10
26.05887450304573
 20
69.49033200812195
 30
0.0
 11
23.51471862576144
 21
66.94617613083767
 31
0.0
  0
LINE
  5
3CC
330
1F
100
AcDbEntity
  8
Laser interior
100
AcDbLine
 10
23.51471862576144
 20
66.94617613083767
 30
0.0
 11
24.55887450304573
 21
66.94617613083766
 31
0.0
  0
LINE
  5
3CD
330
1F
100
AcDbEntity
  8
Laser interior
100
AcDbLine
 10
27.55887450304573
 20
66.94617613083766
 30
0.0
 11
28.60303038033003
 21
66.94617613083766
 31
0.0
  0
LINE
  5
3CE
330
1F
100
AcDbEntity
  8
Laser interior
100
AcDbLine
 10
28.60303038033002
 20
54.66190488337576
 30
0.0
 11
27.55887450304573
 21
54.66190488337577
 31
0.0
  0
LINE
  5
3CF
330
1F
100
AcDbEntity
  8
Laser interior
100
AcDbLine
 10
24.55887450304573
 20
54.66190488337577
 30
0.0
 11
23.51471862576143
 21
54.66190488337577
 31
0.0
  0
LINE
  5
3D0
330
1F
100
AcDbEntity
  8
Laser interior
100
AcDbLine
 10
32.20101012677668
 20
63.348196384391
 30
0.0
 11
32.20101012677668
 21
62.30404050710671
 31
0.0
  0
LINE
  5
3D1
330
1F
100
AcDbEntity
  8
Laser interior
100
AcDbLine
 10
32.20101012677668
 20
59.30404050710671
 30
0.0
 11
32.20101012677667
 21
58.25988462982241
 31
0.0
  0
LINE
  5
3D2
330
1F
100
AcDbEntity
  8
Laser interior
100
AcDbLine
 10
19.91673887931478
 20
58.25988462982242
 30
0.0
 11
19.91673887931479
 21
59.30404050710671
 31
0.0
  0
LINE
  5
3D3
330
1F
100
AcDbEntity
  8
Laser interior
100
AcDbLine
 10
19.91673887931479
 20
62.30404050710671
 30
0.0
 11
19.91673887931479
 21
63.34819638439102
 31
0.0
  0
LINE
  5
3D4
330
1F
100
AcDbEntity
  8
interior
100
AcDbLine
 10
19.91673887931479
 20
62.30404050710671
 30
0.0
 11
19.91673887931479
 21
63.34819638439102
 31
0.0
  0
LINE
  5
3D5
330
1F
100
AcDbEntity
  8
interior
100
AcDbLine
 10
19.91673887931478
 20
58.25988462982242
 30
0.0
 11
19.91673887931479
 21
59.30404050710671
 31
0.0
  0
LINE
  5
3D6
330
1F
100
AcDbEntity
  8
interior
100
AcDbLine
 10
32.20101012677668
 20
59.30404050710671
 30
0.0
 11
32.20101012677667
 21
58.25988462982241
 31
0.0
  0
LINE
  5
3D7
330
1F
100
AcDbEntity
  8
interior
100
AcDbLine
 10
32.20101012677668
 20
63.348196384391
 30
0.0
 11
32.20101012677668
 21
62.30404050710671
 31
0.0
  0
LINE
  5
3D8
330
1F
100
AcDbEntity
  8
interior
100
AcDbLine
 10
24.55887450304573
 20
54.66190488337577
 30
0.0
 11
23.51471862576143
 21
54.66190488337577
 31
0.0
  0
LINE
  5
3D9
330
1F
100
AcDbEntity
  8
interior
100
AcDbLine
 10
28.60303038033002
 20
54.66190488337576
 30
0.0
 11
27.55887450304573
 21
54.66190488337577
 31
0.0
  0
LINE
  5
3DA
330
1F
100
AcDbEntity
  8
interior
100
AcDbLine
 10
27.55887450304573
 20
66.94617613083766
 30
0.0
 11
28.60303038033003
 21
66.94617613083766
 31
0.0
  0
LINE
  5
3DB
330
1F
100
AcDbEntity
  8
interior
100
AcDbLine
 10
23.51471862576144
 20
66.94617613083767
 30
0.0
 11
24.55887450304573
 21
66.94617613083766
 31
0.0
  0
LINE
  5
3DC
330
1F
100
AcDbEntity
  8
interior
100
AcDbLine
 10
26.05887450304573
 20
69.49033200812195
 30
0.0
 11
23.51471862576144
 21
66.94617613083767
 31
0.0
  0
LINE
  5
3DD
330
1F
100
AcDbEntity
  8
interior
100
AcDbLine
 10
23.51471862576144
 20
66.94617613083767
 30
0.0
 11
19.91673887931479
 21
66.94617613083767
 31
0.0
  0
LINE
  5
3DE
330
1F
100
AcDbEntity
  8
interior
100
AcDbLine
 10
19.91673887931479
 20
66.94617613083767
 30
0.0
 11
19.91673887931479
 21
63.348196384391
 31
0.0
  0
LINE
  5
3DF
330
1F
100
AcDbEntity
  8
interior
100
AcDbLine
 10
19.91673887931479
 20
63.348196384391
 30
0.0
 11
17.37258300203049
 21
60.80404050710671
 31
0.0
  0
LINE
  5
3E0
330
1F
100
AcDbEntity
  8
interior
100
AcDbLine
 10
17.37258300203049
 20
60.80404050710671
 30
0.0
 11
19.91673887931479
 21
58.25988462982242
 31
0.0
  0
LINE
  5
3E1
330
1F
100
AcDbEntity
  8
interior
100
AcDbLine
 10
19.91673887931479
 20
58.25988462982242
 30
0.0
 11
19.91673887931479
 21
54.66190488337576
 31
0.0
  0
LINE
  5
3E2
330
1F
100
AcDbEntity
  8
interior
100
AcDbLine
 10
19.91673887931479
 20
54.66190488337576
 30
0.0
 11
23.51471862576144
 21
54.66190488337576
 31
0.0
  0
LINE
  5
3E3
330
1F
100
AcDbEntity
  8
interior
100
AcDbLine
 10
23.51471862576144
 20
54.66190488337576
 30
0.0
 11
26.05887450304573
 21
52.11774900609147
 31
0.0
  0
LINE
  5
3E4
330
1F
100
AcDbEntity
  8
interior
100
AcDbLine
 10
26.05887450304573
 20
52.11774900609147
 30
0.0
 11
28.60303038033002
 21
54.66190488337576
 31
0.0
  0
LINE
  5
3E5
330
1F
100
AcDbEntity
  8
interior
100
AcDbLine
 10
28.60303038033002
 20
54.66190488337576
 30
0.0
 11
32.20101012677668
 21
54.66190488337576
 31
0.0
  0
LINE
  5
3E6
330
1F
100
AcDbEntity
  8
interior
100
AcDbLine
 10
32.20101012677668
 20
54.66190488337576
 30
0.0
 11
32.20101012677668
 21
58.25988462982241
 31
0.0
  0
LINE
  5
3E7
330
1F
100
AcDbEntity
  8
interior
100
AcDbLine
 10
32.20101012677668
 20
58.25988462982241
 30
0.0
 11
34.74516600406098
 21
60.80404050710671
 31
0.0
  0
LINE
  5
3E8
330
1F
100
AcDbEntity
  8
interior
100
AcDbLine
 10
34.74516600406098
 20
60.80404050710671
 30
0.0
 11
32.20101012677668
 21
63.34819638439102
 31
0.0
  0
LINE
  5
3E9
330
1F
100
AcDbEntity
  8
interior
100
AcDbLine
 10
32.20101012677668
 20
63.34819638439102
 30
0.0
 11
32.20101012677668
 21
66.94617613083767
 31
0.0
  0
LINE
  5
3EA
330
1F
100
AcDbEntity
  8
interior
100
AcDbLine
 10
32.20101012677668
 20
66.94617613083767
 30
0.0
 11
28.60303038033003
 21
66.94617613083766
 31
0.0
  0
LINE
  5
3EB
330
1F
100
AcDbEntity
  8
interior
100
AcDbLine
 10
28.60303038033003
 20
66.94617613083766
 30
0.0
 11
26.05887450304573
 21
69.49033200812197
 31
0.0
  0
LINE
  5
3EC
330
1F
100
AcDbEntity
  8
Laser interior
100
AcDbLine
 10
32.20101012677669
 20
58.25988462982242
 30
0.0
 11
33.54516600406099
 21
58.25988462982242
 31
0.0
  0
LINE
  5
3ED
330
1F
100
AcDbEntity
  8
Laser interior
100
AcDbLine
 10
35.94516600406098
 20
58.25988462982241
 30
0.0
 11
37.28932188134527
 21
58.25988462982241
 31
0.0
  0
LINE
  5
3EE
330
1F
100
AcDbEntity
  8
Laser interior
100
AcDbLine
 10
45.97561338236052
 20
68.29033200812196
 30
0.0
 11
45.97561338236053
 21
66.94617613083766
 31
0.0
  0
LINE
  5
3EF
330
1F
100
AcDbEntity
  8
Laser interior
100
AcDbLine
 10
45.97561338236052
 20
72.03448788540625
 30
0.0
 11
45.97561338236052
 21
70.69033200812197
 31
0.0
  0
LINE
  5
3F0
330
1F
100
AcDbEntity
  8
Laser interior
100
AcDbLine
 10
40.88730162779193
 20
70.69033200812196
 30
0.0
 11
40.88730162779193
 21
68.29033200812196
 31
0.0
  0
LINE
  5
3F1
330
1F
100
AcDbEntity
  8
Laser interior
100
AcDbLine
 10
50.91774900609148
 20
63.34819638439101
 30
0.0
 11
53.31774900609147
 21
63.34819638439102
 31
0.0
  0
LINE
  5
3F2
330
1F
100
AcDbEntity
  8
Laser interior
100
AcDbLine
 10
45.97561338236052
 20
66.94617613083766
 30
0.0
 11
43.43145750507622
 21
69.49033200812197
 31
0.0
  0
LINE
  5
3F3
330
1F
100
AcDbEntity
  8
Laser interior
100
AcDbLine
 10
49.57359312880718
 20
66.94617613083767
 30
0.0
 11
45.97561338236052
 21
66.94617613083766
 31
0.0
  0
LINE
  5
3F4
330
1F
100
AcDbEntity
  8
Laser interior
100
AcDbLine
 10
49.57359312880718
 20
63.34819638439102
 30
0.0
 11
49.57359312880718
 21
66.94617613083767
 31
0.0
  0
LINE
  5
3F5
330
1F
100
AcDbEntity
  8
Laser interior
100
AcDbLine
 10
52.11774900609147
 20
60.80404050710671
 30
0.0
 11
49.57359312880718
 21
63.34819638439102
 31
0.0
  0
LINE
  5
3F6
330
1F
100
AcDbEntity
  8
Laser interior
100
AcDbLine
 10
49.57359312880718
 20
58.25988462982241
 30
0.0
 11
52.11774900609147
 21
60.80404050710671
 31
0.0
  0
LINE
  5
3F7
330
1F
100
AcDbEntity
  8
Laser interior
100
AcDbLine
 10
49.57359312880718
 20
54.66190488337576
 30
0.0
 11
49.57359312880718
 21
58.25988462982241
 31
0.0
  0
LINE
  5
3F8
330
1F
100
AcDbEntity
  8
Laser interior
100
AcDbLine
 10
45.97561338236051
 20
54.66190488337576
 30
0.0
 11
49.57359312880718
 21
54.66190488337576
 31
0.0
  0
LINE
  5
3F9
330
1F
100
AcDbEntity
  8
Laser interior
100
AcDbLine
 10
43.43145750507622
 20
52.11774900609147
 30
0.0
 11
45.97561338236051
 21
54.66190488337576
 31
0.0
  0
LINE
  5
3FA
330
1F
100
AcDbEntity
  8
Laser interior
100
AcDbLine
 10
40.88730162779193
 20
54.66190488337576
 30
0.0
 11
43.43145750507622
 21
52.11774900609147
 31
0.0
  0
LINE
  5
3FB
330
1F
100
AcDbEntity
  8
Laser interior
100
AcDbLine
 10
37.28932188134527
 20
54.66190488337576
 30
0.0
 11
40.88730162779193
 21
54.66190488337576
 31
0.0
  0
LINE
  5
3FC
330
1F
100
AcDbEntity
  8
Laser interior
100
AcDbLine
 10
37.28932188134527
 20
58.25988462982242
 30
0.0
 11
37.28932188134527
 21
54.66190488337576
 31
0.0
  0
LINE
  5
3FD
330
1F
100
AcDbEntity
  8
Laser interior
100
AcDbLine
 10
34.74516600406098
 20
60.80404050710671
 30
0.0
 11
37.28932188134527
 21
58.25988462982242
 31
0.0
  0
LINE
  5
3FE
330
1F
100
AcDbEntity
  8
Laser interior
100
AcDbLine
 10
37.28932188134527
 20
63.348196384391
 30
0.0
 11
34.74516600406098
 21
60.80404050710671
 31
0.0
  0
LINE
  5
3FF
330
1F
100
AcDbEntity
  8
Laser interior
100
AcDbLine
 10
37.28932188134527
 20
66.94617613083767
 30
0.0
 11
37.28932188134527
 21
63.348196384391
 31
0.0
  0
LINE
  5
400
330
1F
100
AcDbEntity
  8
Laser interior
100
AcDbLine
 10
40.88730162779193
 20
66.94617613083767
 30
0.0
 11
37.28932188134527
 21
66.94617613083767
 31
0.0
  0
LINE
  5
401
330
1F
100
AcDbEntity
  8
Laser interior
100
AcDbLine
 10
43.43145750507622
 20
69.49033200812195
 30
0.0
 11
40.88730162779193
 21
66.94617613083767
 31
0.0
  0
LINE
  5
402
330
1F
100
AcDbEntity
  8
Laser interior
100
AcDbLine
 10
40.88730162779193
 20
66.94617613083767
 30
0.0
 11
41.93145750507622
 21
66.94617613083766
 31
0.0
  0
LINE
  5
403
330
1F
100
AcDbEntity
  8
Laser interior
100
AcDbLine
 10
44.93145750507622
 20
66.94617613083766
 30
0.0
 11
45.97561338236052
 21
66.94617613083766
 31
0.0
  0
LINE
  5
404
330
1F
100
AcDbEntity
  8
Laser interior
100
AcDbLine
 10
45.97561338236051
 20
54.66190488337576
 30
0.0
 11
44.93145750507622
 21
54.66190488337577
 31
0.0
  0
LINE
  5
405
330
1F
100
AcDbEntity
  8
Laser interior
100
AcDbLine
 10
41.93145750507622
 20
54.66190488337577
 30
0.0
 11
40.88730162779193
 21
54.66190488337577
 31
0.0
  0
LINE
  5
406
330
1F
100
AcDbEntity
  8
Laser interior
100
AcDbLine
 10
49.57359312880718
 20
63.348196384391
 30
0.0
 11
49.57359312880718
 21
62.30404050710671
 31
0.0
  0
LINE
  5
407
330
1F
100
AcDbEntity
  8
Laser interior
100
AcDbLine
 10
49.57359312880717
 20
59.30404050710671
 30
0.0
 11
49.57359312880716
 21
58.25988462982241
 31
0.0
  0
LINE
  5
408
330
1F
100
AcDbEntity
  8
Laser interior
100
AcDbLine
 10
37.28932188134527
 20
58.25988462982242
 30
0.0
 11
37.28932188134527
 21
59.30404050710671
 31
0.0
  0
LINE
  5
409
330
1F
100
AcDbEntity
  8
Laser interior
100
AcDbLine
 10
37.28932188134528
 20
62.30404050710671
 30
0.0
 11
37.28932188134529
 21
63.34819638439102
 31
0.0
  0
LINE
  5
40A
330
1F
100
AcDbEntity
  8
interior
100
AcDbLine
 10
37.28932188134528
 20
62.30404050710671
 30
0.0
 11
37.28932188134529
 21
63.34819638439102
 31
0.0
  0
LINE
  5
40B
330
1F
100
AcDbEntity
  8
interior
100
AcDbLine
 10
37.28932188134527
 20
58.25988462982242
 30
0.0
 11
37.28932188134527
 21
59.30404050710671
 31
0.0
  0
LINE
  5
40C
330
1F
100
AcDbEntity
  8
interior
100
AcDbLine
 10
49.57359312880717
 20
59.30404050710671
 30
0.0
 11
49.57359312880716
 21
58.25988462982241
 31
0.0
  0
LINE
  5
40D
330
1F
100
AcDbEntity
  8
interior
100
AcDbLine
 10
49.57359312880718
 20
63.348196384391
 30
0.0
 11
49.57359312880718
 21
62.30404050710671
 31
0.0
  0
LINE
  5
40E
330
1F
100
AcDbEntity
  8
interior
100
AcDbLine
 10
41.93145750507622
 20
54.66190488337577
 30
0.0
 11
40.88730162779193
 21
54.66190488337577
 31
0.0
  0
LINE
  5
40F
330
1F
100
AcDbEntity
  8
interior
100
AcDbLine
 10
45.97561338236051
 20
54.66190488337576
 30
0.0
 11
44.93145750507622
 21
54.66190488337577
 31
0.0
  0
LINE
  5
410
330
1F
100
AcDbEntity
  8
interior
100
AcDbLine
 10
44.93145750507622
 20
66.94617613083766
 30
0.0
 11
45.97561338236052
 21
66.94617613083766
 31
0.0
  0
LINE
  5
411
330
1F
100
AcDbEntity
  8
interior
100
AcDbLine
 10
40.88730162779193
 20
66.94617613083767
 30
0.0
 11
41.93145750507622
 21
66.94617613083766
 31
0.0
  0
LINE
  5
412
330
1F
100
AcDbEntity
  8
interior
100
AcDbLine
 10
43.43145750507622
 20
69.49033200812195
 30
0.0
 11
40.88730162779193
 21
66.94617613083767
 31
0.0
  0
LINE
  5
413
330
1F
100
AcDbEntity
  8
interior
100
AcDbLine
 10
40.88730162779193
 20
66.94617613083767
 30
0.0
 11
37.28932188134527
 21
66.94617613083767
 31
0.0
  0
LINE
  5
414
330
1F
100
AcDbEntity
  8
interior
100
AcDbLine
 10
37.28932188134527
 20
66.94617613083767
 30
0.0
 11
37.28932188134527
 21
63.348196384391
 31
0.0
  0
LINE
  5
415
330
1F
100
AcDbEntity
  8
interior
100
AcDbLine
 10
37.28932188134527
 20
63.348196384391
 30
0.0
 11
34.74516600406098
 21
60.80404050710671
 31
0.0
  0
LINE
  5
416
330
1F
100
AcDbEntity
  8
interior
100
AcDbLine
 10
34.74516600406098
 20
60.80404050710671
 30
0.0
 11
37.28932188134527
 21
58.25988462982242
 31
0.0
  0
LINE
  5
417
330
1F
100
AcDbEntity
  8
interior
100
AcDbLine
 10
37.28932188134527
 20
58.25988462982242
 30
0.0
 11
37.28932188134527
 21
54.66190488337576
 31
0.0
  0
LINE
  5
418
330
1F
100
AcDbEntity
  8
interior
100
AcDbLine
 10
37.28932188134527
 20
54.66190488337576
 30
0.0
 11
40.88730162779193
 21
54.66190488337576
 31
0.0
  0
LINE
  5
419
330
1F
100
AcDbEntity
  8
interior
100
AcDbLine
 10
40.88730162779193
 20
54.66190488337576
 30
0.0
 11
43.43145750507622
 21
52.11774900609147
 31
0.0
  0
LINE
  5
41A
330
1F
100
AcDbEntity
  8
interior
100
AcDbLine
 10
43.43145750507622
 20
52.11774900609147
 30
0.0
 11
45.97561338236051
 21
54.66190488337576
 31
0.0
  0
LINE
  5
41B
330
1F
100
AcDbEntity
  8
interior
100
AcDbLine
 10
45.97561338236051
 20
54.66190488337576
 30
0.0
 11
49.57359312880718
 21
54.66190488337576
 31
0.0
  0
LINE
  5
41C
330
1F
100
AcDbEntity
  8
interior
100
AcDbLine
 10
49.57359312880718
 20
54.66190488337576
 30
0.0
 11
49.57359312880718
 21
58.25988462982241
 31
0.0
  0
LINE
  5
41D
330
1F
100
AcDbEntity
  8
interior
100
AcDbLine
 10
49.57359312880718
 20
58.25988462982241
 30
0.0
 11
52.11774900609147
 21
60.80404050710671
 31
0.0
  0
LINE
  5
41E
330
1F
100
AcDbEntity
  8
interior
100
AcDbLine
 10
52.11774900609147
 20
60.80404050710671
 30
0.0
 11
49.57359312880718
 21
63.34819638439102
 31
0.0
  0
LINE
  5
41F
330
1F
100
AcDbEntity
  8
interior
100
AcDbLine
 10
49.57359312880718
 20
63.34819638439102
 30
0.0
 11
49.57359312880718
 21
66.94617613083767
 31
0.0
  0
LINE
  5
420
330
1F
100
AcDbEntity
  8
interior
100
AcDbLine
 10
49.57359312880718
 20
66.94617613083767
 30
0.0
 11
45.97561338236052
 21
66.94617613083766
 31
0.0
  0
LINE
  5
421
330
1F
100
AcDbEntity
  8
interior
100
AcDbLine
 10
45.97561338236052
 20
66.94617613083766
 30
0.0
 11
43.43145750507622
 21
69.49033200812197
 31
0.0
  0
LINE
  5
422
330
1F
100
AcDbEntity
  8
Laser interior
100
AcDbLine
 10
49.57359312880718
 20
58.25988462982242
 30
0.0
 11
50.91774900609148
 21
58.25988462982242
 31
0.0
  0
LINE
  5
423
330
1F
100
AcDbEntity
  8
Laser interior
100
AcDbLine
 10
53.31774900609147
 20
58.25988462982241
 30
0.0
 11
54.66190488337577
 21
58.25988462982241
 31
0.0
  0
LINE
  5
424
330
1F
100
AcDbEntity
  8
Laser interior
100
AcDbLine
 10
63.34819638439102
 20
68.29033200812196
 30
0.0
 11
63.34819638439102
 21
66.94617613083766
 31
0.0
  0
LINE
  5
425
330
1F
100
AcDbEntity
  8
Laser interior
100
AcDbLine
 10
63.348196384391
 20
72.03448788540625
 30
0.0
 11
63.34819638439101
 21
70.69033200812197
 31
0.0
  0
LINE
  5
426
330
1F
100
AcDbEntity
  8
Laser interior
100
AcDbLine
 10
58.25988462982242
 20
70.69033200812196
 30
0.0
 11
58.25988462982241
 21
68.29033200812196
 31
0.0
  0
LINE
  5
427
330
1F
100
AcDbEntity
  8
Laser interior
100
AcDbLine
 10
68.29033200812196
 20
63.34819638439101
 30
0.0
 11
70.69033200812197
 21
63.34819638439102
 31
0.0
  0
LINE
  5
428
330
1F
100
AcDbEntity
  8
Laser interior
100
AcDbLine
 10
63.34819638439102
 20
66.94617613083766
 30
0.0
 11
60.80404050710671
 21
69.49033200812197
 31
0.0
  0
LINE
  5
429
330
1F
100
AcDbEntity
  8
Laser interior
100
AcDbLine
 10
66.94617613083767
 20
66.94617613083767
 30
0.0
 11
63.34819638439102
 21
66.94617613083766
 31
0.0
  0
LINE
  5
42A
330
1F
100
AcDbEntity
  8
Laser interior
100
AcDbLine
 10
66.94617613083767
 20
63.34819638439102
 30
0.0
 11
66.94617613083767
 21
66.94617613083767
 31
0.0
  0
LINE
  5
42B
330
1F
100
AcDbEntity
  8
Laser interior
100
AcDbLine
 10
69.49033200812197
 20
60.80404050710671
 30
0.0
 11
66.94617613083767
 21
63.34819638439102
 31
0.0
  0
LINE
  5
42C
330
1F
100
AcDbEntity
  8
Laser interior
100
AcDbLine
 10
66.94617613083767
 20
58.25988462982241
 30
0.0
 11
69.49033200812197
 21
60.80404050710671
 31
0.0
  0
LINE
  5
42D
330
1F
100
AcDbEntity
  8
Laser interior
100
AcDbLine
 10
66.94617613083767
 20
54.66190488337576
 30
0.0
 11
66.94617613083767
 21
58.25988462982241
 31
0.0
  0
LINE
  5
42E
330
1F
100
AcDbEntity
  8
Laser interior
100
AcDbLine
 10
63.348196384391
 20
54.66190488337576
 30
0.0
 11
66.94617613083767
 21
54.66190488337576
 31
0.0
  0
LINE
  5
42F
330
1F
100
AcDbEntity
  8
Laser interior
100
AcDbLine
 10
60.80404050710671
 20
52.11774900609147
 30
0.0
 11
63.348196384391
 21
54.66190488337576
 31
0.0
  0
LINE
  5
430
330
1F
100
AcDbEntity
  8
Laser interior
100
AcDbLine
 10
58.25988462982242
 20
54.66190488337576
 30
0.0
 11
60.80404050710671
 21
52.11774900609147
 31
0.0
  0
LINE
  5
431
330
1F
100
AcDbEntity
  8
Laser interior
100
AcDbLine
 10
54.66190488337576
 20
54.66190488337576
 30
0.0
 11
58.25988462982242
 21
54.66190488337576
 31
0.0
  0
LINE
  5
432
330
1F
100
AcDbEntity
  8
Laser interior
100
AcDbLine
 10
54.66190488337576
 20
58.25988462982242
 30
0.0
 11
54.66190488337576
 21
54.66190488337576
 31
0.0
  0
LINE
  5
433
330
1F
100
AcDbEntity
  8
Laser interior
100
AcDbLine
 10
52.11774900609147
 20
60.80404050710671
 30
0.0
 11
54.66190488337576
 21
58.25988462982242
 31
0.0
  0
LINE
  5
434
330
1F
100
AcDbEntity
  8
Laser interior
100
AcDbLine
 10
54.66190488337576
 20
63.348196384391
 30
0.0
 11
52.11774900609147
 21
60.80404050710671
 31
0.0
  0
LINE
  5
435
330
1F
100
AcDbEntity
  8
Laser interior
100
AcDbLine
 10
54.66190488337576
 20
66.94617613083767
 30
0.0
 11
54.66190488337576
 21
63.348196384391
 31
0.0
  0
LINE
  5
436
330
1F
100
AcDbEntity
  8
Laser interior
100
AcDbLine
 10
58.25988462982242
 20
66.94617613083767
 30
0.0
 11
54.66190488337576
 21
66.94617613083767
 31
0.0
  0
LINE
  5
437
330
1F
100
AcDbEntity
  8
Laser interior
100
AcDbLine
 10
60.80404050710671
 20
69.49033200812195
 30
0.0
 11
58.25988462982242
 21
66.94617613083767
 31
0.0
  0
LINE
  5
438
330
1F
100
AcDbEntity
  8
Laser interior
100
AcDbLine
 10
58.25988462982242
 20
66.94617613083767
 30
0.0
 11
59.30404050710671
 21
66.94617613083766
 31
0.0
  0
LINE
  5
439
330
1F
100
AcDbEntity
  8
Laser interior
100
AcDbLine
 10
62.30404050710671
 20
66.94617613083766
 30
0.0
 11
63.34819638439102
 21
66.94617613083766
 31
0.0
  0
LINE
  5
43A
330
1F
100
AcDbEntity
  8
Laser interior
100
AcDbLine
 10
63.348196384391
 20
54.66190488337576
 30
0.0
 11
62.30404050710671
 21
54.66190488337577
 31
0.0
  0
LINE
  5
43B
330
1F
100
AcDbEntity
  8
Laser interior
100
AcDbLine
 10
59.30404050710671
 20
54.66190488337577
 30
0.0
 11
58.25988462982241
 21
54.66190488337577
 31
0.0
  0
LINE
  5
43C
330
1F
100
AcDbEntity
  8
Laser interior
100
AcDbLine
 10
66.94617613083767
 20
63.348196384391
 30
0.0
 11
66.94617613083766
 21
62.30404050710671
 31
0.0
  0
LINE
  5
43D
330
1F
100
AcDbEntity
  8
Laser interior
100
AcDbLine
 10
66.94617613083766
 20
59.30404050710671
 30
0.0
 11
66.94617613083766
 21
58.25988462982241
 31
0.0
  0
LINE
  5
43E
330
1F
100
AcDbEntity
  8
Laser interior
100
AcDbLine
 10
54.66190488337576
 20
58.25988462982242
 30
0.0
 11
54.66190488337577
 21
59.30404050710671
 31
0.0
  0
LINE
  5
43F
330
1F
100
AcDbEntity
  8
Laser interior
100
AcDbLine
 10
54.66190488337577
 20
62.30404050710671
 30
0.0
 11
54.66190488337577
 21
63.34819638439102
 31
0.0
  0
LINE
  5
440
330
1F
100
AcDbEntity
  8
interior
100
AcDbLine
 10
54.66190488337577
 20
62.30404050710671
 30
0.0
 11
54.66190488337577
 21
63.34819638439102
 31
0.0
  0
LINE
  5
441
330
1F
100
AcDbEntity
  8
interior
100
AcDbLine
 10
54.66190488337576
 20
58.25988462982242
 30
0.0
 11
54.66190488337577
 21
59.30404050710671
 31
0.0
  0
LINE
  5
442
330
1F
100
AcDbEntity
  8
interior
100
AcDbLine
 10
66.94617613083766
 20
59.30404050710671
 30
0.0
 11
66.94617613083766
 21
58.25988462982241
 31
0.0
  0
LINE
  5
443
330
1F
100
AcDbEntity
  8
interior
100
AcDbLine
 10
66.94617613083767
 20
63.348196384391
 30
0.0
 11
66.94617613083766
 21
62.30404050710671
 31
0.0
  0
LINE
  5
444
330
1F
100
AcDbEntity
  8
interior
100
AcDbLine
 10
59.30404050710671
 20
54.66190488337577
 30
0.0
 11
58.25988462982241
 21
54.66190488337577
 31
0.0
  0
LINE
  5
445
330
1F
100
AcDbEntity
  8
interior
100
AcDbLine
 10
63.348196384391
 20
54.66190488337576
 30
0.0
 11
62.30404050710671
 21
54.66190488337577
 31
0.0
  0
LINE
  5
446
330
1F
100
AcDbEntity
  8
interior
100
AcDbLine
 10
62.30404050710671
 20
66.94617613083766
 30
0.0
 11
63.34819638439102
 21
66.94617613083766
 31
0.0
  0
LINE
  5
447
330
1F
100
AcDbEntity
  8
interior
100
AcDbLine
 10
58.25988462982242
 20
66.94617613083767
 30
0.0
 11
59.30404050710671
 21
66.94617613083766
 31
0.0
  0
LINE
  5
448
330
1F
100
AcDbEntity
  8
interior
100
AcDbLine
 10
60.80404050710671
 20
69.49033200812195
 30
0.0
 11
58.25988462982242
 21
66.94617613083767
 31
0.0
  0
LINE
  5
449
330
1F
100
AcDbEntity
  8
interior
100
AcDbLine
 10
58.25988462982242
 20
66.94617613083767
 30
0.0
 11
54.66190488337576
 21
66.94617613083767
 31
0.0
  0
LINE
  5
44A
330
1F
100
AcDbEntity
  8
interior
100
AcDbLine
 10
54.66190488337576
 20
66.94617613083767
 30
0.0
 11
54.66190488337576
 21
63.348196384391
 31
0.0
  0
LINE
  5
44B
330
1F
100
AcDbEntity
  8
interior
100
AcDbLine
 10
54.66190488337576
 20
63.348196384391
 30
0.0
 11
52.11774900609147
 21
60.80404050710671
 31
0.0
  0
LINE
  5
44C
330
1F
100
AcDbEntity
  8
interior
100
AcDbLine
 10
52.11774900609147
 20
60.80404050710671
 30
0.0
 11
54.66190488337576
 21
58.25988462982242
 31
0.0
  0
LINE
  5
44D
330
1F
100
AcDbEntity
  8
interior
100
AcDbLine
 10
54.66190488337576
 20
58.25988462982242
 30
0.0
 11
54.66190488337576
 21
54.66190488337576
 31
0.0
  0
LINE
  5
44E
330
1F
100
AcDbEntity
  8
interior
100
AcDbLine
 10
54.66190488337576
 20
54.66190488337576
 30
0.0
 11
58.25988462982242
 21
54.66190488337576
 31
0.0
  0
LINE
  5
44F
330
1F
100
AcDbEntity
  8
interior
100
AcDbLine
 10
58.25988462982242
 20
54.66190488337576
 30
0.0
 11
60.80404050710671
 21
52.11774900609147
 31
0.0
  0
LINE
  5
450
330
1F
100
AcDbEntity
  8
interior
100
AcDbLine
 10
60.80404050710671
 20
52.11774900609147
 30
0.0
 11
63.348196384391
 21
54.66190488337576
 31
0.0
  0
LINE
  5
451
330
1F
100
AcDbEntity
  8
interior
100
AcDbLine
 10
63.348196384391
 20
54.66190488337576
 30
0.0
 11
66.94617613083767
 21
54.66190488337576
 31
0.0
  0
LINE
  5
452
330
1F
100
AcDbEntity
  8
interior
100
AcDbLine
 10
66.94617613083767
 20
54.66190488337576
 30
0.0
 11
66.94617613083767
 21
58.25988462982241
 31
0.0
  0
LINE
  5
453
330
1F
100
AcDbEntity
  8
interior
100
AcDbLine
 10
66.94617613083767
 20
58.25988462982241
 30
0.0
 11
69.49033200812197
 21
60.80404050710671
 31
0.0
  0
LINE
  5
454
330
1F
100
AcDbEntity
  8
interior
100
AcDbLine
 10
69.49033200812197
 20
60.80404050710671
 30
0.0
 11
66.94617613083767
 21
63.34819638439102
 31
0.0
  0
LINE
  5
455
330
1F
100
AcDbEntity
  8
interior
100
AcDbLine
 10
66.94617613083767
 20
63.34819638439102
 30
0.0
 11
66.94617613083767
 21
66.94617613083767
 31
0.0
  0
LINE
  5
456
330
1F
100
AcDbEntity
  8
interior
100
AcDbLine
 10
66.94617613083767
 20
66.94617613083767
 30
0.0
 11
63.34819638439102
 21
66.94617613083766
 31
0.0
  0
LINE
  5
457
330
1F
100
AcDbEntity
  8
interior
100
AcDbLine
 10
63.34819638439102
 20
66.94617613083766
 30
0.0
 11
60.80404050710671
 21
69.49033200812197
 31
0.0
  0
LINE
  5
458
330
1F
100
AcDbEntity
  8
Laser interior
100
AcDbLine
 10
66.94617613083767
 20
58.25988462982242
 30
0.0
 11
68.29033200812196
 21
58.25988462982242
 31
0.0
  0
LINE
  5
459
330
1F
100
AcDbEntity
  8
Laser interior
100
AcDbLine
 10
70.69033200812197
 20
58.25988462982241
 30
0.0
 11
72.03448788540625
 21
58.25988462982241
 31
0.0
  0
LINE
  5
45A
330
1F
100
AcDbEntity
  8
Laser interior
100
AcDbLine
 10
80.72077938642151
 20
68.29033200812196
 30
0.0
 11
80.72077938642151
 21
66.94617613083766
 31
0.0
  0
LINE
  5
45B
330
1F
100
AcDbEntity
  8
Laser interior
100
AcDbLine
 10
80.7207793864215
 20
72.03448788540625
 30
0.0
 11
80.7207793864215
 21
70.69033200812197
 31
0.0
  0
LINE
  5
45C
330
1F
100
AcDbEntity
  8
Laser interior
100
AcDbLine
 10
75.6324676318529
 20
70.69033200812196
 30
0.0
 11
75.6324676318529
 21
68.29033200812196
 31
0.0
  0
LINE
  5
45D
330
1F
100
AcDbEntity
  8
Laser interior
100
AcDbLine
 10
80.72077938642151
 20
66.94617613083766
 30
0.0
 11
78.17662350913722
 21
69.49033200812197
 31
0.0
  0
LINE
  5
45E
330
1F
100
AcDbEntity
  8
Laser interior
100
AcDbLine
 10
84.31875913286817
 20
66.94617613083767
 30
0.0
 11
80.72077938642151
 21
66.94617613083766
 31
0.0
  0
LINE
  5
45F
330
1F
100
AcDbEntity
  8
Laser interior
100
AcDbLine
 10
84.31875913286817
 20
63.34819638439102
 30
0.0
 11
84.31875913286817
 21
66.94617613083767
 31
0.0
  0
LINE
  5
460
330
1F
100
AcDbEntity
  8
Laser interior
100
AcDbLine
 10
86.86291501015246
 20
60.80404050710671
 30
0.0
 11
84.31875913286817
 21
63.34819638439102
 31
0.0
  0
LINE
  5
461
330
1F
100
AcDbEntity
  8
Laser interior
100
AcDbLine
 10
84.31875913286817
 20
58.25988462982241
 30
0.0
 11
86.86291501015246
 21
60.80404050710671
 31
0.0
  0
LINE
  5
462
330
1F
100
AcDbEntity
  8
Laser interior
100
AcDbLine
 10
84.31875913286817
 20
54.66190488337576
 30
0.0
 11
84.31875913286817
 21
58.25988462982241
 31
0.0
  0
LINE
  5
463
330
1F
100
AcDbEntity
  8
Laser interior
100
AcDbLine
 10
80.7207793864215
 20
54.66190488337576
 30
0.0
 11
84.31875913286817
 21
54.66190488337576
 31
0.0
  0
LINE
  5
464
330
1F
100
AcDbEntity
  8
Laser interior
100
AcDbLine
 10
78.17662350913722
 20
52.11774900609147
 30
0.0
 11
80.7207793864215
 21
54.66190488337576
 31
0.0
  0
LINE
  5
465
330
1F
100
AcDbEntity
  8
Laser interior
100
AcDbLine
 10
75.63246763185292
 20
54.66190488337576
 30
0.0
 11
78.17662350913722
 21
52.11774900609147
 31
0.0
  0
LINE
  5
466
330
1F
100
AcDbEntity
  8
Laser interior
100
AcDbLine
 10
72.03448788540626
 20
54.66190488337576
 30
0.0
 11
75.63246763185292
 21
54.66190488337576
 31
0.0
  0
LINE
  5
467
330
1F
100
AcDbEntity
  8
Laser interior
100
AcDbLine
 10
72.03448788540626
 20
58.25988462982242
 30
0.0
 11
72.03448788540626
 21
54.66190488337576
 31
0.0
  0
LINE
  5
468
330
1F
100
AcDbEntity
  8
Laser interior
100
AcDbLine
 10
69.49033200812197
 20
60.80404050710671
 30
0.0
 11
72.03448788540626
 21
58.25988462982242
 31
0.0
  0
LINE
  5
469
330
1F
100
AcDbEntity
  8
Laser interior
100
AcDbLine
 10
72.03448788540626
 20
63.348196384391
 30
0.0
 11
69.49033200812197
 21
60.80404050710671
 31
0.0
  0
LINE
  5
46A
330
1F
100
AcDbEntity
  8
Laser interior
100
AcDbLine
 10
72.03448788540626
 20
66.94617613083767
 30
0.0
 11
72.03448788540626
 21
63.348196384391
 31
0.0
  0
LINE
  5
46B
330
1F
100
AcDbEntity
  8
Laser interior
100
AcDbLine
 10
75.63246763185292
 20
66.94617613083767
 30
0.0
 11
72.03448788540626
 21
66.94617613083767
 31
0.0
  0
LINE
  5
46C
330
1F
100
AcDbEntity
  8
Laser interior
100
AcDbLine
 10
78.17662350913722
 20
69.49033200812195
 30
0.0
 11
75.63246763185292
 21
66.94617613083767
 31
0.0
  0
LINE
  5
46D
330
1F
100
AcDbEntity
  8
Laser interior
100
AcDbLine
 10
75.63246763185292
 20
66.94617613083767
 30
0.0
 11
76.67662350913722
 21
66.94617613083766
 31
0.0
  0
LINE
  5
46E
330
1F
100
AcDbEntity
  8
Laser interior
100
AcDbLine
 10
79.67662350913722
 20
66.94617613083766
 30
0.0
 11
80.72077938642151
 21
66.94617613083766
 31
0.0
  0
LINE
  5
46F
330
1F
100
AcDbEntity
  8
Laser interior
100
AcDbLine
 10
80.7207793864215
 20
54.66190488337576
 30
0.0
 11
79.67662350913722
 21
54.66190488337577
 31
0.0
  0
LINE
  5
470
330
1F
100
AcDbEntity
  8
Laser interior
100
AcDbLine
 10
76.67662350913722
 20
54.66190488337577
 30
0.0
 11
75.6324676318529
 21
54.66190488337577
 31
0.0
  0
LINE
  5
471
330
1F
100
AcDbEntity
  8
Laser interior
100
AcDbLine
 10
84.31875913286817
 20
63.348196384391
 30
0.0
 11
84.31875913286815
 21
62.30404050710671
 31
0.0
  0
LINE
  5
472
330
1F
100
AcDbEntity
  8
Laser interior
100
AcDbLine
 10
84.31875913286815
 20
59.30404050710671
 30
0.0
 11
84.31875913286815
 21
58.25988462982241
 31
0.0
  0
LINE
  5
473
330
1F
100
AcDbEntity
  8
Laser interior
100
AcDbLine
 10
72.03448788540626
 20
58.25988462982242
 30
0.0
 11
72.03448788540626
 21
59.30404050710671
 31
0.0
  0
LINE
  5
474
330
1F
100
AcDbEntity
  8
Laser interior
100
AcDbLine
 10
72.03448788540626
 20
62.30404050710671
 30
0.0
 11
72.03448788540626
 21
63.34819638439102
 31
0.0
  0
LINE
  5
475
330
1F
100
AcDbEntity
  8
interior
100
AcDbLine
 10
72.03448788540626
 20
62.30404050710671
 30
0.0
 11
72.03448788540626
 21
63.34819638439102
 31
0.0
  0
LINE
  5
476
330
1F
100
AcDbEntity
  8
interior
100
AcDbLine
 10
72.03448788540626
 20
58.25988462982242
 30
0.0
 11
72.03448788540626
 21
59.30404050710671
 31
0.0
  0
LINE
  5
477
330
1F
100
AcDbEntity
  8
interior
100
AcDbLine
 10
84.31875913286815
 20
59.30404050710671
 30
0.0
 11
84.31875913286815
 21
58.25988462982241
 31
0.0
  0
LINE
  5
478
330
1F
100
AcDbEntity
  8
interior
100
AcDbLine
 10
84.31875913286817
 20
63.348196384391
 30
0.0
 11
84.31875913286815
 21
62.30404050710671
 31
0.0
  0
LINE
  5
479
330
1F
100
AcDbEntity
  8
interior
100
AcDbLine
 10
76.67662350913722
 20
54.66190488337577
 30
0.0
 11
75.6324676318529
 21
54.66190488337577
 31
0.0
  0
LINE
  5
47A
330
1F
100
AcDbEntity
  8
interior
100
AcDbLine
 10
80.7207793864215
 20
54.66190488337576
 30
0.0
 11
79.67662350913722
 21
54.66190488337577
 31
0.0
  0
LINE
  5
47B
330
1F
100
AcDbEntity
  8
interior
100
AcDbLine
 10
79.67662350913722
 20
66.94617613083766
 30
0.0
 11
80.72077938642151
 21
66.94617613083766
 31
0.0
  0
LINE
  5
47C
330
1F
100
AcDbEntity
  8
interior
100
AcDbLine
 10
75.63246763185292
 20
66.94617613083767
 30
0.0
 11
76.67662350913722
 21
66.94617613083766
 31
0.0
  0
LINE
  5
47D
330
1F
100
AcDbEntity
  8
interior
100
AcDbLine
 10
78.17662350913722
 20
69.49033200812195
 30
0.0
 11
75.63246763185292
 21
66.94617613083767
 31
0.0
  0
LINE
  5
47E
330
1F
100
AcDbEntity
  8
interior
100
AcDbLine
 10
75.63246763185292
 20
66.94617613083767
 30
0.0
 11
72.03448788540626
 21
66.94617613083767
 31
0.0
  0
LINE
  5
47F
330
1F
100
AcDbEntity
  8
interior
100
AcDbLine
 10
72.03448788540626
 20
66.94617613083767
 30
0.0
 11
72.03448788540626
 21
63.348196384391
 31
0.0
  0
LINE
  5
480
330
1F
100
AcDbEntity
  8
interior
100
AcDbLine
 10
72.03448788540626
 20
63.348196384391
 30
0.0
 11
69.49033200812197
 21
60.80404050710671
 31
0.0
  0
LINE
  5
481
330
1F
100
AcDbEntity
  8
interior
100
AcDbLine
 10
69.49033200812197
 20
60.80404050710671
 30
0.0
 11
72.03448788540626
 21
58.25988462982242
 31
0.0
  0
LINE
  5
482
330
1F
100
AcDbEntity
  8
interior
100
AcDbLine
 10
72.03448788540626
 20
58.25988462982242
 30
0.0
 11
72.03448788540626
 21
54.66190488337576
 31
0.0
  0
LINE
  5
483
330
1F
100
AcDbEntity
  8
interior
100
AcDbLine
 10
72.03448788540626
 20
54.66190488337576
 30
0.0
 11
75.63246763185292
 21
54.66190488337576
 31
0.0
  0
LINE
  5
484
330
1F
100
AcDbEntity
  8
interior
100
AcDbLine
 10
75.63246763185292
 20
54.66190488337576
 30
0.0
 11
78.17662350913722
 21
52.11774900609147
 31
0.0
  0
LINE
  5
485
330
1F
100
AcDbEntity
  8
interior
100
AcDbLine
 10
78.17662350913722
 20
52.11774900609147
 30
0.0
 11
80.7207793864215
 21
54.66190488337576
 31
0.0
  0
LINE
  5
486
330
1F
100
AcDbEntity
  8
interior
100
AcDbLine
 10
80.7207793864215
 20
54.66190488337576
 30
0.0
 11
84.31875913286817
 21
54.66190488337576
 31
0.0
  0
LINE
  5
487
330
1F
100
AcDbEntity
  8
interior
100
AcDbLine
 10
84.31875913286817
 20
54.66190488337576
 30
0.0
 11
84.31875913286817
 21
58.25988462982241
 31
0.0
  0
LINE
  5
488
330
1F
100
AcDbEntity
  8
interior
100
AcDbLine
 10
84.31875913286817
 20
58.25988462982241
 30
0.0
 11
86.86291501015246
 21
60.80404050710671
 31
0.0
  0
LINE
  5
489
330
1F
100
AcDbEntity
  8
interior
100
AcDbLine
 10
86.86291501015246
 20
60.80404050710671
 30
0.0
 11
84.31875913286817
 21
63.34819638439102
 31
0.0
  0
LINE
  5
48A
330
1F
100
AcDbEntity
  8
interior
100
AcDbLine
 10
84.31875913286817
 20
63.34819638439102
 30
0.0
 11
84.31875913286817
 21
66.94617613083767
 31
0.0
  0
LINE
  5
48B
330
1F
100
AcDbEntity
  8
interior
100
AcDbLine
 10
84.31875913286817
 20
66.94617613083767
 30
0.0
 11
80.72077938642151
 21
66.94617613083766
 31
0.0
  0
LINE
  5
48C
330
1F
100
AcDbEntity
  8
interior
100
AcDbLine
 10
80.72077938642151
 20
66.94617613083766
 30
0.0
 11
78.17662350913722
 21
69.49033200812197
 31
0.0
  0
LINE
  5
48D
330
1F
100
AcDbEntity
  8
Laser interior
100
AcDbLine
 10
16.17258300203049
 20
80.7207793864215
 30
0.0
 11
18.57258300203049
 21
80.72077938642151
 31
0.0
  0
LINE
  5
48E
330
1F
100
AcDbEntity
  8
Laser interior
100
AcDbLine
 10
11.23044737829954
 20
84.31875913286815
 30
0.0
 11
8.68629150101524
 21
86.86291501015246
 31
0.0
  0
LINE
  5
48F
330
1F
100
AcDbEntity
  8
Laser interior
100
AcDbLine
 10
14.82842712474619
 20
84.31875913286817
 30
0.0
 11
11.23044737829954
 21
84.31875913286815
 31
0.0
  0
LINE
  5
490
330
1F
100
AcDbEntity
  8
Laser interior
100
AcDbLine
 10
14.82842712474619
 20
80.72077938642151
 30
0.0
 11
14.82842712474619
 21
84.31875913286817
 31
0.0
  0
LINE
  5
491
330
1F
100
AcDbEntity
  8
Laser interior
100
AcDbLine
 10
17.37258300203049
 20
78.17662350913722
 30
0.0
 11
14.82842712474619
 21
80.72077938642151
 31
0.0
  0
LINE
  5
492
330
1F
100
AcDbEntity
  8
Laser interior
100
AcDbLine
 10
14.82842712474619
 20
75.6324676318529
 30
0.0
 11
17.37258300203049
 21
78.17662350913722
 31
0.0
  0
LINE
  5
493
330
1F
100
AcDbEntity
  8
Laser interior
100
AcDbLine
 10
14.82842712474619
 20
72.03448788540626
 30
0.0
 11
14.82842712474619
 21
75.6324676318529
 31
0.0
  0
LINE
  5
494
330
1F
100
AcDbEntity
  8
Laser interior
100
AcDbLine
 10
11.23044737829953
 20
72.03448788540626
 30
0.0
 11
14.82842712474619
 21
72.03448788540626
 31
0.0
  0
LINE
  5
495
330
1F
100
AcDbEntity
  8
Laser interior
100
AcDbLine
 10
8.68629150101524
 20
69.49033200812197
 30
0.0
 11
11.23044737829953
 21
72.03448788540626
 31
0.0
  0
LINE
  5
496
330
1F
100
AcDbEntity
  8
Laser interior
100
AcDbLine
 10
6.142135623730951
 20
72.03448788540626
 30
0.0
 11
8.68629150101524
 21
69.49033200812197
 31
0.0
  0
LINE
  5
497
330
1F
100
AcDbEntity
  8
Laser interior
100
AcDbLine
 10
2.544155877284291
 20
72.03448788540626
 30
0.0
 11
6.142135623730951
 21
72.03448788540626
 31
0.0
  0
LINE
  5
498
330
1F
100
AcDbEntity
  8
Laser interior
100
AcDbLine
 10
2.544155877284291
 20
75.63246763185292
 30
0.0
 11
2.544155877284291
 21
72.03448788540626
 31
0.0
  0
LINE
  5
499
330
1F
100
AcDbEntity
  8
Laser interior
100
AcDbLine
 10
0.0
 20
78.17662350913722
 30
0.0
 11
2.544155877284291
 21
75.63246763185292
 31
0.0
  0
LINE
  5
49A
330
1F
100
AcDbEntity
  8
Laser interior
100
AcDbLine
 10
2.544155877284291
 20
80.7207793864215
 30
0.0
 11
0.0
 21
78.17662350913722
 31
0.0
  0
LINE
  5
49B
330
1F
100
AcDbEntity
  8
Laser interior
100
AcDbLine
 10
2.544155877284291
 20
84.31875913286817
 30
0.0
 11
2.544155877284291
 21
80.7207793864215
 31
0.0
  0
LINE
  5
49C
330
1F
100
AcDbEntity
  8
Laser interior
100
AcDbLine
 10
6.142135623730951
 20
84.31875913286817
 30
0.0
 11
2.544155877284291
 21
84.31875913286817
 31
0.0
  0
LINE
  5
49D
330
1F
100
AcDbEntity
  8
Laser interior
100
AcDbLine
 10
8.68629150101524
 20
86.86291501015245
 30
0.0
 11
6.142135623730951
 21
84.31875913286817
 31
0.0
  0
LINE
  5
49E
330
1F
100
AcDbEntity
  8
Laser interior
100
AcDbLine
 10
6.142135623730951
 20
84.31875913286817
 30
0.0
 11
7.186291501015241
 21
84.31875913286815
 31
0.0
  0
LINE
  5
49F
330
1F
100
AcDbEntity
  8
Laser interior
100
AcDbLine
 10
10.18629150101524
 20
84.31875913286815
 30
0.0
 11
11.23044737829954
 21
84.31875913286815
 31
0.0
  0
LINE
  5
4A0
330
1F
100
AcDbEntity
  8
Laser interior
100
AcDbLine
 10
11.23044737829953
 20
72.03448788540626
 30
0.0
 11
10.18629150101524
 21
72.03448788540626
 31
0.0
  0
LINE
  5
4A1
330
1F
100
AcDbEntity
  8
Laser interior
100
AcDbLine
 10
7.186291501015241
 20
72.03448788540626
 30
0.0
 11
6.14213562373094
 21
72.03448788540626
 31
0.0
  0
LINE
  5
4A2
330
1F
100
AcDbEntity
  8
Laser interior
100
AcDbLine
 10
14.82842712474619
 20
80.7207793864215
 30
0.0
 11
14.82842712474619
 21
79.67662350913722
 31
0.0
  0
LINE
  5
4A3
330
1F
100
AcDbEntity
  8
Laser interior
100
AcDbLine
 10
14.82842712474618
 20
76.67662350913722
 30
0.0
 11
14.82842712474618
 21
75.6324676318529
 31
0.0
  0
LINE
  5
4A4
330
1F
100
AcDbEntity
  8
Laser interior
100
AcDbLine
 10
2.54415587728429
 20
75.63246763185292
 30
0.0
 11
2.544155877284293
 21
76.67662350913722
 31
0.0
  0
LINE
  5
4A5
330
1F
100
AcDbEntity
  8
Laser interior
100
AcDbLine
 10
2.544155877284297
 20
79.67662350913722
 30
0.0
 11
2.5441558772843
 21
80.72077938642151
 31
0.0
  0
LINE
  5
4A6
330
1F
100
AcDbEntity
  8
interior
100
AcDbLine
 10
2.544155877284297
 20
79.67662350913722
 30
0.0
 11
2.5441558772843
 21
80.72077938642151
 31
0.0
  0
LINE
  5
4A7
330
1F
100
AcDbEntity
  8
interior
100
AcDbLine
 10
2.54415587728429
 20
75.63246763185292
 30
0.0
 11
2.544155877284293
 21
76.67662350913722
 31
0.0
  0
LINE
  5
4A8
330
1F
100
AcDbEntity
  8
interior
100
AcDbLine
 10
14.82842712474618
 20
76.67662350913722
 30
0.0
 11
14.82842712474618
 21
75.6324676318529
 31
0.0
  0
LINE
  5
4A9
330
1F
100
AcDbEntity
  8
interior
100
AcDbLine
 10
14.82842712474619
 20
80.7207793864215
 30
0.0
 11
14.82842712474619
 21
79.67662350913722
 31
0.0
  0
LINE
  5
4AA
330
1F
100
AcDbEntity
  8
interior
100
AcDbLine
 10
7.186291501015241
 20
72.03448788540626
 30
0.0
 11
6.14213562373094
 21
72.03448788540626
 31
0.0
  0
LINE
  5
4AB
330
1F
100
AcDbEntity
  8
interior
100
AcDbLine
 10
11.23044737829953
 20
72.03448788540626
 30
0.0
 11
10.18629150101524
 21
72.03448788540626
 31
0.0
  0
LINE
  5
4AC
330
1F
100
AcDbEntity
  8
interior
100
AcDbLine
 10
10.18629150101524
 20
84.31875913286815
 30
0.0
 11
11.23044737829954
 21
84.31875913286815
 31
0.0
  0
LINE
  5
4AD
330
1F
100
AcDbEntity
  8
interior
100
AcDbLine
 10
6.142135623730951
 20
84.31875913286817
 30
0.0
 11
7.186291501015241
 21
84.31875913286815
 31
0.0
  0
LINE
  5
4AE
330
1F
100
AcDbEntity
  8
interior
100
AcDbLine
 10
8.68629150101524
 20
86.86291501015245
 30
0.0
 11
6.142135623730951
 21
84.31875913286817
 31
0.0
  0
LINE
  5
4AF
330
1F
100
AcDbEntity
  8
interior
100
AcDbLine
 10
6.142135623730951
 20
84.31875913286817
 30
0.0
 11
2.544155877284291
 21
84.31875913286817
 31
0.0
  0
LINE
  5
4B0
330
1F
100
AcDbEntity
  8
interior
100
AcDbLine
 10
2.544155877284291
 20
84.31875913286817
 30
0.0
 11
2.544155877284291
 21
80.7207793864215
 31
0.0
  0
LINE
  5
4B1
330
1F
100
AcDbEntity
  8
interior
100
AcDbLine
 10
2.544155877284291
 20
80.7207793864215
 30
0.0
 11
0.0
 21
78.17662350913722
 31
0.0
  0
LINE
  5
4B2
330
1F
100
AcDbEntity
  8
interior
100
AcDbLine
 10
0.0
 20
78.17662350913722
 30
0.0
 11
2.544155877284291
 21
75.63246763185292
 31
0.0
  0
LINE
  5
4B3
330
1F
100
AcDbEntity
  8
interior
100
AcDbLine
 10
2.544155877284291
 20
75.63246763185292
 30
0.0
 11
2.544155877284291
 21
72.03448788540626
 31
0.0
  0
LINE
  5
4B4
330
1F
100
AcDbEntity
  8
interior
100
AcDbLine
 10
2.544155877284291
 20
72.03448788540626
 30
0.0
 11
6.142135623730951
 21
72.03448788540626
 31
0.0
  0
LINE
  5
4B5
330
1F
100
AcDbEntity
  8
interior
100
AcDbLine
 10
6.142135623730951
 20
72.03448788540626
 30
0.0
 11
8.68629150101524
 21
69.49033200812197
 31
0.0
  0
LINE
  5
4B6
330
1F
100
AcDbEntity
  8
interior
100
AcDbLine
 10
8.68629150101524
 20
69.49033200812197
 30
0.0
 11
11.23044737829953
 21
72.03448788540626
 31
0.0
  0
LINE
  5
4B7
330
1F
100
AcDbEntity
  8
interior
100
AcDbLine
 10
11.23044737829953
 20
72.03448788540626
 30
0.0
 11
14.82842712474619
 21
72.03448788540626
 31
0.0
  0
LINE
  5
4B8
330
1F
100
AcDbEntity
  8
interior
100
AcDbLine
 10
14.82842712474619
 20
72.03448788540626
 30
0.0
 11
14.82842712474619
 21
75.6324676318529
 31
0.0
  0
LINE
  5
4B9
330
1F
100
AcDbEntity
  8
interior
100
AcDbLine
 10
14.82842712474619
 20
75.6324676318529
 30
0.0
 11
17.37258300203049
 21
78.17662350913722
 31
0.0
  0
LINE
  5
4BA
330
1F
100
AcDbEntity
  8
interior
100
AcDbLine
 10
17.37258300203049
 20
78.17662350913722
 30
0.0
 11
14.82842712474619
 21
80.72077938642151
 31
0.0
  0
LINE
  5
4BB
330
1F
100
AcDbEntity
  8
interior
100
AcDbLine
 10
14.82842712474619
 20
80.72077938642151
 30
0.0
 11
14.82842712474619
 21
84.31875913286817
 31
0.0
  0
LINE
  5
4BC
330
1F
100
AcDbEntity
  8
interior
100
AcDbLine
 10
14.82842712474619
 20
84.31875913286817
 30
0.0
 11
11.23044737829954
 21
84.31875913286815
 31
0.0
  0
LINE
  5
4BD
330
1F
100
AcDbEntity
  8
interior
100
AcDbLine
 10
11.23044737829954
 20
84.31875913286815
 30
0.0
 11
8.68629150101524
 21
86.86291501015246
 31
0.0
  0
LINE
  5
4BE
330
1F
100
AcDbEntity
  8
Laser interior
100
AcDbLine
 10
14.8284271247462
 20
75.63246763185292
 30
0.0
 11
16.17258300203049
 21
75.6324676318529
 31
0.0
  0
LINE
  5
4BF
330
1F
100
AcDbEntity
  8
Laser interior
100
AcDbLine
 10
18.57258300203049
 20
75.6324676318529
 30
0.0
 11
19.91673887931478
 21
75.6324676318529
 31
0.0
  0
LINE
  5
4C0
330
1F
100
AcDbEntity
  8
Laser interior
100
AcDbLine
 10
33.54516600406099
 20
80.7207793864215
 30
0.0
 11
35.94516600406098
 21
80.72077938642151
 31
0.0
  0
LINE
  5
4C1
330
1F
100
AcDbEntity
  8
Laser interior
100
AcDbLine
 10
28.60303038033003
 20
84.31875913286815
 30
0.0
 11
26.05887450304573
 21
86.86291501015246
 31
0.0
  0
LINE
  5
4C2
330
1F
100
AcDbEntity
  8
Laser interior
100
AcDbLine
 10
32.20101012677668
 20
84.31875913286817
 30
0.0
 11
28.60303038033003
 21
84.31875913286815
 31
0.0
  0
LINE
  5
4C3
330
1F
100
AcDbEntity
  8
Laser interior
100
AcDbLine
 10
32.20101012677668
 20
80.72077938642151
 30
0.0
 11
32.20101012677668
 21
84.31875913286817
 31
0.0
  0
LINE
  5
4C4
330
1F
100
AcDbEntity
  8
Laser interior
100
AcDbLine
 10
34.74516600406098
 20
78.17662350913722
 30
0.0
 11
32.20101012677668
 21
80.72077938642151
 31
0.0
  0
LINE
  5
4C5
330
1F
100
AcDbEntity
  8
Laser interior
100
AcDbLine
 10
32.20101012677668
 20
75.6324676318529
 30
0.0
 11
34.74516600406098
 21
78.17662350913722
 31
0.0
  0
LINE
  5
4C6
330
1F
100
AcDbEntity
  8
Laser interior
100
AcDbLine
 10
32.20101012677668
 20
72.03448788540626
 30
0.0
 11
32.20101012677668
 21
75.6324676318529
 31
0.0
  0
LINE
  5
4C7
330
1F
100
AcDbEntity
  8
Laser interior
100
AcDbLine
 10
28.60303038033002
 20
72.03448788540626
 30
0.0
 11
32.20101012677668
 21
72.03448788540626
 31
0.0
  0
LINE
  5
4C8
330
1F
100
AcDbEntity
  8
Laser interior
100
AcDbLine
 10
26.05887450304573
 20
69.49033200812197
 30
0.0
 11
28.60303038033002
 21
72.03448788540626
 31
0.0
  0
LINE
  5
4C9
330
1F
100
AcDbEntity
  8
Laser interior
100
AcDbLine
 10
23.51471862576144
 20
72.03448788540626
 30
0.0
 11
26.05887450304573
 21
69.49033200812197
 31
0.0
  0
LINE
  5
4CA
330
1F
100
AcDbEntity
  8
Laser interior
100
AcDbLine
 10
19.91673887931479
 20
72.03448788540626
 30
0.0
 11
23.51471862576144
 21
72.03448788540626
 31
0.0
  0
LINE
  5
4CB
330
1F
100
AcDbEntity
  8
Laser interior
100
AcDbLine
 10
19.91673887931479
 20
75.63246763185292
 30
0.0
 11
19.91673887931479
 21
72.03448788540626
 31
0.0
  0
LINE
  5
4CC
330
1F
100
AcDbEntity
  8
Laser interior
100
AcDbLine
 10
17.37258300203049
 20
78.17662350913722
 30
0.0
 11
19.91673887931479
 21
75.63246763185292
 31
0.0
  0
LINE
  5
4CD
330
1F
100
AcDbEntity
  8
Laser interior
100
AcDbLine
 10
19.91673887931479
 20
80.7207793864215
 30
0.0
 11
17.37258300203049
 21
78.17662350913722
 31
0.0
  0
LINE
  5
4CE
330
1F
100
AcDbEntity
  8
Laser interior
100
AcDbLine
 10
19.91673887931479
 20
84.31875913286817
 30
0.0
 11
19.91673887931479
 21
80.7207793864215
 31
0.0
  0
LINE
  5
4CF
330
1F
100
AcDbEntity
  8
Laser interior
100
AcDbLine
 10
23.51471862576144
 20
84.31875913286817
 30
0.0
 11
19.91673887931479
 21
84.31875913286817
 31
0.0
  0
LINE
  5
4D0
330
1F
100
AcDbEntity
  8
Laser interior
100
AcDbLine
 10
26.05887450304573
 20
86.86291501015245
 30
0.0
 11
23.51471862576144
 21
84.31875913286817
 31
0.0
  0
LINE
  5
4D1
330
1F
100
AcDbEntity
  8
Laser interior
100
AcDbLine
 10
23.51471862576144
 20
84.31875913286817
 30
0.0
 11
24.55887450304573
 21
84.31875913286815
 31
0.0
  0
LINE
  5
4D2
330
1F
100
AcDbEntity
  8
Laser interior
100
AcDbLine
 10
27.55887450304573
 20
84.31875913286815
 30
0.0
 11
28.60303038033003
 21
84.31875913286815
 31
0.0
  0
LINE
  5
4D3
330
1F
100
AcDbEntity
  8
Laser interior
100
AcDbLine
 10
28.60303038033002
 20
72.03448788540626
 30
0.0
 11
27.55887450304573
 21
72.03448788540626
 31
0.0
  0
LINE
  5
4D4
330
1F
100
AcDbEntity
  8
Laser interior
100
AcDbLine
 10
24.55887450304573
 20
72.03448788540626
 30
0.0
 11
23.51471862576143
 21
72.03448788540626
 31
0.0
  0
LINE
  5
4D5
330
1F
100
AcDbEntity
  8
Laser interior
100
AcDbLine
 10
32.20101012677668
 20
80.7207793864215
 30
0.0
 11
32.20101012677668
 21
79.67662350913722
 31
0.0
  0
LINE
  5
4D6
330
1F
100
AcDbEntity
  8
Laser interior
100
AcDbLine
 10
32.20101012677668
 20
76.67662350913722
 30
0.0
 11
32.20101012677667
 21
75.6324676318529
 31
0.0
  0
LINE
  5
4D7
330
1F
100
AcDbEntity
  8
Laser interior
100
AcDbLine
 10
19.91673887931478
 20
75.63246763185292
 30
0.0
 11
19.91673887931479
 21
76.67662350913722
 31
0.0
  0
LINE
  5
4D8
330
1F
100
AcDbEntity
  8
Laser interior
100
AcDbLine
 10
19.91673887931479
 20
79.67662350913722
 30
0.0
 11
19.91673887931479
 21
80.72077938642151
 31
0.0
  0
LINE
  5
4D9
330
1F
100
AcDbEntity
  8
interior
100
AcDbLine
 10
19.91673887931479
 20
79.67662350913722
 30
0.0
 11
19.91673887931479
 21
80.72077938642151
 31
0.0
  0
LINE
  5
4DA
330
1F
100
AcDbEntity
  8
interior
100
AcDbLine
 10
19.91673887931478
 20
75.63246763185292
 30
0.0
 11
19.91673887931479
 21
76.67662350913722
 31
0.0
  0
LINE
  5
4DB
330
1F
100
AcDbEntity
  8
interior
100
AcDbLine
 10
32.20101012677668
 20
76.67662350913722
 30
0.0
 11
32.20101012677667
 21
75.6324676318529
 31
0.0
  0
LINE
  5
4DC
330
1F
100
AcDbEntity
  8
interior
100
AcDbLine
 10
32.20101012677668
 20
80.7207793864215
 30
0.0
 11
32.20101012677668
 21
79.67662350913722
 31
0.0
  0
LINE
  5
4DD
330
1F
100
AcDbEntity
  8
interior
100
AcDbLine
 10
24.55887450304573
 20
72.03448788540626
 30
0.0
 11
23.51471862576143
 21
72.03448788540626
 31
0.0
  0
LINE
  5
4DE
330
1F
100
AcDbEntity
  8
interior
100
AcDbLine
 10
28.60303038033002
 20
72.03448788540626
 30
0.0
 11
27.55887450304573
 21
72.03448788540626
 31
0.0
  0
LINE
  5
4DF
330
1F
100
AcDbEntity
  8
interior
100
AcDbLine
 10
27.55887450304573
 20
84.31875913286815
 30
0.0
 11
28.60303038033003
 21
84.31875913286815
 31
0.0
  0
LINE
  5
4E0
330
1F
100
AcDbEntity
  8
interior
100
AcDbLine
 10
23.51471862576144
 20
84.31875913286817
 30
0.0
 11
24.55887450304573
 21
84.31875913286815
 31
0.0
  0
LINE
  5
4E1
330
1F
100
AcDbEntity
  8
interior
100
AcDbLine
 10
26.05887450304573
 20
86.86291501015245
 30
0.0
 11
23.51471862576144
 21
84.31875913286817
 31
0.0
  0
LINE
  5
4E2
330
1F
100
AcDbEntity
  8
interior
100
AcDbLine
 10
23.51471862576144
 20
84.31875913286817
 30
0.0
 11
19.91673887931479
 21
84.31875913286817
 31
0.0
  0
LINE
  5
4E3
330
1F
100
AcDbEntity
  8
interior
100
AcDbLine
 10
19.91673887931479
 20
84.31875913286817
 30
0.0
 11
19.91673887931479
 21
80.7207793864215
 31
0.0
  0
LINE
  5
4E4
330
1F
100
AcDbEntity
  8
interior
100
AcDbLine
 10
19.91673887931479
 20
80.7207793864215
 30
0.0
 11
17.37258300203049
 21
78.17662350913722
 31
0.0
  0
LINE
  5
4E5
330
1F
100
AcDbEntity
  8
interior
100
AcDbLine
 10
17.37258300203049
 20
78.17662350913722
 30
0.0
 11
19.91673887931479
 21
75.63246763185292
 31
0.0
  0
LINE
  5
4E6
330
1F
100
AcDbEntity
  8
interior
100
AcDbLine
 10
19.91673887931479
 20
75.63246763185292
 30
0.0
 11
19.91673887931479
 21
72.03448788540626
 31
0.0
  0
LINE
  5
4E7
330
1F
100
AcDbEntity
  8
interior
100
AcDbLine
 10
19.91673887931479
 20
72.03448788540626
 30
0.0
 11
23.51471862576144
 21
72.03448788540626
 31
0.0
  0
LINE
  5
4E8
330
1F
100
AcDbEntity
  8
interior
100
AcDbLine
 10
23.51471862576144
 20
72.03448788540626
 30
0.0
 11
26.05887450304573
 21
69.49033200812197
 31
0.0
  0
LINE
  5
4E9
330
1F
100
AcDbEntity
  8
interior
100
AcDbLine
 10
26.05887450304573
 20
69.49033200812197
 30
0.0
 11
28.60303038033002
 21
72.03448788540626
 31
0.0
  0
LINE
  5
4EA
330
1F
100
AcDbEntity
  8
interior
100
AcDbLine
 10
28.60303038033002
 20
72.03448788540626
 30
0.0
 11
32.20101012677668
 21
72.03448788540626
 31
0.0
  0
LINE
  5
4EB
330
1F
100
AcDbEntity
  8
interior
100
AcDbLine
 10
32.20101012677668
 20
72.03448788540626
 30
0.0
 11
32.20101012677668
 21
75.6324676318529
 31
0.0
  0
LINE
  5
4EC
330
1F
100
AcDbEntity
  8
interior
100
AcDbLine
 10
32.20101012677668
 20
75.6324676318529
 30
0.0
 11
34.74516600406098
 21
78.17662350913722
 31
0.0
  0
LINE
  5
4ED
330
1F
100
AcDbEntity
  8
interior
100
AcDbLine
 10
34.74516600406098
 20
78.17662350913722
 30
0.0
 11
32.20101012677668
 21
80.72077938642151
 31
0.0
  0
LINE
  5
4EE
330
1F
100
AcDbEntity
  8
interior
100
AcDbLine
 10
32.20101012677668
 20
80.72077938642151
 30
0.0
 11
32.20101012677668
 21
84.31875913286817
 31
0.0
  0
LINE
  5
4EF
330
1F
100
AcDbEntity
  8
interior
100
AcDbLine
 10
32.20101012677668
 20
84.31875913286817
 30
0.0
 11
28.60303038033003
 21
84.31875913286815
 31
0.0
  0
LINE
  5
4F0
330
1F
100
AcDbEntity
  8
interior
100
AcDbLine
 10
28.60303038033003
 20
84.31875913286815
 30
0.0
 11
26.05887450304573
 21
86.86291501015246
 31
0.0
  0
LINE
  5
4F1
330
1F
100
AcDbEntity
  8
Laser interior
100
AcDbLine
 10
32.20101012677669
 20
75.63246763185292
 30
0.0
 11
33.54516600406099
 21
75.6324676318529
 31
0.0
  0
LINE
  5
4F2
330
1F
100
AcDbEntity
  8
Laser interior
100
AcDbLine
 10
35.94516600406098
 20
75.6324676318529
 30
0.0
 11
37.28932188134527
 21
75.6324676318529
 31
0.0
  0
LINE
  5
4F3
330
1F
100
AcDbEntity
  8
Laser interior
100
AcDbLine
 10
50.91774900609148
 20
80.7207793864215
 30
0.0
 11
53.31774900609147
 21
80.72077938642151
 31
0.0
  0
LINE
  5
4F4
330
1F
100
AcDbEntity
  8
Laser interior
100
AcDbLine
 10
45.97561338236052
 20
84.31875913286815
 30
0.0
 11
43.43145750507622
 21
86.86291501015246
 31
0.0
  0
LINE
  5
4F5
330
1F
100
AcDbEntity
  8
Laser interior
100
AcDbLine
 10
49.57359312880718
 20
84.31875913286817
 30
0.0
 11
45.97561338236052
 21
84.31875913286815
 31
0.0
  0
LINE
  5
4F6
330
1F
100
AcDbEntity
  8
Laser interior
100
AcDbLine
 10
49.57359312880718
 20
80.72077938642151
 30
0.0
 11
49.57359312880718
 21
84.31875913286817
 31
0.0
  0
LINE
  5
4F7
330
1F
100
AcDbEntity
  8
Laser interior
100
AcDbLine
 10
52.11774900609147
 20
78.17662350913722
 30
0.0
 11
49.57359312880718
 21
80.72077938642151
 31
0.0
  0
LINE
  5
4F8
330
1F
100
AcDbEntity
  8
Laser interior
100
AcDbLine
 10
49.57359312880718
 20
75.6324676318529
 30
0.0
 11
52.11774900609147
 21
78.17662350913722
 31
0.0
  0
LINE
  5
4F9
330
1F
100
AcDbEntity
  8
Laser interior
100
AcDbLine
 10
49.57359312880718
 20
72.03448788540626
 30
0.0
 11
49.57359312880718
 21
75.6324676318529
 31
0.0
  0
LINE
  5
4FA
330
1F
100
AcDbEntity
  8
Laser interior
100
AcDbLine
 10
45.97561338236051
 20
72.03448788540626
 30
0.0
 11
49.57359312880718
 21
72.03448788540626
 31
0.0
  0
LINE
  5
4FB
330
1F
100
AcDbEntity
  8
Laser interior
100
AcDbLine
 10
43.43145750507622
 20
69.49033200812197
 30
0.0
 11
45.97561338236051
 21
72.03448788540626
 31
0.0
  0
LINE
  5
4FC
330
1F
100
AcDbEntity
  8
Laser interior
100
AcDbLine
 10
40.88730162779193
 20
72.03448788540626
 30
0.0
 11
43.43145750507622
 21
69.49033200812197
 31
0.0
  0
LINE
  5
4FD
330
1F
100
AcDbEntity
  8
Laser interior
100
AcDbLine
 10
37.28932188134527
 20
72.03448788540626
 30
0.0
 11
40.88730162779193
 21
72.03448788540626
 31
0.0
  0
LINE
  5
4FE
330
1F
100
AcDbEntity
  8
Laser interior
100
AcDbLine
 10
37.28932188134527
 20
75.63246763185292
 30
0.0
 11
37.28932188134527
 21
72.03448788540626
 31
0.0
  0
LINE
  5
4FF
330
1F
100
AcDbEntity
  8
Laser interior
100
AcDbLine
 10
34.74516600406098
 20
78.17662350913722
 30
0.0
 11
37.28932188134527
 21
75.63246763185292
 31
0.0
  0
LINE
  5
500
330
1F
100
AcDbEntity
  8
Laser interior
100
AcDbLine
 10
37.28932188134527
 20
80.7207793864215
 30
0.0
 11
34.74516600406098
 21
78.17662350913722
 31
0.0
  0
LINE
  5
501
330
1F
100
AcDbEntity
  8
Laser interior
100
AcDbLine
 10
37.28932188134527
 20
84.31875913286817
 30
0.0
 11
37.28932188134527
 21
80.7207793864215
 31
0.0
  0
LINE
  5
502
330
1F
100
AcDbEntity
  8
Laser interior
100
AcDbLine
 10
40.88730162779193
 20
84.31875913286817
 30
0.0
 11
37.28932188134527
 21
84.31875913286817
 31
0.0
  0
LINE
  5
503
330
1F
100
AcDbEntity
  8
Laser interior
100
AcDbLine
 10
43.43145750507622
 20
86.86291501015245
 30
0.0
 11
40.88730162779193
 21
84.31875913286817
 31
0.0
  0
LINE
  5
504
330
1F
100
AcDbEntity
  8
Laser interior
100
AcDbLine
 10
40.88730162779193
 20
84.31875913286817
 30
0.0
 11
41.93145750507622
 21
84.31875913286815
 31
0.0
  0
LINE
  5
505
330
1F
100
AcDbEntity
  8
Laser interior
100
AcDbLine
 10
44.93145750507622
 20
84.31875913286815
 30
0.0
 11
45.97561338236052
 21
84.31875913286815
 31
0.0
  0
LINE
  5
506
330
1F
100
AcDbEntity
  8
Laser interior
100
AcDbLine
 10
45.97561338236051
 20
72.03448788540626
 30
0.0
 11
44.93145750507622
 21
72.03448788540626
 31
0.0
  0
LINE
  5
507
330
1F
100
AcDbEntity
  8
Laser interior
100
AcDbLine
 10
41.93145750507622
 20
72.03448788540626
 30
0.0
 11
40.88730162779193
 21
72.03448788540626
 31
0.0
  0
LINE
  5
508
330
1F
100
AcDbEntity
  8
Laser interior
100
AcDbLine
 10
49.57359312880718
 20
80.7207793864215
 30
0.0
 11
49.57359312880718
 21
79.67662350913722
 31
0.0
  0
LINE
  5
509
330
1F
100
AcDbEntity
  8
Laser interior
100
AcDbLine
 10
49.57359312880717
 20
76.67662350913722
 30
0.0
 11
49.57359312880716
 21
75.6324676318529
 31
0.0
  0
LINE
  5
50A
330
1F
100
AcDbEntity
  8
Laser interior
100
AcDbLine
 10
37.28932188134527
 20
75.63246763185292
 30
0.0
 11
37.28932188134527
 21
76.67662350913722
 31
0.0
  0
LINE
  5
50B
330
1F
100
AcDbEntity
  8
Laser interior
100
AcDbLine
 10
37.28932188134528
 20
79.67662350913722
 30
0.0
 11
37.28932188134529
 21
80.72077938642151
 31
0.0
  0
LINE
  5
50C
330
1F
100
AcDbEntity
  8
interior
100
AcDbLine
 10
37.28932188134528
 20
79.67662350913722
 30
0.0
 11
37.28932188134529
 21
80.72077938642151
 31
0.0
  0
LINE
  5
50D
330
1F
100
AcDbEntity
  8
interior
100
AcDbLine
 10
37.28932188134527
 20
75.63246763185292
 30
0.0
 11
37.28932188134527
 21
76.67662350913722
 31
0.0
  0
LINE
  5
50E
330
1F
100
AcDbEntity
  8
interior
100
AcDbLine
 10
49.57359312880717
 20
76.67662350913722
 30
0.0
 11
49.57359312880716
 21
75.6324676318529
 31
0.0
  0
LINE
  5
50F
330
1F
100
AcDbEntity
  8
interior
100
AcDbLine
 10
49.57359312880718
 20
80.7207793864215
 30
0.0
 11
49.57359312880718
 21
79.67662350913722
 31
0.0
  0
LINE
  5
510
330
1F
100
AcDbEntity
  8
interior
100
AcDbLine
 10
41.93145750507622
 20
72.03448788540626
 30
0.0
 11
40.88730162779193
 21
72.03448788540626
 31
0.0
  0
LINE
  5
511
330
1F
100
AcDbEntity
  8
interior
100
AcDbLine
 10
45.97561338236051
 20
72.03448788540626
 30
0.0
 11
44.93145750507622
 21
72.03448788540626
 31
0.0
  0
LINE
  5
512
330
1F
100
AcDbEntity
  8
interior
100
AcDbLine
 10
44.93145750507622
 20
84.31875913286815
 30
0.0
 11
45.97561338236052
 21
84.31875913286815
 31
0.0
  0
LINE
  5
513
330
1F
100
AcDbEntity
  8
interior
100
AcDbLine
 10
40.88730162779193
 20
84.31875913286817
 30
0.0
 11
41.93145750507622
 21
84.31875913286815
 31
0.0
  0
LINE
  5
514
330
1F
100
AcDbEntity
  8
interior
100
AcDbLine
 10
43.43145750507622
 20
86.86291501015245
 30
0.0
 11
40.88730162779193
 21
84.31875913286817
 31
0.0
  0
LINE
  5
515
330
1F
100
AcDbEntity
  8
interior
100
AcDbLine
 10
40.88730162779193
 20
84.31875913286817
 30
0.0
 11
37.28932188134527
 21
84.31875913286817
 31
0.0
  0
LINE
  5
516
330
1F
100
AcDbEntity
  8
interior
100
AcDbLine
 10
37.28932188134527
 20
84.31875913286817
 30
0.0
 11
37.28932188134527
 21
80.7207793864215
 31
0.0
  0
LINE
  5
517
330
1F
100
AcDbEntity
  8
interior
100
AcDbLine
 10
37.28932188134527
 20
80.7207793864215
 30
0.0
 11
34.74516600406098
 21
78.17662350913722
 31
0.0
  0
LINE
  5
518
330
1F
100
AcDbEntity
  8
interior
100
AcDbLine
 10
34.74516600406098
 20
78.17662350913722
 30
0.0
 11
37.28932188134527
 21
75.63246763185292
 31
0.0
  0
LINE
  5
519
330
1F
100
AcDbEntity
  8
interior
100
AcDbLine
 10
37.28932188134527
 20
75.63246763185292
 30
0.0
 11
37.28932188134527
 21
72.03448788540626
 31
0.0
  0
LINE
  5
51A
330
1F
100
AcDbEntity
  8
interior
100
AcDbLine
 10
37.28932188134527
 20
72.03448788540626
 30
0.0
 11
40.88730162779193
 21
72.03448788540626
 31
0.0
  0
LINE
  5
51B
330
1F
100
AcDbEntity
  8
interior
100
AcDbLine
 10
40.88730162779193
 20
72.03448788540626
 30
0.0
 11
43.43145750507622
 21
69.49033200812197
 31
0.0
  0
LINE
  5
51C
330
1F
100
AcDbEntity
  8
interior
100
AcDbLine
 10
43.43145750507622
 20
69.49033200812197
 30
0.0
 11
45.97561338236051
 21
72.03448788540626
 31
0.0
  0
LINE
  5
51D
330
1F
100
AcDbEntity
  8
interior
100
AcDbLine
 10
45.97561338236051
 20
72.03448788540626
 30
0.0
 11
49.57359312880718
 21
72.03448788540626
 31
0.0
  0
LINE
  5
51E
330
1F
100
AcDbEntity
  8
interior
100
AcDbLine
 10
49.57359312880718
 20
72.03448788540626
 30
0.0
 11
49.57359312880718
 21
75.6324676318529
 31
0.0
  0
LINE
  5
51F
330
1F
100
AcDbEntity
  8
interior
100
AcDbLine
 10
49.57359312880718
 20
75.6324676318529
 30
0.0
 11
52.11774900609147
 21
78.17662350913722
 31
0.0
  0
LINE
  5
520
330
1F
100
AcDbEntity
  8
interior
100
AcDbLine
 10
52.11774900609147
 20
78.17662350913722
 30
0.0
 11
49.57359312880718
 21
80.72077938642151
 31
0.0
  0
LINE
  5
521
330
1F
100
AcDbEntity
  8
interior
100
AcDbLine
 10
49.57359312880718
 20
80.72077938642151
 30
0.0
 11
49.57359312880718
 21
84.31875913286817
 31
0.0
  0
LINE
  5
522
330
1F
100
AcDbEntity
  8
interior
100
AcDbLine
 10
49.57359312880718
 20
84.31875913286817
 30
0.0
 11
45.97561338236052
 21
84.31875913286815
 31
0.0
  0
LINE
  5
523
330
1F
100
AcDbEntity
  8
interior
100
AcDbLine
 10
45.97561338236052
 20
84.31875913286815
 30
0.0
 11
43.43145750507622
 21
86.86291501015246
 31
0.0
  0
LINE
  5
524
330
1F
100
AcDbEntity
  8
Laser interior
100
AcDbLine
 10
49.57359312880718
 20
75.63246763185292
 30
0.0
 11
50.91774900609148
 21
75.6324676318529
 31
0.0
  0
LINE
  5
525
330
1F
100
AcDbEntity
  8
Laser interior
100
AcDbLine
 10
53.31774900609147
 20
75.6324676318529
 30
0.0
 11
54.66190488337577
 21
75.6324676318529
 31
0.0
  0
LINE
  5
526
330
1F
100
AcDbEntity
  8
Laser interior
100
AcDbLine
 10
68.29033200812196
 20
80.7207793864215
 30
0.0
 11
70.69033200812197
 21
80.72077938642151
 31
0.0
  0
LINE
  5
527
330
1F
100
AcDbEntity
  8
Laser interior
100
AcDbLine
 10
63.34819638439102
 20
84.31875913286815
 30
0.0
 11
60.80404050710671
 21
86.86291501015246
 31
0.0
  0
LINE
  5
528
330
1F
100
AcDbEntity
  8
Laser interior
100
AcDbLine
 10
66.94617613083767
 20
84.31875913286817
 30
0.0
 11
63.34819638439102
 21
84.31875913286815
 31
0.0
  0
LINE
  5
529
330
1F
100
AcDbEntity
  8
Laser interior
100
AcDbLine
 10
66.94617613083767
 20
80.72077938642151
 30
0.0
 11
66.94617613083767
 21
84.31875913286817
 31
0.0
  0
LINE
  5
52A
330
1F
100
AcDbEntity
  8
Laser interior
100
AcDbLine
 10
69.49033200812197
 20
78.17662350913722
 30
0.0
 11
66.94617613083767
 21
80.72077938642151
 31
0.0
  0
LINE
  5
52B
330
1F
100
AcDbEntity
  8
Laser interior
100
AcDbLine
 10
66.94617613083767
 20
75.6324676318529
 30
0.0
 11
69.49033200812197
 21
78.17662350913722
 31
0.0
  0
LINE
  5
52C
330
1F
100
AcDbEntity
  8
Laser interior
100
AcDbLine
 10
66.94617613083767
 20
72.03448788540626
 30
0.0
 11
66.94617613083767
 21
75.6324676318529
 31
0.0
  0
LINE
  5
52D
330
1F
100
AcDbEntity
  8
Laser interior
100
AcDbLine
 10
63.348196384391
 20
72.03448788540626
 30
0.0
 11
66.94617613083767
 21
72.03448788540626
 31
0.0
  0
LINE
  5
52E
330
1F
100
AcDbEntity
  8
Laser interior
100
AcDbLine
 10
60.80404050710671
 20
69.49033200812197
 30
0.0
 11
63.348196384391
 21
72.03448788540626
 31
0.0
  0
LINE
  5
52F
330
1F
100
AcDbEntity
  8
Laser interior
100
AcDbLine
 10
58.25988462982242
 20
72.03448788540626
 30
0.0
 11
60.80404050710671
 21
69.49033200812197
 31
0.0
  0
LINE
  5
530
330
1F
100
AcDbEntity
  8
Laser interior
100
AcDbLine
 10
54.66190488337576
 20
72.03448788540626
 30
0.0
 11
58.25988462982242
 21
72.03448788540626
 31
0.0
  0
LINE
  5
531
330
1F
100
AcDbEntity
  8
Laser interior
100
AcDbLine
 10
54.66190488337576
 20
75.63246763185292
 30
0.0
 11
54.66190488337576
 21
72.03448788540626
 31
0.0
  0
LINE
  5
532
330
1F
100
AcDbEntity
  8
Laser interior
100
AcDbLine
 10
52.11774900609147
 20
78.17662350913722
 30
0.0
 11
54.66190488337576
 21
75.63246763185292
 31
0.0
  0
LINE
  5
533
330
1F
100
AcDbEntity
  8
Laser interior
100
AcDbLine
 10
54.66190488337576
 20
80.7207793864215
 30
0.0
 11
52.11774900609147
 21
78.17662350913722
 31
0.0
  0
LINE
  5
534
330
1F
100
AcDbEntity
  8
Laser interior
100
AcDbLine
 10
54.66190488337576
 20
84.31875913286817
 30
0.0
 11
54.66190488337576
 21
80.7207793864215
 31
0.0
  0
LINE
  5
535
330
1F
100
AcDbEntity
  8
Laser interior
100
AcDbLine
 10
58.25988462982242
 20
84.31875913286817
 30
0.0
 11
54.66190488337576
 21
84.31875913286817
 31
0.0
  0
LINE
  5
536
330
1F
100
AcDbEntity
  8
Laser interior
100
AcDbLine
 10
60.80404050710671
 20
86.86291501015245
 30
0.0
 11
58.25988462982242
 21
84.31875913286817
 31
0.0
  0
LINE
  5
537
330
1F
100
AcDbEntity
  8
Laser interior
100
AcDbLine
 10
58.25988462982242
 20
84.31875913286817
 30
0.0
 11
59.30404050710671
 21
84.31875913286815
 31
0.0
  0
LINE
  5
538
330
1F
100
AcDbEntity
  8
Laser interior
100
AcDbLine
 10
62.30404050710671
 20
84.31875913286815
 30
0.0
 11
63.34819638439102
 21
84.31875913286815
 31
0.0
  0
LINE
  5
539
330
1F
100
AcDbEntity
  8
Laser interior
100
AcDbLine
 10
63.348196384391
 20
72.03448788540626
 30
0.0
 11
62.30404050710671
 21
72.03448788540626
 31
0.0
  0
LINE
  5
53A
330
1F
100
AcDbEntity
  8
Laser interior
100
AcDbLine
 10
59.30404050710671
 20
72.03448788540626
 30
0.0
 11
58.25988462982241
 21
72.03448788540626
 31
0.0
  0
LINE
  5
53B
330
1F
100
AcDbEntity
  8
Laser interior
100
AcDbLine
 10
66.94617613083767
 20
80.7207793864215
 30
0.0
 11
66.94617613083766
 21
79.67662350913722
 31
0.0
  0
LINE
  5
53C
330
1F
100
AcDbEntity
  8
Laser interior
100
AcDbLine
 10
66.94617613083766
 20
76.67662350913722
 30
0.0
 11
66.94617613083766
 21
75.6324676318529
 31
0.0
  0
LINE
  5
53D
330
1F
100
AcDbEntity
  8
Laser interior
100
AcDbLine
 10
54.66190488337576
 20
75.63246763185292
 30
0.0
 11
54.66190488337577
 21
76.67662350913722
 31
0.0
  0
LINE
  5
53E
330
1F
100
AcDbEntity
  8
Laser interior
100
AcDbLine
 10
54.66190488337577
 20
79.67662350913722
 30
0.0
 11
54.66190488337577
 21
80.72077938642151
 31
0.0
  0
LINE
  5
53F
330
1F
100
AcDbEntity
  8
interior
100
AcDbLine
 10
54.66190488337577
 20
79.67662350913722
 30
0.0
 11
54.66190488337577
 21
80.72077938642151
 31
0.0
  0
LINE
  5
540
330
1F
100
AcDbEntity
  8
interior
100
AcDbLine
 10
54.66190488337576
 20
75.63246763185292
 30
0.0
 11
54.66190488337577
 21
76.67662350913722
 31
0.0
  0
LINE
  5
541
330
1F
100
AcDbEntity
  8
interior
100
AcDbLine
 10
66.94617613083766
 20
76.67662350913722
 30
0.0
 11
66.94617613083766
 21
75.6324676318529
 31
0.0
  0
LINE
  5
542
330
1F
100
AcDbEntity
  8
interior
100
AcDbLine
 10
66.94617613083767
 20
80.7207793864215
 30
0.0
 11
66.94617613083766
 21
79.67662350913722
 31
0.0
  0
LINE
  5
543
330
1F
100
AcDbEntity
  8
interior
100
AcDbLine
 10
59.30404050710671
 20
72.03448788540626
 30
0.0
 11
58.25988462982241
 21
72.03448788540626
 31
0.0
  0
LINE
  5
544
330
1F
100
AcDbEntity
  8
interior
100
AcDbLine
 10
63.348196384391
 20
72.03448788540626
 30
0.0
 11
62.30404050710671
 21
72.03448788540626
 31
0.0
  0
LINE
  5
545
330
1F
100
AcDbEntity
  8
interior
100
AcDbLine
 10
62.30404050710671
 20
84.31875913286815
 30
0.0
 11
63.34819638439102
 21
84.31875913286815
 31
0.0
  0
LINE
  5
546
330
1F
100
AcDbEntity
  8
interior
100
AcDbLine
 10
58.25988462982242
 20
84.31875913286817
 30
0.0
 11
59.30404050710671
 21
84.31875913286815
 31
0.0
  0
LINE
  5
547
330
1F
100
AcDbEntity
  8
interior
100
AcDbLine
 10
60.80404050710671
 20
86.86291501015245
 30
0.0
 11
58.25988462982242
 21
84.31875913286817
 31
0.0
  0
LINE
  5
548
330
1F
100
AcDbEntity
  8
interior
100
AcDbLine
 10
58.25988462982242
 20
84.31875913286817
 30
0.0
 11
54.66190488337576
 21
84.31875913286817
 31
0.0
  0
LINE
  5
549
330
1F
100
AcDbEntity
  8
interior
100
AcDbLine
 10
54.66190488337576
 20
84.31875913286817
 30
0.0
 11
54.66190488337576
 21
80.7207793864215
 31
0.0
  0
LINE
  5
54A
330
1F
100
AcDbEntity
  8
interior
100
AcDbLine
 10
54.66190488337576
 20
80.7207793864215
 30
0.0
 11
52.11774900609147
 21
78.17662350913722
 31
0.0
  0
LINE
  5
54B
330
1F
100
AcDbEntity
  8
interior
100
AcDbLine
 10
52.11774900609147
 20
78.17662350913722
 30
0.0
 11
54.66190488337576
 21
75.63246763185292
 31
0.0
  0
LINE
  5
54C
330
1F
100
AcDbEntity
  8
interior
100
AcDbLine
 10
54.66190488337576
 20
75.63246763185292
 30
0.0
 11
54.66190488337576
 21
72.03448788540626
 31
0.0
  0
LINE
  5
54D
330
1F
100
AcDbEntity
  8
interior
100
AcDbLine
 10
54.66190488337576
 20
72.03448788540626
 30
0.0
 11
58.25988462982242
 21
72.03448788540626
 31
0.0
  0
LINE
  5
54E
330
1F
100
AcDbEntity
  8
interior
100
AcDbLine
 10
58.25988462982242
 20
72.03448788540626
 30
0.0
 11
60.80404050710671
 21
69.49033200812197
 31
0.0
  0
LINE
  5
54F
330
1F
100
AcDbEntity
  8
interior
100
AcDbLine
 10
60.80404050710671
 20
69.49033200812197
 30
0.0
 11
63.348196384391
 21
72.03448788540626
 31
0.0
  0
LINE
  5
550
330
1F
100
AcDbEntity
  8
interior
100
AcDbLine
 10
63.348196384391
 20
72.03448788540626
 30
0.0
 11
66.94617613083767
 21
72.03448788540626
 31
0.0
  0
LINE
  5
551
330
1F
100
AcDbEntity
  8
interior
100
AcDbLine
 10
66.94617613083767
 20
72.03448788540626
 30
0.0
 11
66.94617613083767
 21
75.6324676318529
 31
0.0
  0
LINE
  5
552
330
1F
100
AcDbEntity
  8
interior
100
AcDbLine
 10
66.94617613083767
 20
75.6324676318529
 30
0.0
 11
69.49033200812197
 21
78.17662350913722
 31
0.0
  0
LINE
  5
553
330
1F
100
AcDbEntity
  8
interior
100
AcDbLine
 10
69.49033200812197
 20
78.17662350913722
 30
0.0
 11
66.94617613083767
 21
80.72077938642151
 31
0.0
  0
LINE
  5
554
330
1F
100
AcDbEntity
  8
interior
100
AcDbLine
 10
66.94617613083767
 20
80.72077938642151
 30
0.0
 11
66.94617613083767
 21
84.31875913286817
 31
0.0
  0
LINE
  5
555
330
1F
100
AcDbEntity
  8
interior
100
AcDbLine
 10
66.94617613083767
 20
84.31875913286817
 30
0.0
 11
63.34819638439102
 21
84.31875913286815
 31
0.0
  0
LINE
  5
556
330
1F
100
AcDbEntity
  8
interior
100
AcDbLine
 10
63.34819638439102
 20
84.31875913286815
 30
0.0
 11
60.80404050710671
 21
86.86291501015246
 31
0.0
  0
LINE
  5
557
330
1F
100
AcDbEntity
  8
Laser interior
100
AcDbLine
 10
66.94617613083767
 20
75.63246763185292
 30
0.0
 11
68.29033200812196
 21
75.6324676318529
 31
0.0
  0
LINE
  5
558
330
1F
100
AcDbEntity
  8
Laser interior
100
AcDbLine
 10
70.69033200812197
 20
75.6324676318529
 30
0.0
 11
72.03448788540625
 21
75.6324676318529
 31
0.0
  0
LINE
  5
559
330
1F
100
AcDbEntity
  8
Laser interior
100
AcDbLine
 10
80.72077938642151
 20
84.31875913286815
 30
0.0
 11
78.17662350913722
 21
86.86291501015246
 31
0.0
  0
LINE
  5
55A
330
1F
100
AcDbEntity
  8
Laser interior
100
AcDbLine
 10
84.31875913286817
 20
84.31875913286817
 30
0.0
 11
80.72077938642151
 21
84.31875913286815
 31
0.0
  0
LINE
  5
55B
330
1F
100
AcDbEntity
  8
Laser interior
100
AcDbLine
 10
84.31875913286817
 20
80.72077938642151
 30
0.0
 11
84.31875913286817
 21
84.31875913286817
 31
0.0
  0
LINE
  5
55C
330
1F
100
AcDbEntity
  8
Laser interior
100
AcDbLine
 10
86.86291501015246
 20
78.17662350913722
 30
0.0
 11
84.31875913286817
 21
80.72077938642151
 31
0.0
  0
LINE
  5
55D
330
1F
100
AcDbEntity
  8
Laser interior
100
AcDbLine
 10
84.31875913286817
 20
75.6324676318529
 30
0.0
 11
86.86291501015246
 21
78.17662350913722
 31
0.0
  0
LINE
  5
55E
330
1F
100
AcDbEntity
  8
Laser interior
100
AcDbLine
 10
84.31875913286817
 20
72.03448788540626
 30
0.0
 11
84.31875913286817
 21
75.6324676318529
 31
0.0
  0
LINE
  5
55F
330
1F
100
AcDbEntity
  8
Laser interior
100
AcDbLine
 10
80.7207793864215
 20
72.03448788540626
 30
0.0
 11
84.31875913286817
 21
72.03448788540626
 31
0.0
  0
LINE
  5
560
330
1F
100
AcDbEntity
  8
Laser interior
100
AcDbLine
 10
78.17662350913722
 20
69.49033200812197
 30
0.0
 11
80.7207793864215
 21
72.03448788540626
 31
0.0
  0
LINE
  5
561
330
1F
100
AcDbEntity
  8
Laser interior
100
AcDbLine
 10
75.63246763185292
 20
72.03448788540626
 30
0.0
 11
78.17662350913722
 21
69.49033200812197
 31
0.0
  0
LINE
  5
562
330
1F
100
AcDbEntity
  8
Laser interior
100
AcDbLine
 10
72.03448788540626
 20
72.03448788540626
 30
0.0
 11
75.63246763185292
 21
72.03448788540626
 31
0.0
  0
LINE
  5
563
330
1F
100
AcDbEntity
  8
Laser interior
100
AcDbLine
 10
72.03448788540626
 20
75.63246763185292
 30
0.0
 11
72.03448788540626
 21
72.03448788540626
 31
0.0
  0
LINE
  5
564
330
1F
100
AcDbEntity
  8
Laser interior
100
AcDbLine
 10
69.49033200812197
 20
78.17662350913722
 30
0.0
 11
72.03448788540626
 21
75.63246763185292
 31
0.0
  0
LINE
  5
565
330
1F
100
AcDbEntity
  8
Laser interior
100
AcDbLine
 10
72.03448788540626
 20
80.7207793864215
 30
0.0
 11
69.49033200812197
 21
78.17662350913722
 31
0.0
  0
LINE
  5
566
330
1F
100
AcDbEntity
  8
Laser interior
100
AcDbLine
 10
72.03448788540626
 20
84.31875913286817
 30
0.0
 11
72.03448788540626
 21
80.7207793864215
 31
0.0
  0
LINE
  5
567
330
1F
100
AcDbEntity
  8
Laser interior
100
AcDbLine
 10
75.63246763185292
 20
84.31875913286817
 30
0.0
 11
72.03448788540626
 21
84.31875913286817
 31
0.0
  0
LINE
  5
568
330
1F
100
AcDbEntity
  8
Laser interior
100
AcDbLine
 10
78.17662350913722
 20
86.86291501015245
 30
0.0
 11
75.63246763185292
 21
84.31875913286817
 31
0.0
  0
LINE
  5
569
330
1F
100
AcDbEntity
  8
Laser interior
100
AcDbLine
 10
75.63246763185292
 20
84.31875913286817
 30
0.0
 11
76.67662350913722
 21
84.31875913286815
 31
0.0
  0
LINE
  5
56A
330
1F
100
AcDbEntity
  8
Laser interior
100
AcDbLine
 10
79.67662350913722
 20
84.31875913286815
 30
0.0
 11
80.72077938642151
 21
84.31875913286815
 31
0.0
  0
LINE
  5
56B
330
1F
100
AcDbEntity
  8
Laser interior
100
AcDbLine
 10
80.7207793864215
 20
72.03448788540626
 30
0.0
 11
79.67662350913722
 21
72.03448788540626
 31
0.0
  0
LINE
  5
56C
330
1F
100
AcDbEntity
  8
Laser interior
100
AcDbLine
 10
76.67662350913722
 20
72.03448788540626
 30
0.0
 11
75.6324676318529
 21
72.03448788540626
 31
0.0
  0
LINE
  5
56D
330
1F
100
AcDbEntity
  8
Laser interior
100
AcDbLine
 10
84.31875913286817
 20
80.7207793864215
 30
0.0
 11
84.31875913286815
 21
79.67662350913722
 31
0.0
  0
LINE
  5
56E
330
1F
100
AcDbEntity
  8
Laser interior
100
AcDbLine
 10
84.31875913286815
 20
76.67662350913722
 30
0.0
 11
84.31875913286815
 21
75.6324676318529
 31
0.0
  0
LINE
  5
56F
330
1F
100
AcDbEntity
  8
Laser interior
100
AcDbLine
 10
72.03448788540626
 20
75.63246763185292
 30
0.0
 11
72.03448788540626
 21
76.67662350913722
 31
0.0
  0
LINE
  5
570
330
1F
100
AcDbEntity
  8
Laser interior
100
AcDbLine
 10
72.03448788540626
 20
79.67662350913722
 30
0.0
 11
72.03448788540626
 21
80.72077938642151
 31
0.0
  0
LINE
  5
571
330
1F
100
AcDbEntity
  8
interior
100
AcDbLine
 10
72.03448788540626
 20
79.67662350913722
 30
0.0
 11
72.03448788540626
 21
80.72077938642151
 31
0.0
  0
LINE
  5
572
330
1F
100
AcDbEntity
  8
interior
100
AcDbLine
 10
72.03448788540626
 20
75.63246763185292
 30
0.0
 11
72.03448788540626
 21
76.67662350913722
 31
0.0
  0
LINE
  5
573
330
1F
100
AcDbEntity
  8
interior
100
AcDbLine
 10
84.31875913286815
 20
76.67662350913722
 30
0.0
 11
84.31875913286815
 21
75.6324676318529
 31
0.0
  0
LINE
  5
574
330
1F
100
AcDbEntity
  8
interior
100
AcDbLine
 10
84.31875913286817
 20
80.7207793864215
 30
0.0
 11
84.31875913286815
 21
79.67662350913722
 31
0.0
  0
LINE
  5
575
330
1F
100
AcDbEntity
  8
interior
100
AcDbLine
 10
76.67662350913722
 20
72.03448788540626
 30
0.0
 11
75.6324676318529
 21
72.03448788540626
 31
0.0
  0
LINE
  5
576
330
1F
100
AcDbEntity
  8
interior
100
AcDbLine
 10
80.7207793864215
 20
72.03448788540626
 30
0.0
 11
79.67662350913722
 21
72.03448788540626
 31
0.0
  0
LINE
  5
577
330
1F
100
AcDbEntity
  8
interior
100
AcDbLine
 10
79.67662350913722
 20
84.31875913286815
 30
0.0
 11
80.72077938642151
 21
84.31875913286815
 31
0.0
  0
LINE
  5
578
330
1F
100
AcDbEntity
  8
interior
100
AcDbLine
 10
75.63246763185292
 20
84.31875913286817
 30
0.0
 11
76.67662350913722
 21
84.31875913286815
 31
0.0
  0
LINE
  5
579
330
1F
100
AcDbEntity
  8
interior
100
AcDbLine
 10
78.17662350913722
 20
86.86291501015245
 30
0.0
 11
75.63246763185292
 21
84.31875913286817
 31
0.0
  0
LINE
  5
57A
330
1F
100
AcDbEntity
  8
interior
100
AcDbLine
 10
75.63246763185292
 20
84.31875913286817
 30
0.0
 11
72.03448788540626
 21
84.31875913286817
 31
0.0
  0
LINE
  5
57B
330
1F
100
AcDbEntity
  8
interior
100
AcDbLine
 10
72.03448788540626
 20
84.31875913286817
 30
0.0
 11
72.03448788540626
 21
80.7207793864215
 31
0.0
  0
LINE
  5
57C
330
1F
100
AcDbEntity
  8
interior
100
AcDbLine
 10
72.03448788540626
 20
80.7207793864215
 30
0.0
 11
69.49033200812197
 21
78.17662350913722
 31
0.0
  0
LINE
  5
57D
330
1F
100
AcDbEntity
  8
interior
100
AcDbLine
 10
69.49033200812197
 20
78.17662350913722
 30
0.0
 11
72.03448788540626
 21
75.63246763185292
 31
0.0
  0
LINE
  5
57E
330
1F
100
AcDbEntity
  8
interior
100
AcDbLine
 10
72.03448788540626
 20
75.63246763185292
 30
0.0
 11
72.03448788540626
 21
72.03448788540626
 31
0.0
  0
LINE
  5
57F
330
1F
100
AcDbEntity
  8
interior
100
AcDbLine
 10
72.03448788540626
 20
72.03448788540626
 30
0.0
 11
75.63246763185292
 21
72.03448788540626
 31
0.0
  0
LINE
  5
580
330
1F
100
AcDbEntity
  8
interior
100
AcDbLine
 10
75.63246763185292
 20
72.03448788540626
 30
0.0
 11
78.17662350913722
 21
69.49033200812197
 31
0.0
  0
LINE
  5
581
330
1F
100
AcDbEntity
  8
interior
100
AcDbLine
 10
78.17662350913722
 20
69.49033200812197
 30
0.0
 11
80.7207793864215
 21
72.03448788540626
 31
0.0
  0
LINE
  5
582
330
1F
100
AcDbEntity
  8
interior
100
AcDbLine
 10
80.7207793864215
 20
72.03448788540626
 30
0.0
 11
84.31875913286817
 21
72.03448788540626
 31
0.0
  0
LINE
  5
583
330
1F
100
AcDbEntity
  8
interior
100
AcDbLine
 10
84.31875913286817
 20
72.03448788540626
 30
0.0
 11
84.31875913286817
 21
75.6324676318529
 31
0.0
  0
LINE
  5
584
330
1F
100
AcDbEntity
  8
interior
100
AcDbLine
 10
84.31875913286817
 20
75.6324676318529
 30
0.0
 11
86.86291501015246
 21
78.17662350913722
 31
0.0
  0
LINE
  5
585
330
1F
100
AcDbEntity
  8
interior
100
AcDbLine
 10
86.86291501015246
 20
78.17662350913722
 30
0.0
 11
84.31875913286817
 21
80.72077938642151
 31
0.0
  0
LINE
  5
586
330
1F
100
AcDbEntity
  8
interior
100
AcDbLine
 10
84.31875913286817
 20
80.72077938642151
 30
0.0
 11
84.31875913286817
 21
84.31875913286817
 31
0.0
  0
LINE
  5
587
330
1F
100
AcDbEntity
  8
interior
100
AcDbLine
 10
84.31875913286817
 20
84.31875913286817
 30
0.0
 11
80.72077938642151
 21
84.31875913286815
 31
0.0
  0
LINE
  5
588
330
1F
100
AcDbEntity
  8
interior
100
AcDbLine
 10
80.72077938642151
 20
84.31875913286815
 30
0.0
 11
78.17662350913722
 21
86.86291501015246
 31
0.0
  0
ENDSEC
  0
SECTION
  2
OBJECTS
  0
DICTIONARY
  5
C
330
0
100
AcDbDictionary
281
     1
  3
ACAD_DETAILVIEWSTYLE
350
5C4
  3
ACAD_GROUP
350
D
  3
ACAD_LAYOUT
350
1A
  3
ACAD_MATERIAL
350
43
  3
ACAD_MLEADERSTYLE
350
5B
  3
ACAD_MLINESTYLE
350
17
  3
ACAD_PLOTSETTINGS
350
19
  3
ACAD_PLOTSTYLENAME
350
E
  3
ACAD_SCALELIST
350
47
  3
ACAD_SECTIONVIEWSTYLE
350
5C5
  3
ACAD_TABLESTYLE
350
59
  3
ACAD_VISUALSTYLE
350
2A
  3
AcDbVariableDictionary
350
589
  3
ACDB_RECOMPOSE_DATA
350
5C1
  0
SUN
  5
5D
330
29
100
AcDbSun
 90
        1
290
     0
 63
     7
421
 16777215
 40
1.0
291
     1
 91
  2455826
 92
 54000000
292
     0
 70
     2
 71
   256
280
     1
  0
DICTIONARY
  5
5C4
102
{ACAD_REACTORS
330
C
102
}
330
C
100
AcDbDictionary
281
     1
  0
DICTIONARY
  5
D
102
{ACAD_REACTORS
330
C
102
}
330
C
100
AcDbDictionary
281
     1
  0
DICTIONARY
  5
1A
102
{ACAD_REACTORS
330
C
102
}
330
C
100
AcDbDictionary
281
     1
  3
Layout1
350
1E
  3
Layout2
350
26
  3
Model
350
22
  0
DICTIONARY
  5
43
102
{ACAD_REACTORS
330
C
102
}
330
C
100
AcDbDictionary
281
     1
  3
ByBlock
350
45
  3
ByLayer
350
44
  3
Global
350
46
  0
DICTIONARY
  5
5B
102
{ACAD_REACTORS
330
C
102
}
330
C
100
AcDbDictionary
281
     1
  3
Standard
350
5C
  0
DICTIONARY
  5
17
102
{ACAD_REACTORS
330
C
102
}
330
C
100
AcDbDictionary
281
     1
  3
Standard
350
18
  0
DICTIONARY
  5
19
102
{ACAD_REACTORS
330
C
102
}
330
C
100
AcDbDictionary
281
     1
  0
ACDBDICTIONARYWDFLT
  5
E
102
{ACAD_REACTORS
330
C
102
}
330
C
100
AcDbDictionary
281
     1
  3
Normal
350
F
100
AcDbDictionaryWithDefault
340
F
  0
DICTIONARY
  5
47
102
{ACAD_REACTORS
330
C
102
}
330
C
100
AcDbDictionary
281
     1
  3
A0
350
48
  3
A1
350
49
  3
A2
350
4A
  3
A3
350
4B
  3
A4
350
4C
  3
A5
350
4D
  3
A6
350
4E
  3
A7
350
4F
  3
A8
350
50
  3
A9
350
51
  3
B1
350
52
  3
B2
350
53
  3
B3
350
54
  3
B4
350
55
  3
B5
350
56
  3
B6
350
57
  3
B7
350
58
  0
DICTIONARY
  5
5C5
102
{ACAD_REACTORS
330
C
102
}
330
C
100
AcDbDictionary
281
     1
  0
DICTIONARY
  5
59
102
{ACAD_REACTORS
330
C
102
}
330
C
100
AcDbDictionary
281
     1
  3
Standard
350
5A
  0
DICTIONARY
  5
2A
102
{ACAD_REACTORS
330
C
102
}
330
C
100
AcDbDictionary
281
     1
  3
2dWireframe
350
2F
  3
Basic
350
32
  3
Brighten
350
36
  3
ColorChange
350
3A
  3
Conceptual
350
34
  3
Dim
350
35
  3
EdgeColorOff
350
3D
  3
Facepattern
350
39
  3
Flat
350
2B
  3
FlatWithEdges
350
2C
  3
Gouraud
350
2D
  3
GouraudWithEdges
350
2E
  3
Hidden
350
31
  3
JitterOff
350
3B
  3
Linepattern
350
38
  3
OverhangOff
350
3C
  3
Realistic
350
33
  3
Shaded
350
42
  3
Shaded with edges
350
41
  3
Shades of Gray
350
3E
  3
Sketchy
350
3F
  3
Thicken
350
37
  3
Wireframe
350
30
  3
X-Ray
350
40
  0
DICTIONARY
  5
589
102
{ACAD_REACTORS
330
C
102
}
330
C
100
AcDbDictionary
281
     1
  3
CANNOSCALE
350
58A
  3
CMLEADERSTYLE
350
5C3
  3
CTABLESTYLE
350
5C2
  3
XCLIPFRAME
350
58B
  0
XRECORD
  5
5C1
102
{ACAD_REACTORS
330
C
102
}
330
C
100
AcDbXrecord
280
     1
 90
        1
330
5A
  0
LAYOUT
  5
1E
102
{ACAD_REACTORS
330
1A
102
}
330
1A
100
AcDbPlotSettings
  1

  2
none_device
  4

  6

 40
0.0
 41
0.0
 42
0.0
 43
0.0
 44
0.0
 45
0.0
 46
0.0
 47
0.0
 48
0.0
 49
0.0
140
0.0
141
0.0
142
1.0
143
1.0
 70
   688
 72
     0
 73
     0
 74
     5
  7

 75
    16
 76
     0
 77
     2
 78
   300
147
1.0
148
0.0
149
0.0
100
AcDbLayout
  1
Layout1
 70
     1
 71
     1
 10
0.0
 20
0.0
 11
12.0
 21
9.0
 12
0.0
 22
0.0
 32
0.0
 14
1.000000000000000E+20
 24
1.000000000000000E+20
 34
1.000000000000000E+20
 15
-1.000000000000000E+20
 25
-1.000000000000000E+20
 35
-1.000000000000000E+20
146
0.0
 13
0.0
 23
0.0
 33
0.0
 16
1.0
 26
0.0
 36
0.0
 17
0.0
 27
1.0
 37
0.0
 76
     0
330
1B
  0
LAYOUT
  5
26
102
{ACAD_REACTORS
330
1A
102
}
330
1A
100
AcDbPlotSettings
  1

  2
none_device
  4

  6

 40
0.0
 41
0.0
 42
0.0
 43
0.0
 44
0.0
 45
0.0
 46
0.0
 47
0.0
 48
0.0
 49
0.0
140
0.0
141
0.0
142
1.0
143
1.0
 70
   688
 72
     0
 73
     0
 74
     5
  7

 75
    16
 76
     0
 77
     2
 78
   300
147
1.0
148
0.0
149
0.0
100
AcDbLayout
  1
Layout2
 70
     1
 71
     2
 10
0.0
 20
0.0
 11
0.0
 21
0.0
 12
0.0
 22
0.0
 32
0.0
 14
0.0
 24
0.0
 34
0.0
 15
0.0
 25
0.0
 35
0.0
146
0.0
 13
0.0
 23
0.0
 33
0.0
 16
1.0
 26
0.0
 36
0.0
 17
0.0
 27
1.0
 37
0.0
 76
     0
330
23
  0
LAYOUT
  5
22
102
{ACAD_REACTORS
330
1A
102
}
330
1A
100
AcDbPlotSettings
  1

  2
none_device
  4
Letter_(8.50_x_11.00_Inches)
  6

 40
6.35
 41
6.35
 42
6.35000508
 43
6.35000508
 44
215.9
 45
279.4
 46
0.0
 47
0.0
 48
0.0
 49
0.0
140
0.0
141
0.0
142
1.0
143
1.0
 70
  1712
 72
     0
 73
     0
 74
     0
  7

 75
     0
 76
     0
 77
     2
 78
   300
147
1.0
148
0.0
149
0.0
100
AcDbLayout
  1
Model
 70
     1
 71
     0
 10
0.0
 20
0.0
 11
12.0
 21
9.0
 12
0.0
 22
0.0
 32
0.0
 14
0.0
 24
0.0
 34
0.0
 15
86.86291501015246
 25
86.86291501015246
 35
0.0
146
0.0
 13
0.0
 23
0.0
 33
0.0
 16
1.0
 26
0.0
 36
0.0
 17
0.0
 27
1.0
 37
0.0
 76
     0
330
1F
331
29
  0
MATERIAL
  5
45
102
{ACAD_REACTORS
330
43
102
}
330
43
100
AcDbMaterial
  1
ByBlock
 72
     1
 94
      127
  0
MATERIAL
  5
44
102
{ACAD_REACTORS
330
43
102
}
330
43
100
AcDbMaterial
  1
ByLayer
 72
     1
 94
      127
  0
MATERIAL
  5
46
102
{ACAD_REACTORS
330
43
102
}
330
43
100
AcDbMaterial
  1
Global
 72
     1
 94
      127
  0
MLEADERSTYLE
  5
5C
102
{ACAD_REACTORS
330
5B
102
}
102
{ACAD_XDICTIONARY
360
5BF
102
}
330
5B
100
AcDbMLeaderStyle
170
     2
171
     1
172
     0
 90
        2
 40
0.0
 41
0.0
173
     1
 91
-1056964608
340
14
 92
       -2
290
     1
 42
0.09
291
     1
 43
0.36
  3
Standard
341
0
 44
0.18
300

342
11
174
     1
178
     6
175
     1
176
     0
 93
-1056964608
 45
0.18
292
     0
297
     0
 46
0.18
343
0
 94
-1056964608
 47
1.0
 49
1.0
140
1.0
293
     1
141
0.0
294
     1
177
     0
142
1.0
295
     0
296
     0
143
0.125
1001
ACAD_MLEADERVER
1070
     2
  0
MLINESTYLE
  5
18
102
{ACAD_REACTORS
330
17
102
}
330
17
100
AcDbMlineStyle
  2
Standard
 70
     0
  3

 62
   256
 51
90.0
 52
90.0
 71
     2
 49
0.5
 62
   256
  6
BYLAYER
 49
-0.5
 62
   256
  6
BYLAYER
  0
ACDBPLACEHOLDER
  5
F
102
{ACAD_REACTORS
330
E
102
}
330
E
  0
SCALE
  5
48
102
{ACAD_REACTORS
330
47
102
}
330
47
100
AcDbScale
 70
     0
300
1:1
140
1.0
141
1.0
290
     1
  0
SCALE
  5
49
102
{ACAD_REACTORS
330
47
102
}
330
47
100
AcDbScale
 70
     0
300
1/128" = 1'-0"
140
0.0078125
141
12.0
290
     0
  0
SCALE
  5
4A
102
{ACAD_REACTORS
330
47
102
}
330
47
100
AcDbScale
 70
     0
300
1/64" = 1'-0"
140
0.015625
141
12.0
290
     0
  0
SCALE
  5
4B
102
{ACAD_REACTORS
330
47
102
}
330
47
100
AcDbScale
 70
     0
300
1/32" = 1'-0"
140
0.03125
141
12.0
290
     0
  0
SCALE
  5
4C
102
{ACAD_REACTORS
330
47
102
}
330
47
100
AcDbScale
 70
     0
300
1/16" = 1'-0"
140
0.0625
141
12.0
290
     0
  0
SCALE
  5
4D
102
{ACAD_REACTORS
330
47
102
}
330
47
100
AcDbScale
 70
     0
300
3/32" = 1'-0"
140
0.09375
141
12.0
290
     0
  0
SCALE
  5
4E
102
{ACAD_REACTORS
330
47
102
}
330
47
100
AcDbScale
 70
     0
300
1/8" = 1'-0"
140
0.125
141
12.0
290
     0
  0
SCALE
  5
4F
102
{ACAD_REACTORS
330
47
102
}
330
47
100
AcDbScale
 70
     0
300
3/16" = 1'-0"
140
0.1875
141
12.0
290
     0
  0
SCALE
  5
50
102
{ACAD_REACTORS
330
47
102
}
330
47
100
AcDbScale
 70
     0
300
1/4" = 1'-0"
140
0.25
141
12.0
290
     0
  0
SCALE
  5
51
102
{ACAD_REACTORS
330
47
102
}
330
47
100
AcDbScale
 70
     0
300
3/8" = 1'-0"
140
0.375
141
12.0
290
     0
  0
SCALE
  5
52
102
{ACAD_REACTORS
330
47
102
}
330
47
100
AcDbScale
 70
     0
300
1/2" = 1'-0"
140
0.5
141
12.0
290
     0
  0
SCALE
  5
53
102
{ACAD_REACTORS
330
47
102
}
330
47
100
AcDbScale
 70
     0
300
3/4" = 1'-0"
140
0.75
141
12.0
290
     0
  0
SCALE
  5
54
102
{ACAD_REACTORS
330
47
102
}
330
47
100
AcDbScale
 70
     0
300
1" = 1'-0"
140
1.0
141
12.0
290
     0
  0
SCALE
  5
55
102
{ACAD_REACTORS
330
47
102
}
330
47
100
AcDbScale
 70
     0
300
1-1/2" = 1'-0"
140
1.5
141
12.0
290
     0
  0
SCALE
  5
56
102
{ACAD_REACTORS
330
47
102
}
330
47
100
AcDbScale
 70
     0
300
3" = 1'-0"
140
3.0
141
12.0
290
     0
  0
SCALE
  5
57
102
{ACAD_REACTORS
330
47
102
}
330
47
100
AcDbScale
 70
     0
300
6" = 1'-0"
140
6.0
141
12.0
290
     0
  0
SCALE
  5
58
102
{ACAD_REACTORS
330
47
102
}
330
47
100
AcDbScale
 70
     0
300
1'-0" = 1'-0"
140
12.0
141
12.0
290
     0
  0
TABLESTYLE
  5
5A
102
{ACAD_REACTORS
330
59
102
}
102
{ACAD_XDICTIONARY
360
5BC
102
}
330
59
100
AcDbTableStyle
  3
Standard
 70
     0
 71
     0
 40
0.06
 41
0.06
280
     0
281
     0
  7
Standard
140
0.18
170
     2
 62
     0
 63
   257
283
     0
 90
        4
 91
        0
  1

274
    -2
284
     1
 64
     0
275
    -2
285
     1
 65
     0
276
    -2
286
     1
 66
     0
277
    -2
287
     1
 67
     0
278
    -2
288
     1
 68
     0
279
    -2
289
     1
 69
     0
  7
Standard
140
0.25
170
     5
 62
     0
 63
   257
283
     0
 90
        4
 91
        0
  1

274
    -2
284
     1
 64
     0
275
    -2
285
     1
 65
     0
276
    -2
286
     1
 66
     0
277
    -2
287
     1
 67
     0
278
    -2
288
     1
 68
     0
279
    -2
289
     1
 69
     0
  7
Standard
140
0.18
170
     5
 62
     0
 63
   257
283
     0
 90
        4
 91
        0
  1

274
    -2
284
     1
 64
     0
275
    -2
285
     1
 65
     0
276
    -2
286
     1
 66
     0
277
    -2
287
     1
 67
     0
278
    -2
288
     1
 68
     0
279
    -2
289
     1
 69
     0
  0
VISUALSTYLE
  5
2F
102
{ACAD_REACTORS
330
2A
102
}
102
{ACAD_XDICTIONARY
360
594
102
}
330
2A
100
AcDbVisualStyle
  2
2dWireframe
 70
     4
 71
     0
 72
     2
 73
     0
 90
        0
 40
0.6
 41
30.0
 62
     5
 63
     7
421
 16777215
 74
     1
 91
        4
 64
     7
 65
   257
 75
     1
175
     1
 42
1.0
 92
        0
 66
   257
 43
1.0
 76
     1
 77
     6
 78
     2
 67
     7
 79
     5
170
     0
171
     0
290
     0
174
     0
 93
        1
 44
0.0
173
     0
291
     0
 45
0.0
  0
VISUALSTYLE
  5
32
102
{ACAD_REACTORS
330
2A
102
}
102
{ACAD_XDICTIONARY
360
59A
102
}
330
2A
100
AcDbVisualStyle
  2
Basic
 70
     7
 71
     1
 72
     0
 73
     1
 90
        0
 40
0.6
 41
30.0
 62
     5
 63
     7
421
 16777215
 74
     0
 91
        4
 64
     7
 65
   257
 75
     1
175
     1
 42
1.0
 92
        8
 66
     7
 43
1.0
 76
     1
 77
     6
 78
     2
 67
     7
 79
     5
170
     0
171
     0
290
     0
174
     0
 93
        1
 44
0.0
173
     0
291
     1
 45
0.0
  0
VISUALSTYLE
  5
36
102
{ACAD_REACTORS
330
2A
102
}
102
{ACAD_XDICTIONARY
360
5A2
102
}
330
2A
100
AcDbVisualStyle
  2
Brighten
 70
    12
 71
     2
 72
     2
 73
     0
 90
        0
 40
0.6
 41
30.0
 62
     5
 63
     7
421
 16777215
 74
     1
 91
        4
 64
     7
 65
   257
 75
     1
175
     1
 42
1.0
 92
        8
 66
     7
 43
1.0
 76
     1
 77
     6
 78
     2
 67
     7
 79
     5
170
     0
171
     0
290
     0
174
     0
 93
        1
 44
50.0
173
     0
291
     1
 45
0.0
  0
VISUALSTYLE
  5
3A
102
{ACAD_REACTORS
330
2A
102
}
102
{ACAD_XDICTIONARY
360
5AA
102
}
330
2A
100
AcDbVisualStyle
  2
ColorChange
 70
    16
 71
     2
 72
     2
 73
     3
 90
        0
 40
0.6
 41
30.0
 62
     5
 63
     8
421
  8421504
 74
     1
 91
        4
 64
     7
 65
   257
 75
     1
175
     1
 42
1.0
 92
        8
 66
     8
424
  8421504
 43
1.0
 76
     1
 77
     6
 78
     2
 67
     7
 79
     5
170
     0
171
     0
290
     0
174
     0
 93
        1
 44
0.0
173
     0
291
     1
 45
0.0
  0
VISUALSTYLE
  5
34
102
{ACAD_REACTORS
330
2A
102
}
102
{ACAD_XDICTIONARY
360
59E
102
}
330
2A
100
AcDbVisualStyle
  2
Conceptual
 70
     9
 71
     3
 72
     2
 73
     0
 90
        0
 40
0.6
 41
30.0
 62
     5
 63
     7
421
 16777215
 74
     2
 91
        2
 64
     7
 65
   257
 75
     1
175
     1
 42
179.0
 92
        8
 66
     7
 43
1.0
 76
     1
 77
     6
 78
     2
 67
     7
 79
     3
170
     0
171
     0
290
     0
174
     0
 93
        1
 44
0.0
173
     0
291
     0
 45
0.0
  0
VISUALSTYLE
  5
35
102
{ACAD_REACTORS
330
2A
102
}
102
{ACAD_XDICTIONARY
360
5A0
102
}
330
2A
100
AcDbVisualStyle
  2
Dim
 70
    11
 71
     2
 72
     2
 73
     0
 90
        0
 40
0.6
 41
30.0
 62
     5
 63
     7
421
 16777215
 74
     1
 91
        4
 64
     7
 65
   257
 75
     1
175
     1
 42
1.0
 92
        8
 66
     7
 43
1.0
 76
     1
 77
     6
 78
     2
 67
     7
 79
     5
170
     0
171
     0
290
     0
174
     0
 93
        1
 44
-50.0
173
     0
291
     1
 45
0.0
  0
VISUALSTYLE
  5
3D
102
{ACAD_REACTORS
330
2A
102
}
102
{ACAD_XDICTIONARY
360
5B0
102
}
330
2A
100
AcDbVisualStyle
  2
EdgeColorOff
 70
    22
 71
     2
 72
     2
 73
     0
 90
        0
 40
0.6
 41
30.0
 62
     5
 63
     7
421
 16777215
 74
     1
 91
        4
 64
     7
 65
   257
 75
     1
175
     1
 42
1.0
 92
        8
 66
     7
 43
1.0
 76
     1
 77
     6
 78
     2
 67
     7
 79
     5
170
     0
171
     0
290
     0
174
     0
 93
        1
 44
0.0
173
     0
291
     1
 45
0.0
  0
VISUALSTYLE
  5
39
102
{ACAD_REACTORS
330
2A
102
}
102
{ACAD_XDICTIONARY
360
5A8
102
}
330
2A
100
AcDbVisualStyle
  2
Facepattern
 70
    15
 71
     2
 72
     2
 73
     0
 90
        0
 40
0.6
 41
30.0
 62
     5
 63
     7
421
 16777215
 74
     1
 91
        4
 64
     7
 65
   257
 75
     1
175
     1
 42
1.0
 92
        8
 66
     7
 43
1.0
 76
     1
 77
     6
 78
     2
 67
     7
 79
     5
170
     0
171
     0
290
     0
174
     0
 93
        1
 44
0.0
173
     0
291
     1
 45
0.0
  0
VISUALSTYLE
  5
2B
102
{ACAD_REACTORS
330
2A
102
}
102
{ACAD_XDICTIONARY
360
58C
102
}
330
2A
100
AcDbVisualStyle
  2
Flat
 70
     0
 71
     2
 72
     1
 73
     1
 90
        2
 40
0.6
 41
30.0
 62
     5
 63
     7
421
 16777215
 74
     0
 91
        0
 64
     7
 65
   257
 75
     1
175
     1
 42
1.0
 92
        8
 66
     7
 43
1.0
 76
     1
 77
     6
 78
     2
 67
     7
 79
     5
170
     0
171
     0
290
     0
174
     0
 93
       13
 44
0.0
173
     0
291
     1
 45
0.0
  0
VISUALSTYLE
  5
2C
102
{ACAD_REACTORS
330
2A
102
}
102
{ACAD_XDICTIONARY
360
58E
102
}
330
2A
100
AcDbVisualStyle
  2
FlatWithEdges
 70
     1
 71
     2
 72
     1
 73
     1
 90
        2
 40
0.6
 41
30.0
 62
     5
 63
     7
421
 16777215
 74
     1
 91
        0
 64
     7
 65
   257
 75
     1
175
     1
 42
1.0
 92
        0
 66
   257
 43
1.0
 76
     1
 77
     6
 78
     2
 67
     7
 79
     5
170
     0
171
     0
290
     0
174
     0
 93
       13
 44
0.0
173
     0
291
     1
 45
0.0
  0
VISUALSTYLE
  5
2D
102
{ACAD_REACTORS
330
2A
102
}
102
{ACAD_XDICTIONARY
360
590
102
}
330
2A
100
AcDbVisualStyle
  2
Gouraud
 70
     2
 71
     2
 72
     2
 73
     1
 90
        2
 40
0.6
 41
30.0
 62
     5
 63
     7
421
 16777215
 74
     0
 91
        0
 64
     7
 65
   257
 75
     1
175
     1
 42
1.0
 92
        0
 66
     7
 43
1.0
 76
     1
 77
     6
 78
     2
 67
     7
 79
     5
170
     0
171
     0
290
     0
174
     0
 93
       13
 44
0.0
173
     0
291
     1
 45
0.0
  0
VISUALSTYLE
  5
2E
102
{ACAD_REACTORS
330
2A
102
}
102
{ACAD_XDICTIONARY
360
592
102
}
330
2A
100
AcDbVisualStyle
  2
GouraudWithEdges
 70
     3
 71
     2
 72
     2
 73
     1
 90
        2
 40
0.6
 41
30.0
 62
     5
 63
     7
421
 16777215
 74
     1
 91
        0
 64
     7
 65
   257
 75
     1
175
     1
 42
1.0
 92
        0
 66
   257
 43
1.0
 76
     1
 77
     6
 78
     2
 67
     7
 79
     5
170
     0
171
     0
290
     0
174
     0
 93
       13
 44
0.0
173
     0
291
     1
 45
0.0
  0
VISUALSTYLE
  5
31
102
{ACAD_REACTORS
330
2A
102
}
102
{ACAD_XDICTIONARY
360
598
102
}
330
2A
100
AcDbVisualStyle
  2
Hidden
 70
     6
 71
     1
 72
     2
 73
     2
 90
        0
 40
0.6
 41
30.0
 62
     5
 63
     7
421
 16777215
 74
     2
 91
        2
 64
     7
 65
   257
 75
     2
175
     1
 42
40.0
 92
        0
 66
   257
 43
1.0
 76
     1
 77
     6
 78
     2
 67
     7
 79
     3
170
     0
171
     0
290
     0
174
     0
 93
        1
 44
0.0
173
     0
291
     0
 45
0.0
  0
VISUALSTYLE
  5
3B
102
{ACAD_REACTORS
330
2A
102
}
102
{ACAD_XDICTIONARY
360
5AC
102
}
330
2A
100
AcDbVisualStyle
  2
JitterOff
 70
    20
 71
     2
 72
     2
 73
     0
 90
        0
 40
0.6
 41
30.0
 62
     5
 63
     7
421
 16777215
 74
     1
 91
        4
 64
     7
 65
   257
 75
     1
175
     1
 42
1.0
 92
       10
 66
     7
 43
1.0
 76
     1
 77
     6
 78
     2
 67
     7
 79
     5
170
     0
171
     0
290
     0
174
     0
 93
        1
 44
0.0
173
     0
291
     1
 45
0.0
  0
VISUALSTYLE
  5
38
102
{ACAD_REACTORS
330
2A
102
}
102
{ACAD_XDICTIONARY
360
5A6
102
}
330
2A
100
AcDbVisualStyle
  2
Linepattern
 70
    14
 71
     2
 72
     2
 73
     0
 90
        0
 40
0.6
 41
30.0
 62
     5
 63
     7
421
 16777215
 74
     1
 91
        4
 64
     7
 65
   257
 75
     7
175
     7
 42
1.0
 92
        8
 66
     7
 43
1.0
 76
     1
 77
     6
 78
     2
 67
     7
 79
     5
170
     0
171
     0
290
     0
174
     0
 93
        1
 44
0.0
173
     0
291
     1
 45
0.0
  0
VISUALSTYLE
  5
3C
102
{ACAD_REACTORS
330
2A
102
}
102
{ACAD_XDICTIONARY
360
5AE
102
}
330
2A
100
AcDbVisualStyle
  2
OverhangOff
 70
    21
 71
     2
 72
     2
 73
     0
 90
        0
 40
0.6
 41
30.0
 62
     5
 63
     7
421
 16777215
 74
     1
 91
        4
 64
     7
 65
   257
 75
     1
175
     1
 42
1.0
 92
        9
 66
     7
 43
1.0
 76
     1
 77
     6
 78
     2
 67
     7
 79
     5
170
     0
171
     0
290
     0
174
     0
 93
        1
 44
0.0
173
     0
291
     1
 45
0.0
  0
VISUALSTYLE
  5
33
102
{ACAD_REACTORS
330
2A
102
}
102
{ACAD_XDICTIONARY
360
59C
102
}
330
2A
100
AcDbVisualStyle
  2
Realistic
 70
     8
 71
     2
 72
     3
 73
     0
 90
        2
 40
0.6
 41
30.0
 62
     5
 63
     7
421
 16777215
 74
     0
 91
        0
 64
     7
 65
   257
 75
     1
175
     1
 42
1.0
 92
        8
 66
   257
 43
1.0
 76
     1
 77
     6
 78
     2
 67
     7
 79
     3
170
     0
171
     0
290
     0
174
     0
 93
       13
 44
0.0
173
     0
291
     0
 45
0.0
  0
VISUALSTYLE
  5
42
102
{ACAD_REACTORS
330
2A
102
}
102
{ACAD_XDICTIONARY
360
5BA
102
}
330
2A
100
AcDbVisualStyle
  2
Shaded
 70
    27
 71
     2
 72
     2
 73
     1
 90
        2
 40
0.6
 41
30.0
 62
     5
 63
     7
421
 16777215
 74
     0
 91
        4
 64
     7
 65
   257
 75
     1
175
     1
 42
1.0
 92
        8
 66
   257
 43
1.0
 76
     1
 77
     6
 78
     2
 67
     8
425
  7895160
 79
     3
170
     0
171
     0
290
     0
174
     0
 93
        5
 44
0.0
173
     0
291
     0
 45
0.0
  0
VISUALSTYLE
  5
41
102
{ACAD_REACTORS
330
2A
102
}
102
{ACAD_XDICTIONARY
360
5B8
102
}
330
2A
100
AcDbVisualStyle
  2
Shaded with edges
 70
    26
 71
     2
 72
     2
 73
     1
 90
        2
 40
0.6
 41
30.0
 62
     5
 63
     7
421
 16777215
 74
     1
 91
       10
 64
     7
 65
   257
 75
     2
175
     1
 42
1.0
 92
        8
 66
   257
 43
1.0
 76
     1
 77
     6
 78
     2
 67
     7
 79
     3
170
     0
171
     0
290
     0
174
     0
 93
        5
 44
0.0
173
     0
291
     0
 45
0.0
  0
VISUALSTYLE
  5
3E
102
{ACAD_REACTORS
330
2A
102
}
102
{ACAD_XDICTIONARY
360
5B2
102
}
330
2A
100
AcDbVisualStyle
  2
Shades of Gray
 70
    23
 71
     2
 72
     2
 73
     3
 90
        0
 40
0.6
 41
30.0
 62
     5
 63
     7
421
 16777215
 74
     2
 91
        2
 64
     7
 65
     7
 75
     1
175
     1
 42
40.0
 92
        8
 66
     7
 43
1.0
 76
     1
 77
     6
 78
     2
 67
     7
 79
     3
170
     0
171
     0
290
     0
174
     0
 93
        1
 44
0.0
173
     0
291
     0
 45
0.0
  0
VISUALSTYLE
  5
3F
102
{ACAD_REACTORS
330
2A
102
}
102
{ACAD_XDICTIONARY
360
5B4
102
}
330
2A
100
AcDbVisualStyle
  2
Sketchy
 70
    24
 71
     1
 72
     2
 73
     2
 90
        0
 40
0.6
 41
30.0
 62
     5
 63
     7
421
 16777215
 74
     2
 91
        2
 64
     7
 65
     7
 75
     1
175
     1
 42
40.0
 92
       11
 66
     7
 43
1.0
 76
     1
 77
     6
 78
     2
 67
     7
 79
     6
170
     0
171
     0
290
     0
174
     0
 93
        1
 44
0.0
173
     0
291
     0
 45
0.0
  0
VISUALSTYLE
  5
37
102
{ACAD_REACTORS
330
2A
102
}
102
{ACAD_XDICTIONARY
360
5A4
102
}
330
2A
100
AcDbVisualStyle
  2
Thicken
 70
    13
 71
     2
 72
     2
 73
     0
 90
        0
 40
0.6
 41
30.0
 62
     5
 63
     7
421
 16777215
 74
     1
 91
        4
 64
     7
 65
   257
 75
     1
175
     1
 42
1.0
 92
       12
 66
     7
 43
1.0
 76
     1
 77
     6
 78
     2
 67
     7
 79
     5
170
     0
171
     0
290
     0
174
     0
 93
        1
 44
0.0
173
     0
291
     1
 45
0.0
  0
VISUALSTYLE
  5
30
102
{ACAD_REACTORS
330
2A
102
}
102
{ACAD_XDICTIONARY
360
596
102
}
330
2A
100
AcDbVisualStyle
  2
Wireframe
 70
     5
 71
     0
 72
     2
 73
     0
 90
        0
 40
0.6
 41
30.0
 62
     5
 63
     7
421
 16777215
 74
     1
 91
        4
 64
     7
 65
   257
 75
     1
175
     1
 42
1.0
 92
        0
 66
   257
 43
1.0
 76
     1
 77
     6
 78
     2
 67
     7
 79
     3
170
     0
171
     0
290
     0
174
     0
 93
        1
 44
0.0
173
     0
291
     0
 45
0.0
  0
VISUALSTYLE
  5
40
102
{ACAD_REACTORS
330
2A
102
}
102
{ACAD_XDICTIONARY
360
5B6
102
}
330
2A
100
AcDbVisualStyle
  2
X-Ray
 70
    25
 71
     2
 72
     2
 73
     1
 90
        1
 40
0.5
 41
30.0
 62
     5
 63
     7
421
 16777215
 74
     1
 91
        0
 64
     7
 65
   257
 75
     1
175
     1
 42
1.0
 92
        8
 66
     7
 43
1.0
 76
     1
 77
     6
 78
     2
 67
     7
 79
     3
170
     0
171
     0
290
     0
174
     0
 93
       13
 44
0.0
173
     0
291
     0
 45
0.0
  0
DICTIONARYVAR
  5
58A
102
{ACAD_REACTORS
330
589
102
}
330
589
100
DictionaryVariables
280
     0
  1
1:1
  0
DICTIONARYVAR
  5
5C3
102
{ACAD_REACTORS
330
589
102
}
330
589
100
DictionaryVariables
280
     0
  1
Standard
  0
DICTIONARYVAR
  5
5C2
102
{ACAD_REACTORS
330
589
102
}
330
589
100
DictionaryVariables
280
     0
  1
Standard
  0
DICTIONARYVAR
  5
58B
102
{ACAD_REACTORS
330
589
102
}
330
589
100
DictionaryVariables
280
     0
  1
2
  0
DICTIONARY
  5
5BF
330
5C
100
AcDbDictionary
280
     1
281
     1
  3
ACAD_XREC_ROUNDTRIP
360
5C0
  0
DICTIONARY
  5
5BC
330
5A
100
AcDbDictionary
280
     1
281
     1
  3
ACAD_ROUNDTRIP_2008_TABLESTYLE_CELLSTYLEMAP
360
5BD
  0
DICTIONARY
  5
594
330
2F
100
AcDbDictionary
280
     1
281
     1
  3
ACAD_XREC_ROUNDTRIP
360
595
  0
DICTIONARY
  5
59A
330
32
100
AcDbDictionary
280
     1
281
     1
  3
ACAD_XREC_ROUNDTRIP
360
59B
  0
DICTIONARY
  5
5A2
330
36
100
AcDbDictionary
280
     1
281
     1
  3
ACAD_XREC_ROUNDTRIP
360
5A3
  0
DICTIONARY
  5
5AA
330
3A
100
AcDbDictionary
280
     1
281
     1
  3
ACAD_XREC_ROUNDTRIP
360
5AB
  0
DICTIONARY
  5
59E
330
34
100
AcDbDictionary
280
     1
281
     1
  3
ACAD_XREC_ROUNDTRIP
360
59F
  0
DICTIONARY
  5
5A0
330
35
100
AcDbDictionary
280
     1
281
     1
  3
ACAD_XREC_ROUNDTRIP
360
5A1
  0
DICTIONARY
  5
5B0
330
3D
100
AcDbDictionary
280
     1
281
     1
  3
ACAD_XREC_ROUNDTRIP
360
5B1
  0
DICTIONARY
  5
5A8
330
39
100
AcDbDictionary
280
     1
281
     1
  3
ACAD_XREC_ROUNDTRIP
360
5A9
  0
DICTIONARY
  5
58C
330
2B
100
AcDbDictionary
280
     1
281
     1
  3
ACAD_XREC_ROUNDTRIP
360
58D
  0
DICTIONARY
  5
58E
330
2C
100
AcDbDictionary
280
     1
281
     1
  3
ACAD_XREC_ROUNDTRIP
360
58F
  0
DICTIONARY
  5
590
330
2D
100
AcDbDictionary
280
     1
281
     1
  3
ACAD_XREC_ROUNDTRIP
360
591
  0
DICTIONARY
  5
592
330
2E
100
AcDbDictionary
280
     1
281
     1
  3
ACAD_XREC_ROUNDTRIP
360
593
  0
DICTIONARY
  5
598
330
31
100
AcDbDictionary
280
     1
281
     1
  3
ACAD_XREC_ROUNDTRIP
360
599
  0
DICTIONARY
  5
5AC
330
3B
100
AcDbDictionary
280
     1
281
     1
  3
ACAD_XREC_ROUNDTRIP
360
5AD
  0
DICTIONARY
  5
5A6
330
38
100
AcDbDictionary
280
     1
281
     1
  3
ACAD_XREC_ROUNDTRIP
360
5A7
  0
DICTIONARY
  5
5AE
330
3C
100
AcDbDictionary
280
     1
281
     1
  3
ACAD_XREC_ROUNDTRIP
360
5AF
  0
DICTIONARY
  5
59C
330
33
100
AcDbDictionary
280
     1
281
     1
  3
ACAD_XREC_ROUNDTRIP
360
59D
  0
DICTIONARY
  5
5BA
330
42
100
AcDbDictionary
280
     1
281
     1
  3
ACAD_XREC_ROUNDTRIP
360
5BB
  0
DICTIONARY
  5
5B8
330
41
100
AcDbDictionary
280
     1
281
     1
  3
ACAD_XREC_ROUNDTRIP
360
5B9
  0
DICTIONARY
  5
5B2
330
3E
100
AcDbDictionary
280
     1
281
     1
  3
ACAD_XREC_ROUNDTRIP
360
5B3
  0
DICTIONARY
  5
5B4
330
3F
100
AcDbDictionary
280
     1
281
     1
  3
ACAD_XREC_ROUNDTRIP
360
5B5
  0
DICTIONARY
  5
5A4
330
37
100
AcDbDictionary
280
     1
281
     1
  3
ACAD_XREC_ROUNDTRIP
360
5A5
  0
DICTIONARY
  5
596
330
30
100
AcDbDictionary
280
     1
281
     1
  3
ACAD_XREC_ROUNDTRIP
360
597
  0
DICTIONARY
  5
5B6
330
40
100
AcDbDictionary
280
     1
281
     1
  3
ACAD_XREC_ROUNDTRIP
360
5B7
  0
XRECORD
  5
5C0
102
{ACAD_REACTORS
330
5BF
102
}
330
5BF
100
AcDbXrecord
280
     1
102
ACAD_ROUNDTRIP_2010_MLEADER_STYLE
  0
CELLSTYLEMAP
  5
5BD
102
{ACAD_REACTORS
330
5BC
102
}
330
5BC
100
AcDbCellStyleMap
 90
        3
300
CELLSTYLE
  1
TABLEFORMAT_BEGIN
 90
        5
170
     1
 91
        0
 92
    32768
 62
   257
 93
        1
300
CONTENTFORMAT
  1
CONTENTFORMAT_BEGIN
 90
        0
 91
        0
 92
        4
 93
        0
300

 40
0.0
140
1.0
 94
        5
 62
     0
340
11
144
0.25
309
CONTENTFORMAT_END
171
     1
301
MARGIN
  1
CELLMARGIN_BEGIN
 40
0.06
 40
0.06
 40
0.06
 40
0.06
 40
0.06
 40
0.06
309
CELLMARGIN_END
 94
        6
 95
        1
302
GRIDFORMAT
  1
GRIDFORMAT_BEGIN
 90
        0
 91
        1
 62
     0
 92
       -2
340
14
 93
        0
 40
0.045
309
GRIDFORMAT_END
 95
        2
302
GRIDFORMAT
  1
GRIDFORMAT_BEGIN
 90
        0
 91
        1
 62
     0
 92
       -2
340
14
 93
        0
 40
0.045
309
GRIDFORMAT_END
 95
        4
302
GRIDFORMAT
  1
GRIDFORMAT_BEGIN
 90
        0
 91
        1
 62
     0
 92
       -2
340
14
 93
        0
 40
0.045
309
GRIDFORMAT_END
 95
        8
302
GRIDFORMAT
  1
GRIDFORMAT_BEGIN
 90
        0
 91
        1
 62
     0
 92
       -2
340
14
 93
        0
 40
0.045
309
GRIDFORMAT_END
 95
       16
302
GRIDFORMAT
  1
GRIDFORMAT_BEGIN
 90
        0
 91
        1
 62
     0
 92
       -2
340
14
 93
        0
 40
0.045
309
GRIDFORMAT_END
 95
       32
302
GRIDFORMAT
  1
GRIDFORMAT_BEGIN
 90
        0
 91
        1
 62
     0
 92
       -2
340
14
 93
        0
 40
0.045
309
GRIDFORMAT_END
309
TABLEFORMAT_END
  1
CELLSTYLE_BEGIN
 90
        1
 91
        1
300
_TITLE
309
CELLSTYLE_END
300
CELLSTYLE
  1
TABLEFORMAT_BEGIN
 90
        5
170
     1
 91
        0
 92
        0
 62
   257
 93
        1
300
CONTENTFORMAT
  1
CONTENTFORMAT_BEGIN
 90
        0
 91
        0
 92
        4
 93
        0
300

 40
0.0
140
1.0
 94
        5
 62
     0
340
11
144
0.18
309
CONTENTFORMAT_END
171
     1
301
MARGIN
  1
CELLMARGIN_BEGIN
 40
0.06
 40
0.06
 40
0.06
 40
0.06
 40
0.06
 40
0.06
309
CELLMARGIN_END
 94
        6
 95
        1
302
GRIDFORMAT
  1
GRIDFORMAT_BEGIN
 90
        0
 91
        1
 62
     0
 92
       -2
340
14
 93
        0
 40
0.045
309
GRIDFORMAT_END
 95
        2
302
GRIDFORMAT
  1
GRIDFORMAT_BEGIN
 90
        0
 91
        1
 62
     0
 92
       -2
340
14
 93
        0
 40
0.045
309
GRIDFORMAT_END
 95
        4
302
GRIDFORMAT
  1
GRIDFORMAT_BEGIN
 90
        0
 91
        1
 62
     0
 92
       -2
340
14
 93
        0
 40
0.045
309
GRIDFORMAT_END
 95
        8
302
GRIDFORMAT
  1
GRIDFORMAT_BEGIN
 90
        0
 91
        1
 62
     0
 92
       -2
340
14
 93
        0
 40
0.045
309
GRIDFORMAT_END
 95
       16
302
GRIDFORMAT
  1
GRIDFORMAT_BEGIN
 90
        0
 91
        1
 62
     0
 92
       -2
340
14
 93
        0
 40
0.045
309
GRIDFORMAT_END
 95
       32
302
GRIDFORMAT
  1
GRIDFORMAT_BEGIN
 90
        0
 91
        1
 62
     0
 92
       -2
340
14
 93
        0
 40
0.045
309
GRIDFORMAT_END
309
TABLEFORMAT_END
  1
CELLSTYLE_BEGIN
 90
        2
 91
        1
300
_HEADER
309
CELLSTYLE_END
300
CELLSTYLE
  1
TABLEFORMAT_BEGIN
 90
        5
170
     1
 91
        0
 92
        0
 62
   257
 93
        1
300
CONTENTFORMAT
  1
CONTENTFORMAT_BEGIN
 90
        0
 91
        0
 92
        4
 93
        0
300

 40
0.0
140
1.0
 94
        2
 62
     0
340
11
144
0.18
309
CONTENTFORMAT_END
171
     1
301
MARGIN
  1
CELLMARGIN_BEGIN
 40
0.06
 40
0.06
 40
0.06
 40
0.06
 40
0.06
 40
0.06
309
CELLMARGIN_END
 94
        6
 95
        1
302
GRIDFORMAT
  1
GRIDFORMAT_BEGIN
 90
        0
 91
        1
 62
     0
 92
       -2
340
14
 93
        0
 40
0.045
309
GRIDFORMAT_END
 95
        2
302
GRIDFORMAT
  1
GRIDFORMAT_BEGIN
 90
        0
 91
        1
 62
     0
 92
       -2
340
14
 93
        0
 40
0.045
309
GRIDFORMAT_END
 95
        4
302
GRIDFORMAT
  1
GRIDFORMAT_BEGIN
 90
        0
 91
        1
 62
     0
 92
       -2
340
14
 93
        0
 40
0.045
309
GRIDFORMAT_END
 95
        8
302
GRIDFORMAT
  1
GRIDFORMAT_BEGIN
 90
        0
 91
        1
 62
     0
 92
       -2
340
14
 93
        0
 40
0.045
309
GRIDFORMAT_END
 95
       16
302
GRIDFORMAT
  1
GRIDFORMAT_BEGIN
 90
        0
 91
        1
 62
     0
 92
       -2
340
14
 93
        0
 40
0.045
309
GRIDFORMAT_END
 95
       32
302
GRIDFORMAT
  1
GRIDFORMAT_BEGIN
 90
        0
 91
        1
 62
     0
 92
       -2
340
14
 93
        0
 40
0.045
309
GRIDFORMAT_END
309
TABLEFORMAT_END
  1
CELLSTYLE_BEGIN
 90
        3
 91
        2
300
_DATA
309
CELLSTYLE_END
  0
XRECORD
  5
595
102
{ACAD_REACTORS
330
594
102
}
330
594
100
AcDbXrecord
280
     1
102
RTVSPropertyOp0
 70
     1
102
RTVSPropertyOp1
 70
     1
102
RTVSPropertyOp2
 70
     1
102
RTVSPropertyOp3
 70
     1
102
RTVSPropertyOp4
 70
     1
102
RTVSPropertyOp5
 70
     1
102
RTVSPropertyOp6
 70
     1
102
RTVSPropertyOp7
 70
     1
102
RTVSPropertyOp8
 70
     1
102
RTVSPropertyOp9
 70
     1
102
RTVSPropertyOp10
 70
     1
102
RTVSPropertyOp11
 70
     1
102
RTVSPropertyOp12
 70
     1
102
RTVSPropertyOp13
 70
     1
102
RTVSPropertyOp14
 70
     1
102
RTVSPropertyOp15
 70
     1
102
RTVSPropertyOp16
 70
     1
102
RTVSPropertyOp17
 70
     1
102
RTVSPropertyOp18
 70
     1
102
RTVSPropertyOp19
 70
     1
102
RTVSPropertyOp20
 70
     1
102
RTVSPropertyOp21
 70
     1
102
RTVSPropertyOp22
 70
     1
102
RTVSPropertyOp23
 70
     1
102
RTVSPropertyOp24
 70
     1
102
RTVSPropertyOp25
 70
     1
102
RTVSPropertyOp26
 70
     1
102
RTVSPropertyOp27
 70
     1
102
RTVSPropertyOp28
 70
     1
102
RTVSPropertyOp29
 70
     1
102
RTVSPropertyOp30
 70
     1
102
RTVSPropertyOp31
 70
     1
102
RTVSPropertyOp32
 70
     1
102
RTVSPropertyOp33
 70
     1
102
RTVSPropertyOp34
 70
     1
102
RTVSPropertyOp35
 70
     1
102
RTVSPropertyOp36
 70
     1
102
RTVSPropertyOp37
 70
     1
102
RTVSPropertyOp38
 70
     1
102
RTVSPropertyOp39
 70
     1
102
RTVSPropertyOp40
 70
     1
102
RTVSPropertyOp41
 70
     1
102
RTVSPropertyOp42
 70
     1
102
RTVSPropertyOp43
 70
     1
102
RTVSPropertyOp44
 70
     1
102
RTVSPropertyOp45
 70
     1
102
RTVSPropertyOp46
 70
     1
102
RTVSPropertyOp47
 70
     1
102
RTVSPropertyOp48
 70
     1
102
RTVSPropertyOp49
 70
     1
102
RTVSPropertyOp50
 70
     1
102
RTVSPropertyOp51
 70
     0
102
RTVSPropertyOp52
 70
     0
102
RTVSPropertyOp53
 70
     1
102
RTVSPropertyOp54
 70
     1
102
RTVSPropertyOp55
 70
     1
102
RTVSPropertyOp56
 70
     1
102
RTVSPropertyOp57
 70
     1
102
RTVSPost2010Prop28
280
     1
102
RTVSPost2010PropOp28
 70
     1
102
RTVSPost2010Prop29
280
     1
102
RTVSPost2010PropOp29
 70
     1
102
RTVSPost2010Prop30
280
     0
102
RTVSPost2010PropOp30
 70
     1
102
RTVSPost2010Prop31
280
     0
102
RTVSPost2010PropOp31
 70
     1
102
RTVSPost2010Prop32
280
     0
102
RTVSPost2010PropOp32
 70
     1
102
RTVSPost2010Prop33
280
     0
102
RTVSPost2010PropOp33
 70
     1
102
RTVSPost2010Prop34
280
     0
102
RTVSPost2010PropOp34
 70
     1
102
RTVSPost2010Prop35
280
     0
102
RTVSPost2010PropOp35
 70
     1
102
RTVSPost2010Prop36
280
     0
102
RTVSPost2010PropOp36
 70
     1
102
RTVSPost2010Prop37
 90
       50
102
RTVSPost2010PropOp37
 70
     1
102
RTVSPost2010Prop38
140
0.0
102
RTVSPost2010PropOp38
 70
     1
102
RTVSPost2010Prop39
140
1.0
102
RTVSPost2010PropOp39
 70
     1
102
RTVSPost2010Prop40
 90
        0
102
RTVSPost2010PropOp40
 70
     1
102
RTVSPost2010Prop41ColorIndex
 90
       18
102
RTVSPost2010Prop41ColorRGB
 90
        0
102
RTVSPost2010PropOp41
 70
     1
102
RTVSPost2010Prop42
 90
       50
102
RTVSPost2010PropOp42
 70
     1
102
RTVSPost2010Prop43
 90
        3
102
RTVSPost2010PropOp43
 70
     1
102
RTVSPost2010Prop44ColorIndex
 90
        5
102
RTVSPost2010Prop44ColorRGB
 90
      255
102
RTVSPost2010PropOp44
 70
     1
102
RTVSPost2010Prop45
280
     0
102
RTVSPost2010PropOp45
 70
     1
102
RTVSPost2010Prop46
 90
       50
102
RTVSPost2010PropOp46
 70
     1
102
RTVSPost2010Prop47
 90
       50
102
RTVSPost2010PropOp47
 70
     1
102
RTVSPost2010Prop48
 90
       50
102
RTVSPost2010PropOp48
 70
     1
102
RTVSPost2010Prop49
280
     0
102
RTVSPost2010PropOp49
 70
     1
102
RTVSPost2010Prop50
 90
       50
102
RTVSPost2010PropOp50
 70
     1
102
RTVSPost2010Prop51ColorIndex
 90
      256
102
RTVSPost2010Prop51ColorRGB
 90
-16777216
102
RTVSPost2010PropOp51
 70
     0
102
RTVSPost2010Prop52
140
1.0
102
RTVSPost2010PropOp52
 70
     0
102
RTVSPost2010Prop53
 90
        2
102
RTVSPost2010PropOp53
 70
     1
102
RTVSPost2010Prop54
  1
strokes_ogs.tif
102
RTVSPost2010PropOp54
 70
     1
102
RTVSPost2010Prop55
280
     0
102
RTVSPost2010PropOp55
 70
     1
102
RTVSPost2010Prop56
140
1.0
102
RTVSPost2010PropOp56
 70
     1
102
RTVSPost2010Prop57
140
1.0
102
RTVSPost2010PropOp57
 70
     1
  0
XRECORD
  5
59B
102
{ACAD_REACTORS
330
59A
102
}
330
59A
100
AcDbXrecord
280
     1
102
RTVSPropertyOp0
 70
     1
102
RTVSPropertyOp1
 70
     1
102
RTVSPropertyOp2
 70
     1
102
RTVSPropertyOp3
 70
     1
102
RTVSPropertyOp4
 70
     1
102
RTVSPropertyOp5
 70
     1
102
RTVSPropertyOp6
 70
     1
102
RTVSPropertyOp7
 70
     1
102
RTVSPropertyOp8
 70
     1
102
RTVSPropertyOp9
 70
     1
102
RTVSPropertyOp10
 70
     1
102
RTVSPropertyOp11
 70
     1
102
RTVSPropertyOp12
 70
     1
102
RTVSPropertyOp13
 70
     1
102
RTVSPropertyOp14
 70
     1
102
RTVSPropertyOp15
 70
     1
102
RTVSPropertyOp16
 70
     1
102
RTVSPropertyOp17
 70
     1
102
RTVSPropertyOp18
 70
     1
102
RTVSPropertyOp19
 70
     1
102
RTVSPropertyOp20
 70
     1
102
RTVSPropertyOp21
 70
     1
102
RTVSPropertyOp22
 70
     1
102
RTVSPropertyOp23
 70
     1
102
RTVSPropertyOp24
 70
     1
102
RTVSPropertyOp25
 70
     1
102
RTVSPropertyOp26
 70
     1
102
RTVSPropertyOp27
 70
     1
102
RTVSPropertyOp28
 70
     1
102
RTVSPropertyOp29
 70
     1
102
RTVSPropertyOp30
 70
     1
102
RTVSPropertyOp31
 70
     1
102
RTVSPropertyOp32
 70
     1
102
RTVSPropertyOp33
 70
     1
102
RTVSPropertyOp34
 70
     1
102
RTVSPropertyOp35
 70
     1
102
RTVSPropertyOp36
 70
     1
102
RTVSPropertyOp37
 70
     1
102
RTVSPropertyOp38
 70
     1
102
RTVSPropertyOp39
 70
     1
102
RTVSPropertyOp40
 70
     1
102
RTVSPropertyOp41
 70
     1
102
RTVSPropertyOp42
 70
     1
102
RTVSPropertyOp43
 70
     1
102
RTVSPropertyOp44
 70
     1
102
RTVSPropertyOp45
 70
     1
102
RTVSPropertyOp46
 70
     1
102
RTVSPropertyOp47
 70
     1
102
RTVSPropertyOp48
 70
     1
102
RTVSPropertyOp49
 70
     1
102
RTVSPropertyOp50
 70
     1
102
RTVSPropertyOp51
 70
     0
102
RTVSPropertyOp52
 70
     0
102
RTVSPropertyOp53
 70
     1
102
RTVSPropertyOp54
 70
     1
102
RTVSPropertyOp55
 70
     1
102
RTVSPropertyOp56
 70
     1
102
RTVSPropertyOp57
 70
     1
102
RTVSPost2010Prop28
280
     0
102
RTVSPost2010PropOp28
 70
     1
102
RTVSPost2010Prop29
280
     1
102
RTVSPost2010PropOp29
 70
     1
102
RTVSPost2010Prop30
280
     1
102
RTVSPost2010PropOp30
 70
     1
102
RTVSPost2010Prop31
280
     0
102
RTVSPost2010PropOp31
 70
     1
102
RTVSPost2010Prop32
280
     0
102
RTVSPost2010PropOp32
 70
     1
102
RTVSPost2010Prop33
280
     0
102
RTVSPost2010PropOp33
 70
     1
102
RTVSPost2010Prop34
280
     0
102
RTVSPost2010PropOp34
 70
     1
102
RTVSPost2010Prop35
280
     0
102
RTVSPost2010PropOp35
 70
     1
102
RTVSPost2010Prop36
280
     0
102
RTVSPost2010PropOp36
 70
     1
102
RTVSPost2010Prop37
 90
       50
102
RTVSPost2010PropOp37
 70
     1
102
RTVSPost2010Prop38
140
0.0
102
RTVSPost2010PropOp38
 70
     1
102
RTVSPost2010Prop39
140
1.0
102
RTVSPost2010PropOp39
 70
     1
102
RTVSPost2010Prop40
 90
        0
102
RTVSPost2010PropOp40
 70
     1
102
RTVSPost2010Prop41ColorIndex
 90
       18
102
RTVSPost2010Prop41ColorRGB
 90
        0
102
RTVSPost2010PropOp41
 70
     1
102
RTVSPost2010Prop42
 90
       50
102
RTVSPost2010PropOp42
 70
     1
102
RTVSPost2010Prop43
 90
        3
102
RTVSPost2010PropOp43
 70
     1
102
RTVSPost2010Prop44ColorIndex
 90
        5
102
RTVSPost2010Prop44ColorRGB
 90
      255
102
RTVSPost2010PropOp44
 70
     1
102
RTVSPost2010Prop45
280
     0
102
RTVSPost2010PropOp45
 70
     1
102
RTVSPost2010Prop46
 90
       50
102
RTVSPost2010PropOp46
 70
     1
102
RTVSPost2010Prop47
 90
       50
102
RTVSPost2010PropOp47
 70
     1
102
RTVSPost2010Prop48
 90
       50
102
RTVSPost2010PropOp48
 70
     1
102
RTVSPost2010Prop49
280
     0
102
RTVSPost2010PropOp49
 70
     1
102
RTVSPost2010Prop50
 90
       50
102
RTVSPost2010PropOp50
 70
     1
102
RTVSPost2010Prop51ColorIndex
 90
      256
102
RTVSPost2010Prop51ColorRGB
 90
-16777216
102
RTVSPost2010PropOp51
 70
     0
102
RTVSPost2010Prop52
140
1.0
102
RTVSPost2010PropOp52
 70
     0
102
RTVSPost2010Prop53
 90
        2
102
RTVSPost2010PropOp53
 70
     1
102
RTVSPost2010Prop54
  1
strokes_ogs.tif
102
RTVSPost2010PropOp54
 70
     1
102
RTVSPost2010Prop55
280
     0
102
RTVSPost2010PropOp55
 70
     1
102
RTVSPost2010Prop56
140
1.0
102
RTVSPost2010PropOp56
 70
     1
102
RTVSPost2010Prop57
140
1.0
102
RTVSPost2010PropOp57
 70
     1
  0
XRECORD
  5
5A3
102
{ACAD_REACTORS
330
5A2
102
}
330
5A2
100
AcDbXrecord
280
     1
102
RTVSPropertyOp0
 70
     1
102
RTVSPropertyOp1
 70
     1
102
RTVSPropertyOp2
 70
     1
102
RTVSPropertyOp3
 70
     1
102
RTVSPropertyOp4
 70
     1
102
RTVSPropertyOp5
 70
     1
102
RTVSPropertyOp6
 70
     1
102
RTVSPropertyOp7
 70
     1
102
RTVSPropertyOp8
 70
     1
102
RTVSPropertyOp9
 70
     1
102
RTVSPropertyOp10
 70
     1
102
RTVSPropertyOp11
 70
     1
102
RTVSPropertyOp12
 70
     1
102
RTVSPropertyOp13
 70
     1
102
RTVSPropertyOp14
 70
     1
102
RTVSPropertyOp15
 70
     1
102
RTVSPropertyOp16
 70
     1
102
RTVSPropertyOp17
 70
     1
102
RTVSPropertyOp18
 70
     1
102
RTVSPropertyOp19
 70
     1
102
RTVSPropertyOp20
 70
     1
102
RTVSPropertyOp21
 70
     1
102
RTVSPropertyOp22
 70
     1
102
RTVSPropertyOp23
 70
     1
102
RTVSPropertyOp24
 70
     1
102
RTVSPropertyOp25
 70
     1
102
RTVSPropertyOp26
 70
     1
102
RTVSPropertyOp27
 70
     1
102
RTVSPropertyOp28
 70
     1
102
RTVSPropertyOp29
 70
     1
102
RTVSPropertyOp30
 70
     1
102
RTVSPropertyOp31
 70
     1
102
RTVSPropertyOp32
 70
     1
102
RTVSPropertyOp33
 70
     1
102
RTVSPropertyOp34
 70
     1
102
RTVSPropertyOp35
 70
     1
102
RTVSPropertyOp36
 70
     1
102
RTVSPropertyOp37
 70
     1
102
RTVSPropertyOp38
 70
     1
102
RTVSPropertyOp39
 70
     1
102
RTVSPropertyOp40
 70
     1
102
RTVSPropertyOp41
 70
     1
102
RTVSPropertyOp42
 70
     1
102
RTVSPropertyOp43
 70
     1
102
RTVSPropertyOp44
 70
     1
102
RTVSPropertyOp45
 70
     1
102
RTVSPropertyOp46
 70
     1
102
RTVSPropertyOp47
 70
     1
102
RTVSPropertyOp48
 70
     1
102
RTVSPropertyOp49
 70
     1
102
RTVSPropertyOp50
 70
     1
102
RTVSPropertyOp51
 70
     0
102
RTVSPropertyOp52
 70
     0
102
RTVSPropertyOp53
 70
     1
102
RTVSPropertyOp54
 70
     1
102
RTVSPropertyOp55
 70
     1
102
RTVSPropertyOp56
 70
     1
102
RTVSPropertyOp57
 70
     1
102
RTVSPost2010Prop28
280
     0
102
RTVSPost2010PropOp28
 70
     1
102
RTVSPost2010Prop29
280
     1
102
RTVSPost2010PropOp29
 70
     1
102
RTVSPost2010Prop30
280
     1
102
RTVSPost2010PropOp30
 70
     1
102
RTVSPost2010Prop31
280
     0
102
RTVSPost2010PropOp31
 70
     1
102
RTVSPost2010Prop32
280
     0
102
RTVSPost2010PropOp32
 70
     1
102
RTVSPost2010Prop33
280
     0
102
RTVSPost2010PropOp33
 70
     1
102
RTVSPost2010Prop34
280
     0
102
RTVSPost2010PropOp34
 70
     1
102
RTVSPost2010Prop35
280
     0
102
RTVSPost2010PropOp35
 70
     1
102
RTVSPost2010Prop36
280
     0
102
RTVSPost2010PropOp36
 70
     1
102
RTVSPost2010Prop37
 90
       50
102
RTVSPost2010PropOp37
 70
     1
102
RTVSPost2010Prop38
140
0.0
102
RTVSPost2010PropOp38
 70
     1
102
RTVSPost2010Prop39
140
1.0
102
RTVSPost2010PropOp39
 70
     1
102
RTVSPost2010Prop40
 90
        0
102
RTVSPost2010PropOp40
 70
     1
102
RTVSPost2010Prop41ColorIndex
 90
       18
102
RTVSPost2010Prop41ColorRGB
 90
        0
102
RTVSPost2010PropOp41
 70
     1
102
RTVSPost2010Prop42
 90
       50
102
RTVSPost2010PropOp42
 70
     1
102
RTVSPost2010Prop43
 90
        3
102
RTVSPost2010PropOp43
 70
     1
102
RTVSPost2010Prop44ColorIndex
 90
        5
102
RTVSPost2010Prop44ColorRGB
 90
      255
102
RTVSPost2010PropOp44
 70
     1
102
RTVSPost2010Prop45
280
     0
102
RTVSPost2010PropOp45
 70
     1
102
RTVSPost2010Prop46
 90
       50
102
RTVSPost2010PropOp46
 70
     1
102
RTVSPost2010Prop47
 90
       50
102
RTVSPost2010PropOp47
 70
     1
102
RTVSPost2010Prop48
 90
       50
102
RTVSPost2010PropOp48
 70
     1
102
RTVSPost2010Prop49
280
     0
102
RTVSPost2010PropOp49
 70
     1
102
RTVSPost2010Prop50
 90
       50
102
RTVSPost2010PropOp50
 70
     1
102
RTVSPost2010Prop51ColorIndex
 90
      256
102
RTVSPost2010Prop51ColorRGB
 90
-16777216
102
RTVSPost2010PropOp51
 70
     0
102
RTVSPost2010Prop52
140
1.0
102
RTVSPost2010PropOp52
 70
     0
102
RTVSPost2010Prop53
 90
        2
102
RTVSPost2010PropOp53
 70
     1
102
RTVSPost2010Prop54
  1
strokes_ogs.tif
102
RTVSPost2010PropOp54
 70
     1
102
RTVSPost2010Prop55
280
     0
102
RTVSPost2010PropOp55
 70
     1
102
RTVSPost2010Prop56
140
1.0
102
RTVSPost2010PropOp56
 70
     1
102
RTVSPost2010Prop57
140
1.0
102
RTVSPost2010PropOp57
 70
     1
  0
XRECORD
  5
5AB
102
{ACAD_REACTORS
330
5AA
102
}
330
5AA
100
AcDbXrecord
280
     1
102
RTVSPropertyOp0
 70
     1
102
RTVSPropertyOp1
 70
     1
102
RTVSPropertyOp2
 70
     1
102
RTVSPropertyOp3
 70
     1
102
RTVSPropertyOp4
 70
     1
102
RTVSPropertyOp5
 70
     1
102
RTVSPropertyOp6
 70
     1
102
RTVSPropertyOp7
 70
     1
102
RTVSPropertyOp8
 70
     1
102
RTVSPropertyOp9
 70
     1
102
RTVSPropertyOp10
 70
     1
102
RTVSPropertyOp11
 70
     1
102
RTVSPropertyOp12
 70
     1
102
RTVSPropertyOp13
 70
     1
102
RTVSPropertyOp14
 70
     1
102
RTVSPropertyOp15
 70
     1
102
RTVSPropertyOp16
 70
     1
102
RTVSPropertyOp17
 70
     1
102
RTVSPropertyOp18
 70
     1
102
RTVSPropertyOp19
 70
     1
102
RTVSPropertyOp20
 70
     1
102
RTVSPropertyOp21
 70
     1
102
RTVSPropertyOp22
 70
     1
102
RTVSPropertyOp23
 70
     1
102
RTVSPropertyOp24
 70
     1
102
RTVSPropertyOp25
 70
     1
102
RTVSPropertyOp26
 70
     1
102
RTVSPropertyOp27
 70
     1
102
RTVSPropertyOp28
 70
     1
102
RTVSPropertyOp29
 70
     1
102
RTVSPropertyOp30
 70
     1
102
RTVSPropertyOp31
 70
     1
102
RTVSPropertyOp32
 70
     1
102
RTVSPropertyOp33
 70
     1
102
RTVSPropertyOp34
 70
     1
102
RTVSPropertyOp35
 70
     1
102
RTVSPropertyOp36
 70
     1
102
RTVSPropertyOp37
 70
     1
102
RTVSPropertyOp38
 70
     1
102
RTVSPropertyOp39
 70
     1
102
RTVSPropertyOp40
 70
     1
102
RTVSPropertyOp41
 70
     1
102
RTVSPropertyOp42
 70
     1
102
RTVSPropertyOp43
 70
     1
102
RTVSPropertyOp44
 70
     1
102
RTVSPropertyOp45
 70
     1
102
RTVSPropertyOp46
 70
     1
102
RTVSPropertyOp47
 70
     1
102
RTVSPropertyOp48
 70
     1
102
RTVSPropertyOp49
 70
     1
102
RTVSPropertyOp50
 70
     1
102
RTVSPropertyOp51
 70
     0
102
RTVSPropertyOp52
 70
     0
102
RTVSPropertyOp53
 70
     1
102
RTVSPropertyOp54
 70
     1
102
RTVSPropertyOp55
 70
     1
102
RTVSPropertyOp56
 70
     1
102
RTVSPropertyOp57
 70
     1
102
RTVSPost2010Prop28
280
     0
102
RTVSPost2010PropOp28
 70
     1
102
RTVSPost2010Prop29
280
     1
102
RTVSPost2010PropOp29
 70
     1
102
RTVSPost2010Prop30
280
     1
102
RTVSPost2010PropOp30
 70
     1
102
RTVSPost2010Prop31
280
     0
102
RTVSPost2010PropOp31
 70
     1
102
RTVSPost2010Prop32
280
     0
102
RTVSPost2010PropOp32
 70
     1
102
RTVSPost2010Prop33
280
     0
102
RTVSPost2010PropOp33
 70
     1
102
RTVSPost2010Prop34
280
     0
102
RTVSPost2010PropOp34
 70
     1
102
RTVSPost2010Prop35
280
     0
102
RTVSPost2010PropOp35
 70
     1
102
RTVSPost2010Prop36
280
     0
102
RTVSPost2010PropOp36
 70
     1
102
RTVSPost2010Prop37
 90
       50
102
RTVSPost2010PropOp37
 70
     1
102
RTVSPost2010Prop38
140
0.0
102
RTVSPost2010PropOp38
 70
     1
102
RTVSPost2010Prop39
140
1.0
102
RTVSPost2010PropOp39
 70
     1
102
RTVSPost2010Prop40
 90
        0
102
RTVSPost2010PropOp40
 70
     1
102
RTVSPost2010Prop41ColorIndex
 90
       18
102
RTVSPost2010Prop41ColorRGB
 90
        0
102
RTVSPost2010PropOp41
 70
     1
102
RTVSPost2010Prop42
 90
       50
102
RTVSPost2010PropOp42
 70
     1
102
RTVSPost2010Prop43
 90
        3
102
RTVSPost2010PropOp43
 70
     1
102
RTVSPost2010Prop44ColorIndex
 90
        5
102
RTVSPost2010Prop44ColorRGB
 90
      255
102
RTVSPost2010PropOp44
 70
     1
102
RTVSPost2010Prop45
280
     0
102
RTVSPost2010PropOp45
 70
     1
102
RTVSPost2010Prop46
 90
       50
102
RTVSPost2010PropOp46
 70
     1
102
RTVSPost2010Prop47
 90
       50
102
RTVSPost2010PropOp47
 70
     1
102
RTVSPost2010Prop48
 90
       50
102
RTVSPost2010PropOp48
 70
     1
102
RTVSPost2010Prop49
280
     0
102
RTVSPost2010PropOp49
 70
     1
102
RTVSPost2010Prop50
 90
       50
102
RTVSPost2010PropOp50
 70
     1
102
RTVSPost2010Prop51ColorIndex
 90
      256
102
RTVSPost2010Prop51ColorRGB
 90
-16777216
102
RTVSPost2010PropOp51
 70
     0
102
RTVSPost2010Prop52
140
1.0
102
RTVSPost2010PropOp52
 70
     0
102
RTVSPost2010Prop53
 90
        2
102
RTVSPost2010PropOp53
 70
     1
102
RTVSPost2010Prop54
  1
strokes_ogs.tif
102
RTVSPost2010PropOp54
 70
     1
102
RTVSPost2010Prop55
280
     0
102
RTVSPost2010PropOp55
 70
     1
102
RTVSPost2010Prop56
140
1.0
102
RTVSPost2010PropOp56
 70
     1
102
RTVSPost2010Prop57
140
1.0
102
RTVSPost2010PropOp57
 70
     1
  0
XRECORD
  5
59F
102
{ACAD_REACTORS
330
59E
102
}
330
59E
100
AcDbXrecord
280
     1
102
RTVSPropertyOp0
 70
     1
102
RTVSPropertyOp1
 70
     1
102
RTVSPropertyOp2
 70
     1
102
RTVSPropertyOp3
 70
     1
102
RTVSPropertyOp4
 70
     1
102
RTVSPropertyOp5
 70
     1
102
RTVSPropertyOp6
 70
     1
102
RTVSPropertyOp7
 70
     1
102
RTVSPropertyOp8
 70
     1
102
RTVSPropertyOp9
 70
     1
102
RTVSPropertyOp10
 70
     1
102
RTVSPropertyOp11
 70
     1
102
RTVSPropertyOp12
 70
     1
102
RTVSPropertyOp13
 70
     1
102
RTVSPropertyOp14
 70
     1
102
RTVSPropertyOp15
 70
     1
102
RTVSPropertyOp16
 70
     1
102
RTVSPropertyOp17
 70
     1
102
RTVSPropertyOp18
 70
     1
102
RTVSPropertyOp19
 70
     1
102
RTVSPropertyOp20
 70
     1
102
RTVSPropertyOp21
 70
     1
102
RTVSPropertyOp22
 70
     1
102
RTVSPropertyOp23
 70
     1
102
RTVSPropertyOp24
 70
     1
102
RTVSPropertyOp25
 70
     1
102
RTVSPropertyOp26
 70
     1
102
RTVSPropertyOp27
 70
     1
102
RTVSPropertyOp28
 70
     1
102
RTVSPropertyOp29
 70
     1
102
RTVSPropertyOp30
 70
     1
102
RTVSPropertyOp31
 70
     1
102
RTVSPropertyOp32
 70
     1
102
RTVSPropertyOp33
 70
     1
102
RTVSPropertyOp34
 70
     1
102
RTVSPropertyOp35
 70
     1
102
RTVSPropertyOp36
 70
     1
102
RTVSPropertyOp37
 70
     1
102
RTVSPropertyOp38
 70
     1
102
RTVSPropertyOp39
 70
     1
102
RTVSPropertyOp40
 70
     1
102
RTVSPropertyOp41
 70
     1
102
RTVSPropertyOp42
 70
     1
102
RTVSPropertyOp43
 70
     1
102
RTVSPropertyOp44
 70
     1
102
RTVSPropertyOp45
 70
     1
102
RTVSPropertyOp46
 70
     1
102
RTVSPropertyOp47
 70
     1
102
RTVSPropertyOp48
 70
     1
102
RTVSPropertyOp49
 70
     1
102
RTVSPropertyOp50
 70
     1
102
RTVSPropertyOp51
 70
     0
102
RTVSPropertyOp52
 70
     0
102
RTVSPropertyOp53
 70
     1
102
RTVSPropertyOp54
 70
     1
102
RTVSPropertyOp55
 70
     1
102
RTVSPropertyOp56
 70
     1
102
RTVSPropertyOp57
 70
     1
102
RTVSPost2010Prop28
280
     0
102
RTVSPost2010PropOp28
 70
     1
102
RTVSPost2010Prop29
280
     1
102
RTVSPost2010PropOp29
 70
     1
102
RTVSPost2010Prop30
280
     1
102
RTVSPost2010PropOp30
 70
     1
102
RTVSPost2010Prop31
280
     0
102
RTVSPost2010PropOp31
 70
     1
102
RTVSPost2010Prop32
280
     0
102
RTVSPost2010PropOp32
 70
     1
102
RTVSPost2010Prop33
280
     0
102
RTVSPost2010PropOp33
 70
     1
102
RTVSPost2010Prop34
280
     0
102
RTVSPost2010PropOp34
 70
     1
102
RTVSPost2010Prop35
280
     0
102
RTVSPost2010PropOp35
 70
     1
102
RTVSPost2010Prop36
280
     0
102
RTVSPost2010PropOp36
 70
     1
102
RTVSPost2010Prop37
 90
       50
102
RTVSPost2010PropOp37
 70
     1
102
RTVSPost2010Prop38
140
0.0
102
RTVSPost2010PropOp38
 70
     1
102
RTVSPost2010Prop39
140
1.0
102
RTVSPost2010PropOp39
 70
     1
102
RTVSPost2010Prop40
 90
        0
102
RTVSPost2010PropOp40
 70
     1
102
RTVSPost2010Prop41ColorIndex
 90
       18
102
RTVSPost2010Prop41ColorRGB
 90
        0
102
RTVSPost2010PropOp41
 70
     1
102
RTVSPost2010Prop42
 90
       50
102
RTVSPost2010PropOp42
 70
     1
102
RTVSPost2010Prop43
 90
        3
102
RTVSPost2010PropOp43
 70
     1
102
RTVSPost2010Prop44ColorIndex
 90
        5
102
RTVSPost2010Prop44ColorRGB
 90
      255
102
RTVSPost2010PropOp44
 70
     1
102
RTVSPost2010Prop45
280
     0
102
RTVSPost2010PropOp45
 70
     1
102
RTVSPost2010Prop46
 90
       50
102
RTVSPost2010PropOp46
 70
     1
102
RTVSPost2010Prop47
 90
       50
102
RTVSPost2010PropOp47
 70
     1
102
RTVSPost2010Prop48
 90
       50
102
RTVSPost2010PropOp48
 70
     1
102
RTVSPost2010Prop49
280
     0
102
RTVSPost2010PropOp49
 70
     1
102
RTVSPost2010Prop50
 90
       50
102
RTVSPost2010PropOp50
 70
     1
102
RTVSPost2010Prop51ColorIndex
 90
      256
102
RTVSPost2010Prop51ColorRGB
 90
-16777216
102
RTVSPost2010PropOp51
 70
     0
102
RTVSPost2010Prop52
140
1.0
102
RTVSPost2010PropOp52
 70
     0
102
RTVSPost2010Prop53
 90
        2
102
RTVSPost2010PropOp53
 70
     1
102
RTVSPost2010Prop54
  1
strokes_ogs.tif
102
RTVSPost2010PropOp54
 70
     1
102
RTVSPost2010Prop55
280
     0
102
RTVSPost2010PropOp55
 70
     1
102
RTVSPost2010Prop56
140
1.0
102
RTVSPost2010PropOp56
 70
     1
102
RTVSPost2010Prop57
140
1.0
102
RTVSPost2010PropOp57
 70
     1
  0
XRECORD
  5
5A1
102
{ACAD_REACTORS
330
5A0
102
}
330
5A0
100
AcDbXrecord
280
     1
102
RTVSPropertyOp0
 70
     1
102
RTVSPropertyOp1
 70
     1
102
RTVSPropertyOp2
 70
     1
102
RTVSPropertyOp3
 70
     1
102
RTVSPropertyOp4
 70
     1
102
RTVSPropertyOp5
 70
     1
102
RTVSPropertyOp6
 70
     1
102
RTVSPropertyOp7
 70
     1
102
RTVSPropertyOp8
 70
     1
102
RTVSPropertyOp9
 70
     1
102
RTVSPropertyOp10
 70
     1
102
RTVSPropertyOp11
 70
     1
102
RTVSPropertyOp12
 70
     1
102
RTVSPropertyOp13
 70
     1
102
RTVSPropertyOp14
 70
     1
102
RTVSPropertyOp15
 70
     1
102
RTVSPropertyOp16
 70
     1
102
RTVSPropertyOp17
 70
     1
102
RTVSPropertyOp18
 70
     1
102
RTVSPropertyOp19
 70
     1
102
RTVSPropertyOp20
 70
     1
102
RTVSPropertyOp21
 70
     1
102
RTVSPropertyOp22
 70
     1
102
RTVSPropertyOp23
 70
     1
102
RTVSPropertyOp24
 70
     1
102
RTVSPropertyOp25
 70
     1
102
RTVSPropertyOp26
 70
     1
102
RTVSPropertyOp27
 70
     1
102
RTVSPropertyOp28
 70
     1
102
RTVSPropertyOp29
 70
     1
102
RTVSPropertyOp30
 70
     1
102
RTVSPropertyOp31
 70
     1
102
RTVSPropertyOp32
 70
     1
102
RTVSPropertyOp33
 70
     1
102
RTVSPropertyOp34
 70
     1
102
RTVSPropertyOp35
 70
     1
102
RTVSPropertyOp36
 70
     1
102
RTVSPropertyOp37
 70
     1
102
RTVSPropertyOp38
 70
     1
102
RTVSPropertyOp39
 70
     1
102
RTVSPropertyOp40
 70
     1
102
RTVSPropertyOp41
 70
     1
102
RTVSPropertyOp42
 70
     1
102
RTVSPropertyOp43
 70
     1
102
RTVSPropertyOp44
 70
     1
102
RTVSPropertyOp45
 70
     1
102
RTVSPropertyOp46
 70
     1
102
RTVSPropertyOp47
 70
     1
102
RTVSPropertyOp48
 70
     1
102
RTVSPropertyOp49
 70
     1
102
RTVSPropertyOp50
 70
     1
102
RTVSPropertyOp51
 70
     0
102
RTVSPropertyOp52
 70
     0
102
RTVSPropertyOp53
 70
     1
102
RTVSPropertyOp54
 70
     1
102
RTVSPropertyOp55
 70
     1
102
RTVSPropertyOp56
 70
     1
102
RTVSPropertyOp57
 70
     1
102
RTVSPost2010Prop28
280
     0
102
RTVSPost2010PropOp28
 70
     1
102
RTVSPost2010Prop29
280
     1
102
RTVSPost2010PropOp29
 70
     1
102
RTVSPost2010Prop30
280
     1
102
RTVSPost2010PropOp30
 70
     1
102
RTVSPost2010Prop31
280
     0
102
RTVSPost2010PropOp31
 70
     1
102
RTVSPost2010Prop32
280
     0
102
RTVSPost2010PropOp32
 70
     1
102
RTVSPost2010Prop33
280
     0
102
RTVSPost2010PropOp33
 70
     1
102
RTVSPost2010Prop34
280
     0
102
RTVSPost2010PropOp34
 70
     1
102
RTVSPost2010Prop35
280
     0
102
RTVSPost2010PropOp35
 70
     1
102
RTVSPost2010Prop36
280
     0
102
RTVSPost2010PropOp36
 70
     1
102
RTVSPost2010Prop37
 90
       50
102
RTVSPost2010PropOp37
 70
     1
102
RTVSPost2010Prop38
140
0.0
102
RTVSPost2010PropOp38
 70
     1
102
RTVSPost2010Prop39
140
1.0
102
RTVSPost2010PropOp39
 70
     1
102
RTVSPost2010Prop40
 90
        0
102
RTVSPost2010PropOp40
 70
     1
102
RTVSPost2010Prop41ColorIndex
 90
       18
102
RTVSPost2010Prop41ColorRGB
 90
        0
102
RTVSPost2010PropOp41
 70
     1
102
RTVSPost2010Prop42
 90
       50
102
RTVSPost2010PropOp42
 70
     1
102
RTVSPost2010Prop43
 90
        3
102
RTVSPost2010PropOp43
 70
     1
102
RTVSPost2010Prop44ColorIndex
 90
        5
102
RTVSPost2010Prop44ColorRGB
 90
      255
102
RTVSPost2010PropOp44
 70
     1
102
RTVSPost2010Prop45
280
     0
102
RTVSPost2010PropOp45
 70
     1
102
RTVSPost2010Prop46
 90
       50
102
RTVSPost2010PropOp46
 70
     1
102
RTVSPost2010Prop47
 90
       50
102
RTVSPost2010PropOp47
 70
     1
102
RTVSPost2010Prop48
 90
       50
102
RTVSPost2010PropOp48
 70
     1
102
RTVSPost2010Prop49
280
     0
102
RTVSPost2010PropOp49
 70
     1
102
RTVSPost2010Prop50
 90
       50
102
RTVSPost2010PropOp50
 70
     1
102
RTVSPost2010Prop51ColorIndex
 90
      256
102
RTVSPost2010Prop51ColorRGB
 90
-16777216
102
RTVSPost2010PropOp51
 70
     0
102
RTVSPost2010Prop52
140
1.0
102
RTVSPost2010PropOp52
 70
     0
102
RTVSPost2010Prop53
 90
        2
102
RTVSPost2010PropOp53
 70
     1
102
RTVSPost2010Prop54
  1
strokes_ogs.tif
102
RTVSPost2010PropOp54
 70
     1
102
RTVSPost2010Prop55
280
     0
102
RTVSPost2010PropOp55
 70
     1
102
RTVSPost2010Prop56
140
1.0
102
RTVSPost2010PropOp56
 70
     1
102
RTVSPost2010Prop57
140
1.0
102
RTVSPost2010PropOp57
 70
     1
  0
XRECORD
  5
5B1
102
{ACAD_REACTORS
330
5B0
102
}
330
5B0
100
AcDbXrecord
280
     1
102
RTVSPropertyOp0
 70
     0
102
RTVSPropertyOp1
 70
     0
102
RTVSPropertyOp2
 70
     0
102
RTVSPropertyOp3
 70
     0
102
RTVSPropertyOp4
 70
     0
102
RTVSPropertyOp5
 70
     0
102
RTVSPropertyOp6
 70
     0
102
RTVSPropertyOp7
 70
     0
102
RTVSPropertyOp8
 70
     0
102
RTVSPropertyOp9
 70
     0
102
RTVSPropertyOp10
 70
     0
102
RTVSPropertyOp11
 70
     0
102
RTVSPropertyOp12
 70
     0
102
RTVSPropertyOp13
 70
     0
102
RTVSPropertyOp14
 70
     2
102
RTVSPropertyOp15
 70
     0
102
RTVSPropertyOp16
 70
     0
102
RTVSPropertyOp17
 70
     0
102
RTVSPropertyOp18
 70
     0
102
RTVSPropertyOp19
 70
     0
102
RTVSPropertyOp20
 70
     0
102
RTVSPropertyOp21
 70
     0
102
RTVSPropertyOp22
 70
     0
102
RTVSPropertyOp23
 70
     0
102
RTVSPropertyOp24
 70
     0
102
RTVSPropertyOp25
 70
     0
102
RTVSPropertyOp26
 70
     0
102
RTVSPropertyOp27
 70
     0
102
RTVSPropertyOp28
 70
     0
102
RTVSPropertyOp29
 70
     0
102
RTVSPropertyOp30
 70
     0
102
RTVSPropertyOp31
 70
     0
102
RTVSPropertyOp32
 70
     0
102
RTVSPropertyOp33
 70
     0
102
RTVSPropertyOp34
 70
     0
102
RTVSPropertyOp35
 70
     0
102
RTVSPropertyOp36
 70
     0
102
RTVSPropertyOp37
 70
     0
102
RTVSPropertyOp38
 70
     0
102
RTVSPropertyOp39
 70
     0
102
RTVSPropertyOp40
 70
     0
102
RTVSPropertyOp41
 70
     0
102
RTVSPropertyOp42
 70
     0
102
RTVSPropertyOp43
 70
     0
102
RTVSPropertyOp44
 70
     0
102
RTVSPropertyOp45
 70
     0
102
RTVSPropertyOp46
 70
     0
102
RTVSPropertyOp47
 70
     0
102
RTVSPropertyOp48
 70
     0
102
RTVSPropertyOp49
 70
     0
102
RTVSPropertyOp50
 70
     0
102
RTVSPropertyOp51
 70
     0
102
RTVSPropertyOp52
 70
     0
102
RTVSPropertyOp53
 70
     0
102
RTVSPropertyOp54
 70
     0
102
RTVSPropertyOp55
 70
     0
102
RTVSPropertyOp56
 70
     0
102
RTVSPropertyOp57
 70
     0
102
RTVSPost2010Prop28
280
     0
102
RTVSPost2010PropOp28
 70
     0
102
RTVSPost2010Prop29
280
     1
102
RTVSPost2010PropOp29
 70
     0
102
RTVSPost2010Prop30
280
     1
102
RTVSPost2010PropOp30
 70
     0
102
RTVSPost2010Prop31
280
     0
102
RTVSPost2010PropOp31
 70
     0
102
RTVSPost2010Prop32
280
     0
102
RTVSPost2010PropOp32
 70
     0
102
RTVSPost2010Prop33
280
     0
102
RTVSPost2010PropOp33
 70
     0
102
RTVSPost2010Prop34
280
     0
102
RTVSPost2010PropOp34
 70
     0
102
RTVSPost2010Prop35
280
     0
102
RTVSPost2010PropOp35
 70
     0
102
RTVSPost2010Prop36
280
     0
102
RTVSPost2010PropOp36
 70
     0
102
RTVSPost2010Prop37
 90
       50
102
RTVSPost2010PropOp37
 70
     0
102
RTVSPost2010Prop38
140
0.0
102
RTVSPost2010PropOp38
 70
     0
102
RTVSPost2010Prop39
140
1.0
102
RTVSPost2010PropOp39
 70
     0
102
RTVSPost2010Prop40
 90
        0
102
RTVSPost2010PropOp40
 70
     0
102
RTVSPost2010Prop41ColorIndex
 90
       18
102
RTVSPost2010Prop41ColorRGB
 90
        0
102
RTVSPost2010PropOp41
 70
     0
102
RTVSPost2010Prop42
 90
       50
102
RTVSPost2010PropOp42
 70
     0
102
RTVSPost2010Prop43
 90
        3
102
RTVSPost2010PropOp43
 70
     0
102
RTVSPost2010Prop44ColorIndex
 90
        5
102
RTVSPost2010Prop44ColorRGB
 90
      255
102
RTVSPost2010PropOp44
 70
     0
102
RTVSPost2010Prop45
280
     0
102
RTVSPost2010PropOp45
 70
     0
102
RTVSPost2010Prop46
 90
       50
102
RTVSPost2010PropOp46
 70
     0
102
RTVSPost2010Prop47
 90
       50
102
RTVSPost2010PropOp47
 70
     0
102
RTVSPost2010Prop48
 90
       50
102
RTVSPost2010PropOp48
 70
     0
102
RTVSPost2010Prop49
280
     0
102
RTVSPost2010PropOp49
 70
     0
102
RTVSPost2010Prop50
 90
       50
102
RTVSPost2010PropOp50
 70
     0
102
RTVSPost2010Prop51ColorIndex
 90
      256
102
RTVSPost2010Prop51ColorRGB
 90
-16777216
102
RTVSPost2010PropOp51
 70
     0
102
RTVSPost2010Prop52
140
1.0
102
RTVSPost2010PropOp52
 70
     0
102
RTVSPost2010Prop53
 90
        2
102
RTVSPost2010PropOp53
 70
     0
102
RTVSPost2010Prop54
  1
strokes_ogs.tif
102
RTVSPost2010PropOp54
 70
     0
102
RTVSPost2010Prop55
280
     0
102
RTVSPost2010PropOp55
 70
     0
102
RTVSPost2010Prop56
140
1.0
102
RTVSPost2010PropOp56
 70
     0
102
RTVSPost2010Prop57
140
1.0
102
RTVSPost2010PropOp57
 70
     0
  0
XRECORD
  5
5A9
102
{ACAD_REACTORS
330
5A8
102
}
330
5A8
100
AcDbXrecord
280
     1
102
RTVSPropertyOp0
 70
     1
102
RTVSPropertyOp1
 70
     1
102
RTVSPropertyOp2
 70
     1
102
RTVSPropertyOp3
 70
     1
102
RTVSPropertyOp4
 70
     1
102
RTVSPropertyOp5
 70
     1
102
RTVSPropertyOp6
 70
     1
102
RTVSPropertyOp7
 70
     1
102
RTVSPropertyOp8
 70
     1
102
RTVSPropertyOp9
 70
     1
102
RTVSPropertyOp10
 70
     1
102
RTVSPropertyOp11
 70
     1
102
RTVSPropertyOp12
 70
     1
102
RTVSPropertyOp13
 70
     1
102
RTVSPropertyOp14
 70
     1
102
RTVSPropertyOp15
 70
     1
102
RTVSPropertyOp16
 70
     1
102
RTVSPropertyOp17
 70
     1
102
RTVSPropertyOp18
 70
     1
102
RTVSPropertyOp19
 70
     1
102
RTVSPropertyOp20
 70
     1
102
RTVSPropertyOp21
 70
     1
102
RTVSPropertyOp22
 70
     1
102
RTVSPropertyOp23
 70
     1
102
RTVSPropertyOp24
 70
     1
102
RTVSPropertyOp25
 70
     1
102
RTVSPropertyOp26
 70
     1
102
RTVSPropertyOp27
 70
     1
102
RTVSPropertyOp28
 70
     1
102
RTVSPropertyOp29
 70
     1
102
RTVSPropertyOp30
 70
     1
102
RTVSPropertyOp31
 70
     1
102
RTVSPropertyOp32
 70
     1
102
RTVSPropertyOp33
 70
     1
102
RTVSPropertyOp34
 70
     1
102
RTVSPropertyOp35
 70
     1
102
RTVSPropertyOp36
 70
     1
102
RTVSPropertyOp37
 70
     1
102
RTVSPropertyOp38
 70
     1
102
RTVSPropertyOp39
 70
     1
102
RTVSPropertyOp40
 70
     1
102
RTVSPropertyOp41
 70
     1
102
RTVSPropertyOp42
 70
     1
102
RTVSPropertyOp43
 70
     1
102
RTVSPropertyOp44
 70
     1
102
RTVSPropertyOp45
 70
     1
102
RTVSPropertyOp46
 70
     1
102
RTVSPropertyOp47
 70
     1
102
RTVSPropertyOp48
 70
     1
102
RTVSPropertyOp49
 70
     1
102
RTVSPropertyOp50
 70
     1
102
RTVSPropertyOp51
 70
     0
102
RTVSPropertyOp52
 70
     0
102
RTVSPropertyOp53
 70
     1
102
RTVSPropertyOp54
 70
     1
102
RTVSPropertyOp55
 70
     1
102
RTVSPropertyOp56
 70
     1
102
RTVSPropertyOp57
 70
     1
102
RTVSPost2010Prop28
280
     0
102
RTVSPost2010PropOp28
 70
     1
102
RTVSPost2010Prop29
280
     1
102
RTVSPost2010PropOp29
 70
     1
102
RTVSPost2010Prop30
280
     1
102
RTVSPost2010PropOp30
 70
     1
102
RTVSPost2010Prop31
280
     0
102
RTVSPost2010PropOp31
 70
     1
102
RTVSPost2010Prop32
280
     0
102
RTVSPost2010PropOp32
 70
     1
102
RTVSPost2010Prop33
280
     0
102
RTVSPost2010PropOp33
 70
     1
102
RTVSPost2010Prop34
280
     0
102
RTVSPost2010PropOp34
 70
     1
102
RTVSPost2010Prop35
280
     0
102
RTVSPost2010PropOp35
 70
     1
102
RTVSPost2010Prop36
280
     0
102
RTVSPost2010PropOp36
 70
     1
102
RTVSPost2010Prop37
 90
       50
102
RTVSPost2010PropOp37
 70
     1
102
RTVSPost2010Prop38
140
0.0
102
RTVSPost2010PropOp38
 70
     1
102
RTVSPost2010Prop39
140
1.0
102
RTVSPost2010PropOp39
 70
     1
102
RTVSPost2010Prop40
 90
        0
102
RTVSPost2010PropOp40
 70
     1
102
RTVSPost2010Prop41ColorIndex
 90
       18
102
RTVSPost2010Prop41ColorRGB
 90
        0
102
RTVSPost2010PropOp41
 70
     1
102
RTVSPost2010Prop42
 90
       50
102
RTVSPost2010PropOp42
 70
     1
102
RTVSPost2010Prop43
 90
        3
102
RTVSPost2010PropOp43
 70
     1
102
RTVSPost2010Prop44ColorIndex
 90
        5
102
RTVSPost2010Prop44ColorRGB
 90
      255
102
RTVSPost2010PropOp44
 70
     1
102
RTVSPost2010Prop45
280
     0
102
RTVSPost2010PropOp45
 70
     1
102
RTVSPost2010Prop46
 90
       50
102
RTVSPost2010PropOp46
 70
     1
102
RTVSPost2010Prop47
 90
       50
102
RTVSPost2010PropOp47
 70
     1
102
RTVSPost2010Prop48
 90
       50
102
RTVSPost2010PropOp48
 70
     1
102
RTVSPost2010Prop49
280
     0
102
RTVSPost2010PropOp49
 70
     1
102
RTVSPost2010Prop50
 90
       50
102
RTVSPost2010PropOp50
 70
     1
102
RTVSPost2010Prop51ColorIndex
 90
      256
102
RTVSPost2010Prop51ColorRGB
 90
-16777216
102
RTVSPost2010PropOp51
 70
     0
102
RTVSPost2010Prop52
140
1.0
102
RTVSPost2010PropOp52
 70
     0
102
RTVSPost2010Prop53
 90
        2
102
RTVSPost2010PropOp53
 70
     1
102
RTVSPost2010Prop54
  1
strokes_ogs.tif
102
RTVSPost2010PropOp54
 70
     1
102
RTVSPost2010Prop55
280
     0
102
RTVSPost2010PropOp55
 70
     1
102
RTVSPost2010Prop56
140
1.0
102
RTVSPost2010PropOp56
 70
     1
102
RTVSPost2010Prop57
140
1.0
102
RTVSPost2010PropOp57
 70
     1
  0
XRECORD
  5
58D
102
{ACAD_REACTORS
330
58C
102
}
330
58C
100
AcDbXrecord
280
     1
102
RTVSPropertyOp0
 70
     1
102
RTVSPropertyOp1
 70
     1
102
RTVSPropertyOp2
 70
     1
102
RTVSPropertyOp3
 70
     1
102
RTVSPropertyOp4
 70
     1
102
RTVSPropertyOp5
 70
     1
102
RTVSPropertyOp6
 70
     1
102
RTVSPropertyOp7
 70
     1
102
RTVSPropertyOp8
 70
     1
102
RTVSPropertyOp9
 70
     1
102
RTVSPropertyOp10
 70
     1
102
RTVSPropertyOp11
 70
     1
102
RTVSPropertyOp12
 70
     1
102
RTVSPropertyOp13
 70
     1
102
RTVSPropertyOp14
 70
     1
102
RTVSPropertyOp15
 70
     1
102
RTVSPropertyOp16
 70
     1
102
RTVSPropertyOp17
 70
     1
102
RTVSPropertyOp18
 70
     1
102
RTVSPropertyOp19
 70
     1
102
RTVSPropertyOp20
 70
     1
102
RTVSPropertyOp21
 70
     1
102
RTVSPropertyOp22
 70
     1
102
RTVSPropertyOp23
 70
     1
102
RTVSPropertyOp24
 70
     1
102
RTVSPropertyOp25
 70
     1
102
RTVSPropertyOp26
 70
     1
102
RTVSPropertyOp27
 70
     1
102
RTVSPropertyOp28
 70
     1
102
RTVSPropertyOp29
 70
     1
102
RTVSPropertyOp30
 70
     1
102
RTVSPropertyOp31
 70
     1
102
RTVSPropertyOp32
 70
     1
102
RTVSPropertyOp33
 70
     1
102
RTVSPropertyOp34
 70
     1
102
RTVSPropertyOp35
 70
     1
102
RTVSPropertyOp36
 70
     1
102
RTVSPropertyOp37
 70
     1
102
RTVSPropertyOp38
 70
     1
102
RTVSPropertyOp39
 70
     1
102
RTVSPropertyOp40
 70
     1
102
RTVSPropertyOp41
 70
     1
102
RTVSPropertyOp42
 70
     1
102
RTVSPropertyOp43
 70
     1
102
RTVSPropertyOp44
 70
     1
102
RTVSPropertyOp45
 70
     1
102
RTVSPropertyOp46
 70
     1
102
RTVSPropertyOp47
 70
     1
102
RTVSPropertyOp48
 70
     1
102
RTVSPropertyOp49
 70
     1
102
RTVSPropertyOp50
 70
     1
102
RTVSPropertyOp51
 70
     0
102
RTVSPropertyOp52
 70
     0
102
RTVSPropertyOp53
 70
     1
102
RTVSPropertyOp54
 70
     1
102
RTVSPropertyOp55
 70
     1
102
RTVSPropertyOp56
 70
     1
102
RTVSPropertyOp57
 70
     1
102
RTVSPost2010Prop28
280
     0
102
RTVSPost2010PropOp28
 70
     1
102
RTVSPost2010Prop29
280
     1
102
RTVSPost2010PropOp29
 70
     1
102
RTVSPost2010Prop30
280
     1
102
RTVSPost2010PropOp30
 70
     1
102
RTVSPost2010Prop31
280
     0
102
RTVSPost2010PropOp31
 70
     1
102
RTVSPost2010Prop32
280
     0
102
RTVSPost2010PropOp32
 70
     1
102
RTVSPost2010Prop33
280
     0
102
RTVSPost2010PropOp33
 70
     1
102
RTVSPost2010Prop34
280
     0
102
RTVSPost2010PropOp34
 70
     1
102
RTVSPost2010Prop35
280
     0
102
RTVSPost2010PropOp35
 70
     1
102
RTVSPost2010Prop36
280
     0
102
RTVSPost2010PropOp36
 70
     1
102
RTVSPost2010Prop37
 90
       50
102
RTVSPost2010PropOp37
 70
     1
102
RTVSPost2010Prop38
140
0.0
102
RTVSPost2010PropOp38
 70
     1
102
RTVSPost2010Prop39
140
1.0
102
RTVSPost2010PropOp39
 70
     1
102
RTVSPost2010Prop40
 90
        0
102
RTVSPost2010PropOp40
 70
     1
102
RTVSPost2010Prop41ColorIndex
 90
       18
102
RTVSPost2010Prop41ColorRGB
 90
        0
102
RTVSPost2010PropOp41
 70
     1
102
RTVSPost2010Prop42
 90
       50
102
RTVSPost2010PropOp42
 70
     1
102
RTVSPost2010Prop43
 90
        3
102
RTVSPost2010PropOp43
 70
     1
102
RTVSPost2010Prop44ColorIndex
 90
        5
102
RTVSPost2010Prop44ColorRGB
 90
      255
102
RTVSPost2010PropOp44
 70
     1
102
RTVSPost2010Prop45
280
     0
102
RTVSPost2010PropOp45
 70
     1
102
RTVSPost2010Prop46
 90
       50
102
RTVSPost2010PropOp46
 70
     1
102
RTVSPost2010Prop47
 90
       50
102
RTVSPost2010PropOp47
 70
     1
102
RTVSPost2010Prop48
 90
       50
102
RTVSPost2010PropOp48
 70
     1
102
RTVSPost2010Prop49
280
     0
102
RTVSPost2010PropOp49
 70
     1
102
RTVSPost2010Prop50
 90
       50
102
RTVSPost2010PropOp50
 70
     1
102
RTVSPost2010Prop51ColorIndex
 90
      256
102
RTVSPost2010Prop51ColorRGB
 90
-16777216
102
RTVSPost2010PropOp51
 70
     0
102
RTVSPost2010Prop52
140
1.0
102
RTVSPost2010PropOp52
 70
     0
102
RTVSPost2010Prop53
 90
        2
102
RTVSPost2010PropOp53
 70
     1
102
RTVSPost2010Prop54
  1
strokes_ogs.tif
102
RTVSPost2010PropOp54
 70
     1
102
RTVSPost2010Prop55
280
     0
102
RTVSPost2010PropOp55
 70
     1
102
RTVSPost2010Prop56
140
1.0
102
RTVSPost2010PropOp56
 70
     1
102
RTVSPost2010Prop57
140
1.0
102
RTVSPost2010PropOp57
 70
     1
  0
XRECORD
  5
58F
102
{ACAD_REACTORS
330
58E
102
}
330
58E
100
AcDbXrecord
280
     1
102
RTVSPropertyOp0
 70
     1
102
RTVSPropertyOp1
 70
     1
102
RTVSPropertyOp2
 70
     1
102
RTVSPropertyOp3
 70
     1
102
RTVSPropertyOp4
 70
     1
102
RTVSPropertyOp5
 70
     1
102
RTVSPropertyOp6
 70
     1
102
RTVSPropertyOp7
 70
     1
102
RTVSPropertyOp8
 70
     1
102
RTVSPropertyOp9
 70
     1
102
RTVSPropertyOp10
 70
     1
102
RTVSPropertyOp11
 70
     1
102
RTVSPropertyOp12
 70
     1
102
RTVSPropertyOp13
 70
     1
102
RTVSPropertyOp14
 70
     1
102
RTVSPropertyOp15
 70
     1
102
RTVSPropertyOp16
 70
     1
102
RTVSPropertyOp17
 70
     1
102
RTVSPropertyOp18
 70
     1
102
RTVSPropertyOp19
 70
     1
102
RTVSPropertyOp20
 70
     1
102
RTVSPropertyOp21
 70
     1
102
RTVSPropertyOp22
 70
     1
102
RTVSPropertyOp23
 70
     1
102
RTVSPropertyOp24
 70
     1
102
RTVSPropertyOp25
 70
     1
102
RTVSPropertyOp26
 70
     1
102
RTVSPropertyOp27
 70
     1
102
RTVSPropertyOp28
 70
     1
102
RTVSPropertyOp29
 70
     1
102
RTVSPropertyOp30
 70
     1
102
RTVSPropertyOp31
 70
     1
102
RTVSPropertyOp32
 70
     1
102
RTVSPropertyOp33
 70
     1
102
RTVSPropertyOp34
 70
     1
102
RTVSPropertyOp35
 70
     1
102
RTVSPropertyOp36
 70
     1
102
RTVSPropertyOp37
 70
     1
102
RTVSPropertyOp38
 70
     1
102
RTVSPropertyOp39
 70
     1
102
RTVSPropertyOp40
 70
     1
102
RTVSPropertyOp41
 70
     1
102
RTVSPropertyOp42
 70
     1
102
RTVSPropertyOp43
 70
     1
102
RTVSPropertyOp44
 70
     1
102
RTVSPropertyOp45
 70
     1
102
RTVSPropertyOp46
 70
     1
102
RTVSPropertyOp47
 70
     1
102
RTVSPropertyOp48
 70
     1
102
RTVSPropertyOp49
 70
     1
102
RTVSPropertyOp50
 70
     1
102
RTVSPropertyOp51
 70
     0
102
RTVSPropertyOp52
 70
     0
102
RTVSPropertyOp53
 70
     1
102
RTVSPropertyOp54
 70
     1
102
RTVSPropertyOp55
 70
     1
102
RTVSPropertyOp56
 70
     1
102
RTVSPropertyOp57
 70
     1
102
RTVSPost2010Prop28
280
     0
102
RTVSPost2010PropOp28
 70
     1
102
RTVSPost2010Prop29
280
     1
102
RTVSPost2010PropOp29
 70
     1
102
RTVSPost2010Prop30
280
     1
102
RTVSPost2010PropOp30
 70
     1
102
RTVSPost2010Prop31
280
     0
102
RTVSPost2010PropOp31
 70
     1
102
RTVSPost2010Prop32
280
     0
102
RTVSPost2010PropOp32
 70
     1
102
RTVSPost2010Prop33
280
     0
102
RTVSPost2010PropOp33
 70
     1
102
RTVSPost2010Prop34
280
     0
102
RTVSPost2010PropOp34
 70
     1
102
RTVSPost2010Prop35
280
     0
102
RTVSPost2010PropOp35
 70
     1
102
RTVSPost2010Prop36
280
     0
102
RTVSPost2010PropOp36
 70
     1
102
RTVSPost2010Prop37
 90
       50
102
RTVSPost2010PropOp37
 70
     1
102
RTVSPost2010Prop38
140
0.0
102
RTVSPost2010PropOp38
 70
     1
102
RTVSPost2010Prop39
140
1.0
102
RTVSPost2010PropOp39
 70
     1
102
RTVSPost2010Prop40
 90
        0
102
RTVSPost2010PropOp40
 70
     1
102
RTVSPost2010Prop41ColorIndex
 90
       18
102
RTVSPost2010Prop41ColorRGB
 90
        0
102
RTVSPost2010PropOp41
 70
     1
102
RTVSPost2010Prop42
 90
       50
102
RTVSPost2010PropOp42
 70
     1
102
RTVSPost2010Prop43
 90
        3
102
RTVSPost2010PropOp43
 70
     1
102
RTVSPost2010Prop44ColorIndex
 90
        5
102
RTVSPost2010Prop44ColorRGB
 90
      255
102
RTVSPost2010PropOp44
 70
     1
102
RTVSPost2010Prop45
280
     0
102
RTVSPost2010PropOp45
 70
     1
102
RTVSPost2010Prop46
 90
       50
102
RTVSPost2010PropOp46
 70
     1
102
RTVSPost2010Prop47
 90
       50
102
RTVSPost2010PropOp47
 70
     1
102
RTVSPost2010Prop48
 90
       50
102
RTVSPost2010PropOp48
 70
     1
102
RTVSPost2010Prop49
280
     0
102
RTVSPost2010PropOp49
 70
     1
102
RTVSPost2010Prop50
 90
       50
102
RTVSPost2010PropOp50
 70
     1
102
RTVSPost2010Prop51ColorIndex
 90
      256
102
RTVSPost2010Prop51ColorRGB
 90
-16777216
102
RTVSPost2010PropOp51
 70
     0
102
RTVSPost2010Prop52
140
1.0
102
RTVSPost2010PropOp52
 70
     0
102
RTVSPost2010Prop53
 90
        2
102
RTVSPost2010PropOp53
 70
     1
102
RTVSPost2010Prop54
  1
strokes_ogs.tif
102
RTVSPost2010PropOp54
 70
     1
102
RTVSPost2010Prop55
280
     0
102
RTVSPost2010PropOp55
 70
     1
102
RTVSPost2010Prop56
140
1.0
102
RTVSPost2010PropOp56
 70
     1
102
RTVSPost2010Prop57
140
1.0
102
RTVSPost2010PropOp57
 70
     1
  0
XRECORD
  5
591
102
{ACAD_REACTORS
330
590
102
}
330
590
100
AcDbXrecord
280
     1
102
RTVSPropertyOp0
 70
     1
102
RTVSPropertyOp1
 70
     1
102
RTVSPropertyOp2
 70
     1
102
RTVSPropertyOp3
 70
     1
102
RTVSPropertyOp4
 70
     1
102
RTVSPropertyOp5
 70
     1
102
RTVSPropertyOp6
 70
     1
102
RTVSPropertyOp7
 70
     1
102
RTVSPropertyOp8
 70
     1
102
RTVSPropertyOp9
 70
     1
102
RTVSPropertyOp10
 70
     1
102
RTVSPropertyOp11
 70
     1
102
RTVSPropertyOp12
 70
     1
102
RTVSPropertyOp13
 70
     1
102
RTVSPropertyOp14
 70
     1
102
RTVSPropertyOp15
 70
     1
102
RTVSPropertyOp16
 70
     1
102
RTVSPropertyOp17
 70
     1
102
RTVSPropertyOp18
 70
     1
102
RTVSPropertyOp19
 70
     1
102
RTVSPropertyOp20
 70
     1
102
RTVSPropertyOp21
 70
     1
102
RTVSPropertyOp22
 70
     1
102
RTVSPropertyOp23
 70
     1
102
RTVSPropertyOp24
 70
     1
102
RTVSPropertyOp25
 70
     1
102
RTVSPropertyOp26
 70
     1
102
RTVSPropertyOp27
 70
     1
102
RTVSPropertyOp28
 70
     1
102
RTVSPropertyOp29
 70
     1
102
RTVSPropertyOp30
 70
     1
102
RTVSPropertyOp31
 70
     1
102
RTVSPropertyOp32
 70
     1
102
RTVSPropertyOp33
 70
     1
102
RTVSPropertyOp34
 70
     1
102
RTVSPropertyOp35
 70
     1
102
RTVSPropertyOp36
 70
     1
102
RTVSPropertyOp37
 70
     1
102
RTVSPropertyOp38
 70
     1
102
RTVSPropertyOp39
 70
     1
102
RTVSPropertyOp40
 70
     1
102
RTVSPropertyOp41
 70
     1
102
RTVSPropertyOp42
 70
     1
102
RTVSPropertyOp43
 70
     1
102
RTVSPropertyOp44
 70
     1
102
RTVSPropertyOp45
 70
     1
102
RTVSPropertyOp46
 70
     1
102
RTVSPropertyOp47
 70
     1
102
RTVSPropertyOp48
 70
     1
102
RTVSPropertyOp49
 70
     1
102
RTVSPropertyOp50
 70
     1
102
RTVSPropertyOp51
 70
     0
102
RTVSPropertyOp52
 70
     0
102
RTVSPropertyOp53
 70
     1
102
RTVSPropertyOp54
 70
     1
102
RTVSPropertyOp55
 70
     1
102
RTVSPropertyOp56
 70
     1
102
RTVSPropertyOp57
 70
     1
102
RTVSPost2010Prop28
280
     0
102
RTVSPost2010PropOp28
 70
     1
102
RTVSPost2010Prop29
280
     1
102
RTVSPost2010PropOp29
 70
     1
102
RTVSPost2010Prop30
280
     1
102
RTVSPost2010PropOp30
 70
     1
102
RTVSPost2010Prop31
280
     0
102
RTVSPost2010PropOp31
 70
     1
102
RTVSPost2010Prop32
280
     0
102
RTVSPost2010PropOp32
 70
     1
102
RTVSPost2010Prop33
280
     0
102
RTVSPost2010PropOp33
 70
     1
102
RTVSPost2010Prop34
280
     0
102
RTVSPost2010PropOp34
 70
     1
102
RTVSPost2010Prop35
280
     0
102
RTVSPost2010PropOp35
 70
     1
102
RTVSPost2010Prop36
280
     0
102
RTVSPost2010PropOp36
 70
     1
102
RTVSPost2010Prop37
 90
       50
102
RTVSPost2010PropOp37
 70
     1
102
RTVSPost2010Prop38
140
0.0
102
RTVSPost2010PropOp38
 70
     1
102
RTVSPost2010Prop39
140
1.0
102
RTVSPost2010PropOp39
 70
     1
102
RTVSPost2010Prop40
 90
        0
102
RTVSPost2010PropOp40
 70
     1
102
RTVSPost2010Prop41ColorIndex
 90
       18
102
RTVSPost2010Prop41ColorRGB
 90
        0
102
RTVSPost2010PropOp41
 70
     1
102
RTVSPost2010Prop42
 90
       50
102
RTVSPost2010PropOp42
 70
     1
102
RTVSPost2010Prop43
 90
        3
102
RTVSPost2010PropOp43
 70
     1
102
RTVSPost2010Prop44ColorIndex
 90
        5
102
RTVSPost2010Prop44ColorRGB
 90
      255
102
RTVSPost2010PropOp44
 70
     1
102
RTVSPost2010Prop45
280
     0
102
RTVSPost2010PropOp45
 70
     1
102
RTVSPost2010Prop46
 90
       50
102
RTVSPost2010PropOp46
 70
     1
102
RTVSPost2010Prop47
 90
       50
102
RTVSPost2010PropOp47
 70
     1
102
RTVSPost2010Prop48
 90
       50
102
RTVSPost2010PropOp48
 70
     1
102
RTVSPost2010Prop49
280
     0
102
RTVSPost2010PropOp49
 70
     1
102
RTVSPost2010Prop50
 90
       50
102
RTVSPost2010PropOp50
 70
     1
102
RTVSPost2010Prop51ColorIndex
 90
      256
102
RTVSPost2010Prop51ColorRGB
 90
-16777216
102
RTVSPost2010PropOp51
 70
     0
102
RTVSPost2010Prop52
140
1.0
102
RTVSPost2010PropOp52
 70
     0
102
RTVSPost2010Prop53
 90
        2
102
RTVSPost2010PropOp53
 70
     1
102
RTVSPost2010Prop54
  1
strokes_ogs.tif
102
RTVSPost2010PropOp54
 70
     1
102
RTVSPost2010Prop55
280
     0
102
RTVSPost2010PropOp55
 70
     1
102
RTVSPost2010Prop56
140
1.0
102
RTVSPost2010PropOp56
 70
     1
102
RTVSPost2010Prop57
140
1.0
102
RTVSPost2010PropOp57
 70
     1
  0
XRECORD
  5
593
102
{ACAD_REACTORS
330
592
102
}
330
592
100
AcDbXrecord
280
     1
102
RTVSPropertyOp0
 70
     1
102
RTVSPropertyOp1
 70
     1
102
RTVSPropertyOp2
 70
     1
102
RTVSPropertyOp3
 70
     1
102
RTVSPropertyOp4
 70
     1
102
RTVSPropertyOp5
 70
     1
102
RTVSPropertyOp6
 70
     1
102
RTVSPropertyOp7
 70
     1
102
RTVSPropertyOp8
 70
     1
102
RTVSPropertyOp9
 70
     1
102
RTVSPropertyOp10
 70
     1
102
RTVSPropertyOp11
 70
     1
102
RTVSPropertyOp12
 70
     1
102
RTVSPropertyOp13
 70
     1
102
RTVSPropertyOp14
 70
     1
102
RTVSPropertyOp15
 70
     1
102
RTVSPropertyOp16
 70
     1
102
RTVSPropertyOp17
 70
     1
102
RTVSPropertyOp18
 70
     1
102
RTVSPropertyOp19
 70
     1
102
RTVSPropertyOp20
 70
     1
102
RTVSPropertyOp21
 70
     1
102
RTVSPropertyOp22
 70
     1
102
RTVSPropertyOp23
 70
     1
102
RTVSPropertyOp24
 70
     1
102
RTVSPropertyOp25
 70
     1
102
RTVSPropertyOp26
 70
     1
102
RTVSPropertyOp27
 70
     1
102
RTVSPropertyOp28
 70
     1
102
RTVSPropertyOp29
 70
     1
102
RTVSPropertyOp30
 70
     1
102
RTVSPropertyOp31
 70
     1
102
RTVSPropertyOp32
 70
     1
102
RTVSPropertyOp33
 70
     1
102
RTVSPropertyOp34
 70
     1
102
RTVSPropertyOp35
 70
     1
102
RTVSPropertyOp36
 70
     1
102
RTVSPropertyOp37
 70
     1
102
RTVSPropertyOp38
 70
     1
102
RTVSPropertyOp39
 70
     1
102
RTVSPropertyOp40
 70
     1
102
RTVSPropertyOp41
 70
     1
102
RTVSPropertyOp42
 70
     1
102
RTVSPropertyOp43
 70
     1
102
RTVSPropertyOp44
 70
     1
102
RTVSPropertyOp45
 70
     1
102
RTVSPropertyOp46
 70
     1
102
RTVSPropertyOp47
 70
     1
102
RTVSPropertyOp48
 70
     1
102
RTVSPropertyOp49
 70
     1
102
RTVSPropertyOp50
 70
     1
102
RTVSPropertyOp51
 70
     0
102
RTVSPropertyOp52
 70
     0
102
RTVSPropertyOp53
 70
     1
102
RTVSPropertyOp54
 70
     1
102
RTVSPropertyOp55
 70
     1
102
RTVSPropertyOp56
 70
     1
102
RTVSPropertyOp57
 70
     1
102
RTVSPost2010Prop28
280
     0
102
RTVSPost2010PropOp28
 70
     1
102
RTVSPost2010Prop29
280
     1
102
RTVSPost2010PropOp29
 70
     1
102
RTVSPost2010Prop30
280
     1
102
RTVSPost2010PropOp30
 70
     1
102
RTVSPost2010Prop31
280
     0
102
RTVSPost2010PropOp31
 70
     1
102
RTVSPost2010Prop32
280
     0
102
RTVSPost2010PropOp32
 70
     1
102
RTVSPost2010Prop33
280
     0
102
RTVSPost2010PropOp33
 70
     1
102
RTVSPost2010Prop34
280
     0
102
RTVSPost2010PropOp34
 70
     1
102
RTVSPost2010Prop35
280
     0
102
RTVSPost2010PropOp35
 70
     1
102
RTVSPost2010Prop36
280
     0
102
RTVSPost2010PropOp36
 70
     1
102
RTVSPost2010Prop37
 90
       50
102
RTVSPost2010PropOp37
 70
     1
102
RTVSPost2010Prop38
140
0.0
102
RTVSPost2010PropOp38
 70
     1
102
RTVSPost2010Prop39
140
1.0
102
RTVSPost2010PropOp39
 70
     1
102
RTVSPost2010Prop40
 90
        0
102
RTVSPost2010PropOp40
 70
     1
102
RTVSPost2010Prop41ColorIndex
 90
       18
102
RTVSPost2010Prop41ColorRGB
 90
        0
102
RTVSPost2010PropOp41
 70
     1
102
RTVSPost2010Prop42
 90
       50
102
RTVSPost2010PropOp42
 70
     1
102
RTVSPost2010Prop43
 90
        3
102
RTVSPost2010PropOp43
 70
     1
102
RTVSPost2010Prop44ColorIndex
 90
        5
102
RTVSPost2010Prop44ColorRGB
 90
      255
102
RTVSPost2010PropOp44
 70
     1
102
RTVSPost2010Prop45
280
     0
102
RTVSPost2010PropOp45
 70
     1
102
RTVSPost2010Prop46
 90
       50
102
RTVSPost2010PropOp46
 70
     1
102
RTVSPost2010Prop47
 90
       50
102
RTVSPost2010PropOp47
 70
     1
102
RTVSPost2010Prop48
 90
       50
102
RTVSPost2010PropOp48
 70
     1
102
RTVSPost2010Prop49
280
     0
102
RTVSPost2010PropOp49
 70
     1
102
RTVSPost2010Prop50
 90
       50
102
RTVSPost2010PropOp50
 70
     1
102
RTVSPost2010Prop51ColorIndex
 90
      256
102
RTVSPost2010Prop51ColorRGB
 90
-16777216
102
RTVSPost2010PropOp51
 70
     0
102
RTVSPost2010Prop52
140
1.0
102
RTVSPost2010PropOp52
 70
     0
102
RTVSPost2010Prop53
 90
        2
102
RTVSPost2010PropOp53
 70
     1
102
RTVSPost2010Prop54
  1
strokes_ogs.tif
102
RTVSPost2010PropOp54
 70
     1
102
RTVSPost2010Prop55
280
     0
102
RTVSPost2010PropOp55
 70
     1
102
RTVSPost2010Prop56
140
1.0
102
RTVSPost2010PropOp56
 70
     1
102
RTVSPost2010Prop57
140
1.0
102
RTVSPost2010PropOp57
 70
     1
  0
XRECORD
  5
599
102
{ACAD_REACTORS
330
598
102
}
330
598
100
AcDbXrecord
280
     1
102
RTVSPropertyOp0
 70
     1
102
RTVSPropertyOp1
 70
     1
102
RTVSPropertyOp2
 70
     1
102
RTVSPropertyOp3
 70
     1
102
RTVSPropertyOp4
 70
     1
102
RTVSPropertyOp5
 70
     1
102
RTVSPropertyOp6
 70
     1
102
RTVSPropertyOp7
 70
     1
102
RTVSPropertyOp8
 70
     1
102
RTVSPropertyOp9
 70
     1
102
RTVSPropertyOp10
 70
     1
102
RTVSPropertyOp11
 70
     1
102
RTVSPropertyOp12
 70
     1
102
RTVSPropertyOp13
 70
     1
102
RTVSPropertyOp14
 70
     1
102
RTVSPropertyOp15
 70
     1
102
RTVSPropertyOp16
 70
     1
102
RTVSPropertyOp17
 70
     1
102
RTVSPropertyOp18
 70
     1
102
RTVSPropertyOp19
 70
     1
102
RTVSPropertyOp20
 70
     1
102
RTVSPropertyOp21
 70
     1
102
RTVSPropertyOp22
 70
     1
102
RTVSPropertyOp23
 70
     1
102
RTVSPropertyOp24
 70
     1
102
RTVSPropertyOp25
 70
     1
102
RTVSPropertyOp26
 70
     1
102
RTVSPropertyOp27
 70
     1
102
RTVSPropertyOp28
 70
     1
102
RTVSPropertyOp29
 70
     1
102
RTVSPropertyOp30
 70
     1
102
RTVSPropertyOp31
 70
     1
102
RTVSPropertyOp32
 70
     1
102
RTVSPropertyOp33
 70
     1
102
RTVSPropertyOp34
 70
     1
102
RTVSPropertyOp35
 70
     1
102
RTVSPropertyOp36
 70
     1
102
RTVSPropertyOp37
 70
     1
102
RTVSPropertyOp38
 70
     1
102
RTVSPropertyOp39
 70
     1
102
RTVSPropertyOp40
 70
     1
102
RTVSPropertyOp41
 70
     1
102
RTVSPropertyOp42
 70
     1
102
RTVSPropertyOp43
 70
     1
102
RTVSPropertyOp44
 70
     1
102
RTVSPropertyOp45
 70
     1
102
RTVSPropertyOp46
 70
     1
102
RTVSPropertyOp47
 70
     1
102
RTVSPropertyOp48
 70
     1
102
RTVSPropertyOp49
 70
     1
102
RTVSPropertyOp50
 70
     1
102
RTVSPropertyOp51
 70
     0
102
RTVSPropertyOp52
 70
     0
102
RTVSPropertyOp53
 70
     1
102
RTVSPropertyOp54
 70
     1
102
RTVSPropertyOp55
 70
     1
102
RTVSPropertyOp56
 70
     1
102
RTVSPropertyOp57
 70
     1
102
RTVSPost2010Prop28
280
     0
102
RTVSPost2010PropOp28
 70
     1
102
RTVSPost2010Prop29
280
     1
102
RTVSPost2010PropOp29
 70
     1
102
RTVSPost2010Prop30
280
     1
102
RTVSPost2010PropOp30
 70
     1
102
RTVSPost2010Prop31
280
     0
102
RTVSPost2010PropOp31
 70
     1
102
RTVSPost2010Prop32
280
     0
102
RTVSPost2010PropOp32
 70
     1
102
RTVSPost2010Prop33
280
     0
102
RTVSPost2010PropOp33
 70
     1
102
RTVSPost2010Prop34
280
     0
102
RTVSPost2010PropOp34
 70
     1
102
RTVSPost2010Prop35
280
     0
102
RTVSPost2010PropOp35
 70
     1
102
RTVSPost2010Prop36
280
     0
102
RTVSPost2010PropOp36
 70
     1
102
RTVSPost2010Prop37
 90
       50
102
RTVSPost2010PropOp37
 70
     1
102
RTVSPost2010Prop38
140
0.0
102
RTVSPost2010PropOp38
 70
     1
102
RTVSPost2010Prop39
140
1.0
102
RTVSPost2010PropOp39
 70
     1
102
RTVSPost2010Prop40
 90
        0
102
RTVSPost2010PropOp40
 70
     1
102
RTVSPost2010Prop41ColorIndex
 90
       18
102
RTVSPost2010Prop41ColorRGB
 90
        0
102
RTVSPost2010PropOp41
 70
     1
102
RTVSPost2010Prop42
 90
       50
102
RTVSPost2010PropOp42
 70
     1
102
RTVSPost2010Prop43
 90
        3
102
RTVSPost2010PropOp43
 70
     1
102
RTVSPost2010Prop44ColorIndex
 90
        5
102
RTVSPost2010Prop44ColorRGB
 90
      255
102
RTVSPost2010PropOp44
 70
     1
102
RTVSPost2010Prop45
280
     0
102
RTVSPost2010PropOp45
 70
     1
102
RTVSPost2010Prop46
 90
       50
102
RTVSPost2010PropOp46
 70
     1
102
RTVSPost2010Prop47
 90
       50
102
RTVSPost2010PropOp47
 70
     1
102
RTVSPost2010Prop48
 90
       50
102
RTVSPost2010PropOp48
 70
     1
102
RTVSPost2010Prop49
280
     0
102
RTVSPost2010PropOp49
 70
     1
102
RTVSPost2010Prop50
 90
       50
102
RTVSPost2010PropOp50
 70
     1
102
RTVSPost2010Prop51ColorIndex
 90
      256
102
RTVSPost2010Prop51ColorRGB
 90
-16777216
102
RTVSPost2010PropOp51
 70
     0
102
RTVSPost2010Prop52
140
1.0
102
RTVSPost2010PropOp52
 70
     0
102
RTVSPost2010Prop53
 90
        2
102
RTVSPost2010PropOp53
 70
     1
102
RTVSPost2010Prop54
  1
strokes_ogs.tif
102
RTVSPost2010PropOp54
 70
     1
102
RTVSPost2010Prop55
280
     0
102
RTVSPost2010PropOp55
 70
     1
102
RTVSPost2010Prop56
140
1.0
102
RTVSPost2010PropOp56
 70
     1
102
RTVSPost2010Prop57
140
1.0
102
RTVSPost2010PropOp57
 70
     1
  0
XRECORD
  5
5AD
102
{ACAD_REACTORS
330
5AC
102
}
330
5AC
100
AcDbXrecord
280
     1
102
RTVSPropertyOp0
 70
     0
102
RTVSPropertyOp1
 70
     0
102
RTVSPropertyOp2
 70
     0
102
RTVSPropertyOp3
 70
     0
102
RTVSPropertyOp4
 70
     0
102
RTVSPropertyOp5
 70
     0
102
RTVSPropertyOp6
 70
     0
102
RTVSPropertyOp7
 70
     0
102
RTVSPropertyOp8
 70
     0
102
RTVSPropertyOp9
 70
     0
102
RTVSPropertyOp10
 70
     0
102
RTVSPropertyOp11
 70
     0
102
RTVSPropertyOp12
 70
     0
102
RTVSPropertyOp13
 70
     0
102
RTVSPropertyOp14
 70
     2
102
RTVSPropertyOp15
 70
     0
102
RTVSPropertyOp16
 70
     0
102
RTVSPropertyOp17
 70
     0
102
RTVSPropertyOp18
 70
     0
102
RTVSPropertyOp19
 70
     0
102
RTVSPropertyOp20
 70
     0
102
RTVSPropertyOp21
 70
     0
102
RTVSPropertyOp22
 70
     0
102
RTVSPropertyOp23
 70
     0
102
RTVSPropertyOp24
 70
     0
102
RTVSPropertyOp25
 70
     0
102
RTVSPropertyOp26
 70
     0
102
RTVSPropertyOp27
 70
     0
102
RTVSPropertyOp28
 70
     0
102
RTVSPropertyOp29
 70
     0
102
RTVSPropertyOp30
 70
     0
102
RTVSPropertyOp31
 70
     0
102
RTVSPropertyOp32
 70
     0
102
RTVSPropertyOp33
 70
     0
102
RTVSPropertyOp34
 70
     0
102
RTVSPropertyOp35
 70
     0
102
RTVSPropertyOp36
 70
     0
102
RTVSPropertyOp37
 70
     0
102
RTVSPropertyOp38
 70
     0
102
RTVSPropertyOp39
 70
     0
102
RTVSPropertyOp40
 70
     0
102
RTVSPropertyOp41
 70
     0
102
RTVSPropertyOp42
 70
     0
102
RTVSPropertyOp43
 70
     0
102
RTVSPropertyOp44
 70
     0
102
RTVSPropertyOp45
 70
     0
102
RTVSPropertyOp46
 70
     0
102
RTVSPropertyOp47
 70
     0
102
RTVSPropertyOp48
 70
     0
102
RTVSPropertyOp49
 70
     0
102
RTVSPropertyOp50
 70
     0
102
RTVSPropertyOp51
 70
     0
102
RTVSPropertyOp52
 70
     0
102
RTVSPropertyOp53
 70
     0
102
RTVSPropertyOp54
 70
     0
102
RTVSPropertyOp55
 70
     0
102
RTVSPropertyOp56
 70
     0
102
RTVSPropertyOp57
 70
     0
102
RTVSPost2010Prop28
280
     0
102
RTVSPost2010PropOp28
 70
     0
102
RTVSPost2010Prop29
280
     1
102
RTVSPost2010PropOp29
 70
     0
102
RTVSPost2010Prop30
280
     1
102
RTVSPost2010PropOp30
 70
     0
102
RTVSPost2010Prop31
280
     0
102
RTVSPost2010PropOp31
 70
     0
102
RTVSPost2010Prop32
280
     0
102
RTVSPost2010PropOp32
 70
     0
102
RTVSPost2010Prop33
280
     0
102
RTVSPost2010PropOp33
 70
     0
102
RTVSPost2010Prop34
280
     0
102
RTVSPost2010PropOp34
 70
     0
102
RTVSPost2010Prop35
280
     0
102
RTVSPost2010PropOp35
 70
     0
102
RTVSPost2010Prop36
280
     0
102
RTVSPost2010PropOp36
 70
     0
102
RTVSPost2010Prop37
 90
       50
102
RTVSPost2010PropOp37
 70
     0
102
RTVSPost2010Prop38
140
0.0
102
RTVSPost2010PropOp38
 70
     0
102
RTVSPost2010Prop39
140
1.0
102
RTVSPost2010PropOp39
 70
     0
102
RTVSPost2010Prop40
 90
        0
102
RTVSPost2010PropOp40
 70
     0
102
RTVSPost2010Prop41ColorIndex
 90
       18
102
RTVSPost2010Prop41ColorRGB
 90
        0
102
RTVSPost2010PropOp41
 70
     0
102
RTVSPost2010Prop42
 90
       50
102
RTVSPost2010PropOp42
 70
     0
102
RTVSPost2010Prop43
 90
        3
102
RTVSPost2010PropOp43
 70
     0
102
RTVSPost2010Prop44ColorIndex
 90
        5
102
RTVSPost2010Prop44ColorRGB
 90
      255
102
RTVSPost2010PropOp44
 70
     0
102
RTVSPost2010Prop45
280
     0
102
RTVSPost2010PropOp45
 70
     0
102
RTVSPost2010Prop46
 90
       50
102
RTVSPost2010PropOp46
 70
     0
102
RTVSPost2010Prop47
 90
       50
102
RTVSPost2010PropOp47
 70
     0
102
RTVSPost2010Prop48
 90
       50
102
RTVSPost2010PropOp48
 70
     0
102
RTVSPost2010Prop49
280
     0
102
RTVSPost2010PropOp49
 70
     0
102
RTVSPost2010Prop50
 90
       50
102
RTVSPost2010PropOp50
 70
     0
102
RTVSPost2010Prop51ColorIndex
 90
      256
102
RTVSPost2010Prop51ColorRGB
 90
-16777216
102
RTVSPost2010PropOp51
 70
     0
102
RTVSPost2010Prop52
140
1.0
102
RTVSPost2010PropOp52
 70
     0
102
RTVSPost2010Prop53
 90
        2
102
RTVSPost2010PropOp53
 70
     0
102
RTVSPost2010Prop54
  1
strokes_ogs.tif
102
RTVSPost2010PropOp54
 70
     0
102
RTVSPost2010Prop55
280
     0
102
RTVSPost2010PropOp55
 70
     0
102
RTVSPost2010Prop56
140
1.0
102
RTVSPost2010PropOp56
 70
     0
102
RTVSPost2010Prop57
140
1.0
102
RTVSPost2010PropOp57
 70
     0
  0
XRECORD
  5
5A7
102
{ACAD_REACTORS
330
5A6
102
}
330
5A6
100
AcDbXrecord
280
     1
102
RTVSPropertyOp0
 70
     1
102
RTVSPropertyOp1
 70
     1
102
RTVSPropertyOp2
 70
     1
102
RTVSPropertyOp3
 70
     1
102
RTVSPropertyOp4
 70
     1
102
RTVSPropertyOp5
 70
     1
102
RTVSPropertyOp6
 70
     1
102
RTVSPropertyOp7
 70
     1
102
RTVSPropertyOp8
 70
     1
102
RTVSPropertyOp9
 70
     1
102
RTVSPropertyOp10
 70
     1
102
RTVSPropertyOp11
 70
     1
102
RTVSPropertyOp12
 70
     1
102
RTVSPropertyOp13
 70
     1
102
RTVSPropertyOp14
 70
     1
102
RTVSPropertyOp15
 70
     1
102
RTVSPropertyOp16
 70
     1
102
RTVSPropertyOp17
 70
     1
102
RTVSPropertyOp18
 70
     1
102
RTVSPropertyOp19
 70
     1
102
RTVSPropertyOp20
 70
     1
102
RTVSPropertyOp21
 70
     1
102
RTVSPropertyOp22
 70
     1
102
RTVSPropertyOp23
 70
     1
102
RTVSPropertyOp24
 70
     1
102
RTVSPropertyOp25
 70
     1
102
RTVSPropertyOp26
 70
     1
102
RTVSPropertyOp27
 70
     1
102
RTVSPropertyOp28
 70
     1
102
RTVSPropertyOp29
 70
     1
102
RTVSPropertyOp30
 70
     1
102
RTVSPropertyOp31
 70
     1
102
RTVSPropertyOp32
 70
     1
102
RTVSPropertyOp33
 70
     1
102
RTVSPropertyOp34
 70
     1
102
RTVSPropertyOp35
 70
     1
102
RTVSPropertyOp36
 70
     1
102
RTVSPropertyOp37
 70
     1
102
RTVSPropertyOp38
 70
     1
102
RTVSPropertyOp39
 70
     1
102
RTVSPropertyOp40
 70
     1
102
RTVSPropertyOp41
 70
     1
102
RTVSPropertyOp42
 70
     1
102
RTVSPropertyOp43
 70
     1
102
RTVSPropertyOp44
 70
     1
102
RTVSPropertyOp45
 70
     1
102
RTVSPropertyOp46
 70
     1
102
RTVSPropertyOp47
 70
     1
102
RTVSPropertyOp48
 70
     1
102
RTVSPropertyOp49
 70
     1
102
RTVSPropertyOp50
 70
     1
102
RTVSPropertyOp51
 70
     0
102
RTVSPropertyOp52
 70
     0
102
RTVSPropertyOp53
 70
     1
102
RTVSPropertyOp54
 70
     1
102
RTVSPropertyOp55
 70
     1
102
RTVSPropertyOp56
 70
     1
102
RTVSPropertyOp57
 70
     1
102
RTVSPost2010Prop28
280
     0
102
RTVSPost2010PropOp28
 70
     1
102
RTVSPost2010Prop29
280
     1
102
RTVSPost2010PropOp29
 70
     1
102
RTVSPost2010Prop30
280
     1
102
RTVSPost2010PropOp30
 70
     1
102
RTVSPost2010Prop31
280
     0
102
RTVSPost2010PropOp31
 70
     1
102
RTVSPost2010Prop32
280
     0
102
RTVSPost2010PropOp32
 70
     1
102
RTVSPost2010Prop33
280
     0
102
RTVSPost2010PropOp33
 70
     1
102
RTVSPost2010Prop34
280
     0
102
RTVSPost2010PropOp34
 70
     1
102
RTVSPost2010Prop35
280
     0
102
RTVSPost2010PropOp35
 70
     1
102
RTVSPost2010Prop36
280
     0
102
RTVSPost2010PropOp36
 70
     1
102
RTVSPost2010Prop37
 90
       50
102
RTVSPost2010PropOp37
 70
     1
102
RTVSPost2010Prop38
140
0.0
102
RTVSPost2010PropOp38
 70
     1
102
RTVSPost2010Prop39
140
1.0
102
RTVSPost2010PropOp39
 70
     1
102
RTVSPost2010Prop40
 90
        0
102
RTVSPost2010PropOp40
 70
     1
102
RTVSPost2010Prop41ColorIndex
 90
       18
102
RTVSPost2010Prop41ColorRGB
 90
        0
102
RTVSPost2010PropOp41
 70
     1
102
RTVSPost2010Prop42
 90
       50
102
RTVSPost2010PropOp42
 70
     1
102
RTVSPost2010Prop43
 90
        3
102
RTVSPost2010PropOp43
 70
     1
102
RTVSPost2010Prop44ColorIndex
 90
        5
102
RTVSPost2010Prop44ColorRGB
 90
      255
102
RTVSPost2010PropOp44
 70
     1
102
RTVSPost2010Prop45
280
     0
102
RTVSPost2010PropOp45
 70
     1
102
RTVSPost2010Prop46
 90
       50
102
RTVSPost2010PropOp46
 70
     1
102
RTVSPost2010Prop47
 90
       50
102
RTVSPost2010PropOp47
 70
     1
102
RTVSPost2010Prop48
 90
       50
102
RTVSPost2010PropOp48
 70
     1
102
RTVSPost2010Prop49
280
     0
102
RTVSPost2010PropOp49
 70
     1
102
RTVSPost2010Prop50
 90
       50
102
RTVSPost2010PropOp50
 70
     1
102
RTVSPost2010Prop51ColorIndex
 90
      256
102
RTVSPost2010Prop51ColorRGB
 90
-16777216
102
RTVSPost2010PropOp51
 70
     0
102
RTVSPost2010Prop52
140
1.0
102
RTVSPost2010PropOp52
 70
     0
102
RTVSPost2010Prop53
 90
        2
102
RTVSPost2010PropOp53
 70
     1
102
RTVSPost2010Prop54
  1
strokes_ogs.tif
102
RTVSPost2010PropOp54
 70
     1
102
RTVSPost2010Prop55
280
     0
102
RTVSPost2010PropOp55
 70
     1
102
RTVSPost2010Prop56
140
1.0
102
RTVSPost2010PropOp56
 70
     1
102
RTVSPost2010Prop57
140
1.0
102
RTVSPost2010PropOp57
 70
     1
  0
XRECORD
  5
5AF
102
{ACAD_REACTORS
330
5AE
102
}
330
5AE
100
AcDbXrecord
280
     1
102
RTVSPropertyOp0
 70
     0
102
RTVSPropertyOp1
 70
     0
102
RTVSPropertyOp2
 70
     0
102
RTVSPropertyOp3
 70
     0
102
RTVSPropertyOp4
 70
     0
102
RTVSPropertyOp5
 70
     0
102
RTVSPropertyOp6
 70
     0
102
RTVSPropertyOp7
 70
     0
102
RTVSPropertyOp8
 70
     0
102
RTVSPropertyOp9
 70
     0
102
RTVSPropertyOp10
 70
     0
102
RTVSPropertyOp11
 70
     0
102
RTVSPropertyOp12
 70
     0
102
RTVSPropertyOp13
 70
     0
102
RTVSPropertyOp14
 70
     2
102
RTVSPropertyOp15
 70
     0
102
RTVSPropertyOp16
 70
     0
102
RTVSPropertyOp17
 70
     0
102
RTVSPropertyOp18
 70
     0
102
RTVSPropertyOp19
 70
     0
102
RTVSPropertyOp20
 70
     0
102
RTVSPropertyOp21
 70
     0
102
RTVSPropertyOp22
 70
     0
102
RTVSPropertyOp23
 70
     0
102
RTVSPropertyOp24
 70
     0
102
RTVSPropertyOp25
 70
     0
102
RTVSPropertyOp26
 70
     0
102
RTVSPropertyOp27
 70
     0
102
RTVSPropertyOp28
 70
     0
102
RTVSPropertyOp29
 70
     0
102
RTVSPropertyOp30
 70
     0
102
RTVSPropertyOp31
 70
     0
102
RTVSPropertyOp32
 70
     0
102
RTVSPropertyOp33
 70
     0
102
RTVSPropertyOp34
 70
     0
102
RTVSPropertyOp35
 70
     0
102
RTVSPropertyOp36
 70
     0
102
RTVSPropertyOp37
 70
     0
102
RTVSPropertyOp38
 70
     0
102
RTVSPropertyOp39
 70
     0
102
RTVSPropertyOp40
 70
     0
102
RTVSPropertyOp41
 70
     0
102
RTVSPropertyOp42
 70
     0
102
RTVSPropertyOp43
 70
     0
102
RTVSPropertyOp44
 70
     0
102
RTVSPropertyOp45
 70
     0
102
RTVSPropertyOp46
 70
     0
102
RTVSPropertyOp47
 70
     0
102
RTVSPropertyOp48
 70
     0
102
RTVSPropertyOp49
 70
     0
102
RTVSPropertyOp50
 70
     0
102
RTVSPropertyOp51
 70
     0
102
RTVSPropertyOp52
 70
     0
102
RTVSPropertyOp53
 70
     0
102
RTVSPropertyOp54
 70
     0
102
RTVSPropertyOp55
 70
     0
102
RTVSPropertyOp56
 70
     0
102
RTVSPropertyOp57
 70
     0
102
RTVSPost2010Prop28
280
     0
102
RTVSPost2010PropOp28
 70
     0
102
RTVSPost2010Prop29
280
     1
102
RTVSPost2010PropOp29
 70
     0
102
RTVSPost2010Prop30
280
     1
102
RTVSPost2010PropOp30
 70
     0
102
RTVSPost2010Prop31
280
     0
102
RTVSPost2010PropOp31
 70
     0
102
RTVSPost2010Prop32
280
     0
102
RTVSPost2010PropOp32
 70
     0
102
RTVSPost2010Prop33
280
     0
102
RTVSPost2010PropOp33
 70
     0
102
RTVSPost2010Prop34
280
     0
102
RTVSPost2010PropOp34
 70
     0
102
RTVSPost2010Prop35
280
     0
102
RTVSPost2010PropOp35
 70
     0
102
RTVSPost2010Prop36
280
     0
102
RTVSPost2010PropOp36
 70
     0
102
RTVSPost2010Prop37
 90
       50
102
RTVSPost2010PropOp37
 70
     0
102
RTVSPost2010Prop38
140
0.0
102
RTVSPost2010PropOp38
 70
     0
102
RTVSPost2010Prop39
140
1.0
102
RTVSPost2010PropOp39
 70
     0
102
RTVSPost2010Prop40
 90
        0
102
RTVSPost2010PropOp40
 70
     0
102
RTVSPost2010Prop41ColorIndex
 90
       18
102
RTVSPost2010Prop41ColorRGB
 90
        0
102
RTVSPost2010PropOp41
 70
     0
102
RTVSPost2010Prop42
 90
       50
102
RTVSPost2010PropOp42
 70
     0
102
RTVSPost2010Prop43
 90
        3
102
RTVSPost2010PropOp43
 70
     0
102
RTVSPost2010Prop44ColorIndex
 90
        5
102
RTVSPost2010Prop44ColorRGB
 90
      255
102
RTVSPost2010PropOp44
 70
     0
102
RTVSPost2010Prop45
280
     0
102
RTVSPost2010PropOp45
 70
     0
102
RTVSPost2010Prop46
 90
       50
102
RTVSPost2010PropOp46
 70
     0
102
RTVSPost2010Prop47
 90
       50
102
RTVSPost2010PropOp47
 70
     0
102
RTVSPost2010Prop48
 90
       50
102
RTVSPost2010PropOp48
 70
     0
102
RTVSPost2010Prop49
280
     0
102
RTVSPost2010PropOp49
 70
     0
102
RTVSPost2010Prop50
 90
       50
102
RTVSPost2010PropOp50
 70
     0
102
RTVSPost2010Prop51ColorIndex
 90
      256
102
RTVSPost2010Prop51ColorRGB
 90
-16777216
102
RTVSPost2010PropOp51
 70
     0
102
RTVSPost2010Prop52
140
1.0
102
RTVSPost2010PropOp52
 70
     0
102
RTVSPost2010Prop53
 90
        2
102
RTVSPost2010PropOp53
 70
     0
102
RTVSPost2010Prop54
  1
strokes_ogs.tif
102
RTVSPost2010PropOp54
 70
     0
102
RTVSPost2010Prop55
280
     0
102
RTVSPost2010PropOp55
 70
     0
102
RTVSPost2010Prop56
140
1.0
102
RTVSPost2010PropOp56
 70
     0
102
RTVSPost2010Prop57
140
1.0
102
RTVSPost2010PropOp57
 70
     0
  0
XRECORD
  5
59D
102
{ACAD_REACTORS
330
59C
102
}
330
59C
100
AcDbXrecord
280
     1
102
RTVSPropertyOp0
 70
     1
102
RTVSPropertyOp1
 70
     1
102
RTVSPropertyOp2
 70
     1
102
RTVSPropertyOp3
 70
     1
102
RTVSPropertyOp4
 70
     1
102
RTVSPropertyOp5
 70
     1
102
RTVSPropertyOp6
 70
     1
102
RTVSPropertyOp7
 70
     1
102
RTVSPropertyOp8
 70
     1
102
RTVSPropertyOp9
 70
     1
102
RTVSPropertyOp10
 70
     1
102
RTVSPropertyOp11
 70
     1
102
RTVSPropertyOp12
 70
     1
102
RTVSPropertyOp13
 70
     1
102
RTVSPropertyOp14
 70
     1
102
RTVSPropertyOp15
 70
     1
102
RTVSPropertyOp16
 70
     1
102
RTVSPropertyOp17
 70
     1
102
RTVSPropertyOp18
 70
     1
102
RTVSPropertyOp19
 70
     1
102
RTVSPropertyOp20
 70
     1
102
RTVSPropertyOp21
 70
     1
102
RTVSPropertyOp22
 70
     1
102
RTVSPropertyOp23
 70
     1
102
RTVSPropertyOp24
 70
     1
102
RTVSPropertyOp25
 70
     1
102
RTVSPropertyOp26
 70
     1
102
RTVSPropertyOp27
 70
     1
102
RTVSPropertyOp28
 70
     1
102
RTVSPropertyOp29
 70
     1
102
RTVSPropertyOp30
 70
     1
102
RTVSPropertyOp31
 70
     1
102
RTVSPropertyOp32
 70
     1
102
RTVSPropertyOp33
 70
     1
102
RTVSPropertyOp34
 70
     1
102
RTVSPropertyOp35
 70
     1
102
RTVSPropertyOp36
 70
     1
102
RTVSPropertyOp37
 70
     1
102
RTVSPropertyOp38
 70
     1
102
RTVSPropertyOp39
 70
     1
102
RTVSPropertyOp40
 70
     1
102
RTVSPropertyOp41
 70
     1
102
RTVSPropertyOp42
 70
     1
102
RTVSPropertyOp43
 70
     1
102
RTVSPropertyOp44
 70
     1
102
RTVSPropertyOp45
 70
     1
102
RTVSPropertyOp46
 70
     1
102
RTVSPropertyOp47
 70
     1
102
RTVSPropertyOp48
 70
     1
102
RTVSPropertyOp49
 70
     1
102
RTVSPropertyOp50
 70
     1
102
RTVSPropertyOp51
 70
     0
102
RTVSPropertyOp52
 70
     0
102
RTVSPropertyOp53
 70
     1
102
RTVSPropertyOp54
 70
     1
102
RTVSPropertyOp55
 70
     1
102
RTVSPropertyOp56
 70
     1
102
RTVSPropertyOp57
 70
     1
102
RTVSPost2010Prop28
280
     0
102
RTVSPost2010PropOp28
 70
     1
102
RTVSPost2010Prop29
280
     1
102
RTVSPost2010PropOp29
 70
     1
102
RTVSPost2010Prop30
280
     1
102
RTVSPost2010PropOp30
 70
     1
102
RTVSPost2010Prop31
280
     0
102
RTVSPost2010PropOp31
 70
     1
102
RTVSPost2010Prop32
280
     0
102
RTVSPost2010PropOp32
 70
     1
102
RTVSPost2010Prop33
280
     0
102
RTVSPost2010PropOp33
 70
     1
102
RTVSPost2010Prop34
280
     0
102
RTVSPost2010PropOp34
 70
     1
102
RTVSPost2010Prop35
280
     0
102
RTVSPost2010PropOp35
 70
     1
102
RTVSPost2010Prop36
280
     0
102
RTVSPost2010PropOp36
 70
     1
102
RTVSPost2010Prop37
 90
       50
102
RTVSPost2010PropOp37
 70
     1
102
RTVSPost2010Prop38
140
0.0
102
RTVSPost2010PropOp38
 70
     1
102
RTVSPost2010Prop39
140
1.0
102
RTVSPost2010PropOp39
 70
     1
102
RTVSPost2010Prop40
 90
        0
102
RTVSPost2010PropOp40
 70
     1
102
RTVSPost2010Prop41ColorIndex
 90
       18
102
RTVSPost2010Prop41ColorRGB
 90
        0
102
RTVSPost2010PropOp41
 70
     1
102
RTVSPost2010Prop42
 90
       50
102
RTVSPost2010PropOp42
 70
     1
102
RTVSPost2010Prop43
 90
        3
102
RTVSPost2010PropOp43
 70
     1
102
RTVSPost2010Prop44ColorIndex
 90
        5
102
RTVSPost2010Prop44ColorRGB
 90
      255
102
RTVSPost2010PropOp44
 70
     1
102
RTVSPost2010Prop45
280
     0
102
RTVSPost2010PropOp45
 70
     1
102
RTVSPost2010Prop46
 90
       50
102
RTVSPost2010PropOp46
 70
     1
102
RTVSPost2010Prop47
 90
       50
102
RTVSPost2010PropOp47
 70
     1
102
RTVSPost2010Prop48
 90
       50
102
RTVSPost2010PropOp48
 70
     1
102
RTVSPost2010Prop49
280
     0
102
RTVSPost2010PropOp49
 70
     1
102
RTVSPost2010Prop50
 90
       50
102
RTVSPost2010PropOp50
 70
     1
102
RTVSPost2010Prop51ColorIndex
 90
      256
102
RTVSPost2010Prop51ColorRGB
 90
-16777216
102
RTVSPost2010PropOp51
 70
     0
102
RTVSPost2010Prop52
140
1.0
102
RTVSPost2010PropOp52
 70
     0
102
RTVSPost2010Prop53
 90
        2
102
RTVSPost2010PropOp53
 70
     1
102
RTVSPost2010Prop54
  1
strokes_ogs.tif
102
RTVSPost2010PropOp54
 70
     1
102
RTVSPost2010Prop55
280
     0
102
RTVSPost2010PropOp55
 70
     1
102
RTVSPost2010Prop56
140
1.0
102
RTVSPost2010PropOp56
 70
     1
102
RTVSPost2010Prop57
140
1.0
102
RTVSPost2010PropOp57
 70
     1
  0
XRECORD
  5
5BB
102
{ACAD_REACTORS
330
5BA
102
}
330
5BA
100
AcDbXrecord
280
     1
102
RTVSPropertyOp0
 70
     1
102
RTVSPropertyOp1
 70
     1
102
RTVSPropertyOp2
 70
     1
102
RTVSPropertyOp3
 70
     1
102
RTVSPropertyOp4
 70
     1
102
RTVSPropertyOp5
 70
     1
102
RTVSPropertyOp6
 70
     1
102
RTVSPropertyOp7
 70
     1
102
RTVSPropertyOp8
 70
     1
102
RTVSPropertyOp9
 70
     1
102
RTVSPropertyOp10
 70
     1
102
RTVSPropertyOp11
 70
     1
102
RTVSPropertyOp12
 70
     1
102
RTVSPropertyOp13
 70
     1
102
RTVSPropertyOp14
 70
     1
102
RTVSPropertyOp15
 70
     1
102
RTVSPropertyOp16
 70
     1
102
RTVSPropertyOp17
 70
     1
102
RTVSPropertyOp18
 70
     1
102
RTVSPropertyOp19
 70
     1
102
RTVSPropertyOp20
 70
     1
102
RTVSPropertyOp21
 70
     1
102
RTVSPropertyOp22
 70
     1
102
RTVSPropertyOp23
 70
     1
102
RTVSPropertyOp24
 70
     1
102
RTVSPropertyOp25
 70
     1
102
RTVSPropertyOp26
 70
     1
102
RTVSPropertyOp27
 70
     1
102
RTVSPropertyOp28
 70
     1
102
RTVSPropertyOp29
 70
     1
102
RTVSPropertyOp30
 70
     1
102
RTVSPropertyOp31
 70
     1
102
RTVSPropertyOp32
 70
     1
102
RTVSPropertyOp33
 70
     1
102
RTVSPropertyOp34
 70
     1
102
RTVSPropertyOp35
 70
     1
102
RTVSPropertyOp36
 70
     1
102
RTVSPropertyOp37
 70
     1
102
RTVSPropertyOp38
 70
     1
102
RTVSPropertyOp39
 70
     1
102
RTVSPropertyOp40
 70
     1
102
RTVSPropertyOp41
 70
     1
102
RTVSPropertyOp42
 70
     1
102
RTVSPropertyOp43
 70
     1
102
RTVSPropertyOp44
 70
     1
102
RTVSPropertyOp45
 70
     1
102
RTVSPropertyOp46
 70
     1
102
RTVSPropertyOp47
 70
     1
102
RTVSPropertyOp48
 70
     1
102
RTVSPropertyOp49
 70
     1
102
RTVSPropertyOp50
 70
     1
102
RTVSPropertyOp51
 70
     0
102
RTVSPropertyOp52
 70
     0
102
RTVSPropertyOp53
 70
     1
102
RTVSPropertyOp54
 70
     1
102
RTVSPropertyOp55
 70
     1
102
RTVSPropertyOp56
 70
     1
102
RTVSPropertyOp57
 70
     1
102
RTVSPost2010Prop28
280
     0
102
RTVSPost2010PropOp28
 70
     1
102
RTVSPost2010Prop29
280
     1
102
RTVSPost2010PropOp29
 70
     1
102
RTVSPost2010Prop30
280
     1
102
RTVSPost2010PropOp30
 70
     1
102
RTVSPost2010Prop31
280
     0
102
RTVSPost2010PropOp31
 70
     1
102
RTVSPost2010Prop32
280
     0
102
RTVSPost2010PropOp32
 70
     1
102
RTVSPost2010Prop33
280
     0
102
RTVSPost2010PropOp33
 70
     1
102
RTVSPost2010Prop34
280
     0
102
RTVSPost2010PropOp34
 70
     1
102
RTVSPost2010Prop35
280
     0
102
RTVSPost2010PropOp35
 70
     1
102
RTVSPost2010Prop36
280
     0
102
RTVSPost2010PropOp36
 70
     1
102
RTVSPost2010Prop37
 90
       50
102
RTVSPost2010PropOp37
 70
     1
102
RTVSPost2010Prop38
140
0.0
102
RTVSPost2010PropOp38
 70
     1
102
RTVSPost2010Prop39
140
1.0
102
RTVSPost2010PropOp39
 70
     1
102
RTVSPost2010Prop40
 90
        0
102
RTVSPost2010PropOp40
 70
     1
102
RTVSPost2010Prop41ColorIndex
 90
       18
102
RTVSPost2010Prop41ColorRGB
 90
        0
102
RTVSPost2010PropOp41
 70
     1
102
RTVSPost2010Prop42
 90
       50
102
RTVSPost2010PropOp42
 70
     1
102
RTVSPost2010Prop43
 90
        3
102
RTVSPost2010PropOp43
 70
     1
102
RTVSPost2010Prop44ColorIndex
 90
        5
102
RTVSPost2010Prop44ColorRGB
 90
      255
102
RTVSPost2010PropOp44
 70
     1
102
RTVSPost2010Prop45
280
     0
102
RTVSPost2010PropOp45
 70
     1
102
RTVSPost2010Prop46
 90
       50
102
RTVSPost2010PropOp46
 70
     1
102
RTVSPost2010Prop47
 90
       50
102
RTVSPost2010PropOp47
 70
     1
102
RTVSPost2010Prop48
 90
       50
102
RTVSPost2010PropOp48
 70
     1
102
RTVSPost2010Prop49
280
     0
102
RTVSPost2010PropOp49
 70
     1
102
RTVSPost2010Prop50
 90
       50
102
RTVSPost2010PropOp50
 70
     1
102
RTVSPost2010Prop51ColorIndex
 90
      256
102
RTVSPost2010Prop51ColorRGB
 90
-16777216
102
RTVSPost2010PropOp51
 70
     0
102
RTVSPost2010Prop52
140
1.0
102
RTVSPost2010PropOp52
 70
     0
102
RTVSPost2010Prop53
 90
        2
102
RTVSPost2010PropOp53
 70
     1
102
RTVSPost2010Prop54
  1
strokes_ogs.tif
102
RTVSPost2010PropOp54
 70
     1
102
RTVSPost2010Prop55
280
     0
102
RTVSPost2010PropOp55
 70
     1
102
RTVSPost2010Prop56
140
1.0
102
RTVSPost2010PropOp56
 70
     1
102
RTVSPost2010Prop57
140
1.0
102
RTVSPost2010PropOp57
 70
     1
  0
XRECORD
  5
5B9
102
{ACAD_REACTORS
330
5B8
102
}
330
5B8
100
AcDbXrecord
280
     1
102
RTVSPropertyOp0
 70
     1
102
RTVSPropertyOp1
 70
     1
102
RTVSPropertyOp2
 70
     1
102
RTVSPropertyOp3
 70
     1
102
RTVSPropertyOp4
 70
     1
102
RTVSPropertyOp5
 70
     1
102
RTVSPropertyOp6
 70
     1
102
RTVSPropertyOp7
 70
     1
102
RTVSPropertyOp8
 70
     1
102
RTVSPropertyOp9
 70
     1
102
RTVSPropertyOp10
 70
     1
102
RTVSPropertyOp11
 70
     1
102
RTVSPropertyOp12
 70
     1
102
RTVSPropertyOp13
 70
     1
102
RTVSPropertyOp14
 70
     1
102
RTVSPropertyOp15
 70
     1
102
RTVSPropertyOp16
 70
     1
102
RTVSPropertyOp17
 70
     1
102
RTVSPropertyOp18
 70
     1
102
RTVSPropertyOp19
 70
     1
102
RTVSPropertyOp20
 70
     1
102
RTVSPropertyOp21
 70
     1
102
RTVSPropertyOp22
 70
     1
102
RTVSPropertyOp23
 70
     1
102
RTVSPropertyOp24
 70
     1
102
RTVSPropertyOp25
 70
     1
102
RTVSPropertyOp26
 70
     1
102
RTVSPropertyOp27
 70
     1
102
RTVSPropertyOp28
 70
     1
102
RTVSPropertyOp29
 70
     1
102
RTVSPropertyOp30
 70
     1
102
RTVSPropertyOp31
 70
     1
102
RTVSPropertyOp32
 70
     1
102
RTVSPropertyOp33
 70
     1
102
RTVSPropertyOp34
 70
     1
102
RTVSPropertyOp35
 70
     1
102
RTVSPropertyOp36
 70
     1
102
RTVSPropertyOp37
 70
     1
102
RTVSPropertyOp38
 70
     1
102
RTVSPropertyOp39
 70
     1
102
RTVSPropertyOp40
 70
     1
102
RTVSPropertyOp41
 70
     1
102
RTVSPropertyOp42
 70
     1
102
RTVSPropertyOp43
 70
     1
102
RTVSPropertyOp44
 70
     1
102
RTVSPropertyOp45
 70
     1
102
RTVSPropertyOp46
 70
     1
102
RTVSPropertyOp47
 70
     1
102
RTVSPropertyOp48
 70
     1
102
RTVSPropertyOp49
 70
     1
102
RTVSPropertyOp50
 70
     1
102
RTVSPropertyOp51
 70
     0
102
RTVSPropertyOp52
 70
     0
102
RTVSPropertyOp53
 70
     1
102
RTVSPropertyOp54
 70
     1
102
RTVSPropertyOp55
 70
     1
102
RTVSPropertyOp56
 70
     1
102
RTVSPropertyOp57
 70
     1
102
RTVSPost2010Prop28
280
     0
102
RTVSPost2010PropOp28
 70
     1
102
RTVSPost2010Prop29
280
     1
102
RTVSPost2010PropOp29
 70
     1
102
RTVSPost2010Prop30
280
     1
102
RTVSPost2010PropOp30
 70
     1
102
RTVSPost2010Prop31
280
     0
102
RTVSPost2010PropOp31
 70
     1
102
RTVSPost2010Prop32
280
     0
102
RTVSPost2010PropOp32
 70
     1
102
RTVSPost2010Prop33
280
     0
102
RTVSPost2010PropOp33
 70
     1
102
RTVSPost2010Prop34
280
     0
102
RTVSPost2010PropOp34
 70
     1
102
RTVSPost2010Prop35
280
     0
102
RTVSPost2010PropOp35
 70
     1
102
RTVSPost2010Prop36
280
     0
102
RTVSPost2010PropOp36
 70
     1
102
RTVSPost2010Prop37
 90
       50
102
RTVSPost2010PropOp37
 70
     1
102
RTVSPost2010Prop38
140
0.0
102
RTVSPost2010PropOp38
 70
     1
102
RTVSPost2010Prop39
140
1.0
102
RTVSPost2010PropOp39
 70
     1
102
RTVSPost2010Prop40
 90
        0
102
RTVSPost2010PropOp40
 70
     1
102
RTVSPost2010Prop41ColorIndex
 90
       18
102
RTVSPost2010Prop41ColorRGB
 90
        0
102
RTVSPost2010PropOp41
 70
     1
102
RTVSPost2010Prop42
 90
       50
102
RTVSPost2010PropOp42
 70
     1
102
RTVSPost2010Prop43
 90
        3
102
RTVSPost2010PropOp43
 70
     1
102
RTVSPost2010Prop44ColorIndex
 90
        5
102
RTVSPost2010Prop44ColorRGB
 90
      255
102
RTVSPost2010PropOp44
 70
     1
102
RTVSPost2010Prop45
280
     0
102
RTVSPost2010PropOp45
 70
     1
102
RTVSPost2010Prop46
 90
       50
102
RTVSPost2010PropOp46
 70
     1
102
RTVSPost2010Prop47
 90
       50
102
RTVSPost2010PropOp47
 70
     1
102
RTVSPost2010Prop48
 90
       50
102
RTVSPost2010PropOp48
 70
     1
102
RTVSPost2010Prop49
280
     0
102
RTVSPost2010PropOp49
 70
     1
102
RTVSPost2010Prop50
 90
       50
102
RTVSPost2010PropOp50
 70
     1
102
RTVSPost2010Prop51ColorIndex
 90
      256
102
RTVSPost2010Prop51ColorRGB
 90
-16777216
102
RTVSPost2010PropOp51
 70
     0
102
RTVSPost2010Prop52
140
1.0
102
RTVSPost2010PropOp52
 70
     0
102
RTVSPost2010Prop53
 90
        2
102
RTVSPost2010PropOp53
 70
     1
102
RTVSPost2010Prop54
  1
strokes_ogs.tif
102
RTVSPost2010PropOp54
 70
     1
102
RTVSPost2010Prop55
280
     0
102
RTVSPost2010PropOp55
 70
     1
102
RTVSPost2010Prop56
140
1.0
102
RTVSPost2010PropOp56
 70
     1
102
RTVSPost2010Prop57
140
1.0
102
RTVSPost2010PropOp57
 70
     1
  0
XRECORD
  5
5B3
102
{ACAD_REACTORS
330
5B2
102
}
330
5B2
100
AcDbXrecord
280
     1
102
RTVSPropertyOp0
 70
     1
102
RTVSPropertyOp1
 70
     1
102
RTVSPropertyOp2
 70
     1
102
RTVSPropertyOp3
 70
     1
102
RTVSPropertyOp4
 70
     1
102
RTVSPropertyOp5
 70
     1
102
RTVSPropertyOp6
 70
     1
102
RTVSPropertyOp7
 70
     1
102
RTVSPropertyOp8
 70
     1
102
RTVSPropertyOp9
 70
     1
102
RTVSPropertyOp10
 70
     1
102
RTVSPropertyOp11
 70
     1
102
RTVSPropertyOp12
 70
     1
102
RTVSPropertyOp13
 70
     1
102
RTVSPropertyOp14
 70
     1
102
RTVSPropertyOp15
 70
     1
102
RTVSPropertyOp16
 70
     1
102
RTVSPropertyOp17
 70
     1
102
RTVSPropertyOp18
 70
     1
102
RTVSPropertyOp19
 70
     1
102
RTVSPropertyOp20
 70
     1
102
RTVSPropertyOp21
 70
     1
102
RTVSPropertyOp22
 70
     1
102
RTVSPropertyOp23
 70
     1
102
RTVSPropertyOp24
 70
     1
102
RTVSPropertyOp25
 70
     1
102
RTVSPropertyOp26
 70
     1
102
RTVSPropertyOp27
 70
     1
102
RTVSPropertyOp28
 70
     1
102
RTVSPropertyOp29
 70
     1
102
RTVSPropertyOp30
 70
     1
102
RTVSPropertyOp31
 70
     1
102
RTVSPropertyOp32
 70
     1
102
RTVSPropertyOp33
 70
     1
102
RTVSPropertyOp34
 70
     1
102
RTVSPropertyOp35
 70
     1
102
RTVSPropertyOp36
 70
     1
102
RTVSPropertyOp37
 70
     1
102
RTVSPropertyOp38
 70
     1
102
RTVSPropertyOp39
 70
     1
102
RTVSPropertyOp40
 70
     1
102
RTVSPropertyOp41
 70
     1
102
RTVSPropertyOp42
 70
     1
102
RTVSPropertyOp43
 70
     1
102
RTVSPropertyOp44
 70
     1
102
RTVSPropertyOp45
 70
     1
102
RTVSPropertyOp46
 70
     1
102
RTVSPropertyOp47
 70
     1
102
RTVSPropertyOp48
 70
     1
102
RTVSPropertyOp49
 70
     1
102
RTVSPropertyOp50
 70
     1
102
RTVSPropertyOp51
 70
     0
102
RTVSPropertyOp52
 70
     0
102
RTVSPropertyOp53
 70
     1
102
RTVSPropertyOp54
 70
     1
102
RTVSPropertyOp55
 70
     1
102
RTVSPropertyOp56
 70
     1
102
RTVSPropertyOp57
 70
     1
102
RTVSPost2010Prop28
280
     0
102
RTVSPost2010PropOp28
 70
     1
102
RTVSPost2010Prop29
280
     1
102
RTVSPost2010PropOp29
 70
     1
102
RTVSPost2010Prop30
280
     1
102
RTVSPost2010PropOp30
 70
     1
102
RTVSPost2010Prop31
280
     0
102
RTVSPost2010PropOp31
 70
     1
102
RTVSPost2010Prop32
280
     0
102
RTVSPost2010PropOp32
 70
     1
102
RTVSPost2010Prop33
280
     0
102
RTVSPost2010PropOp33
 70
     1
102
RTVSPost2010Prop34
280
     0
102
RTVSPost2010PropOp34
 70
     1
102
RTVSPost2010Prop35
280
     0
102
RTVSPost2010PropOp35
 70
     1
102
RTVSPost2010Prop36
280
     0
102
RTVSPost2010PropOp36
 70
     1
102
RTVSPost2010Prop37
 90
       50
102
RTVSPost2010PropOp37
 70
     1
102
RTVSPost2010Prop38
140
0.0
102
RTVSPost2010PropOp38
 70
     1
102
RTVSPost2010Prop39
140
1.0
102
RTVSPost2010PropOp39
 70
     1
102
RTVSPost2010Prop40
 90
        0
102
RTVSPost2010PropOp40
 70
     1
102
RTVSPost2010Prop41ColorIndex
 90
       18
102
RTVSPost2010Prop41ColorRGB
 90
        0
102
RTVSPost2010PropOp41
 70
     1
102
RTVSPost2010Prop42
 90
       50
102
RTVSPost2010PropOp42
 70
     1
102
RTVSPost2010Prop43
 90
        3
102
RTVSPost2010PropOp43
 70
     1
102
RTVSPost2010Prop44ColorIndex
 90
        5
102
RTVSPost2010Prop44ColorRGB
 90
      255
102
RTVSPost2010PropOp44
 70
     1
102
RTVSPost2010Prop45
280
     0
102
RTVSPost2010PropOp45
 70
     1
102
RTVSPost2010Prop46
 90
       50
102
RTVSPost2010PropOp46
 70
     1
102
RTVSPost2010Prop47
 90
       50
102
RTVSPost2010PropOp47
 70
     1
102
RTVSPost2010Prop48
 90
       50
102
RTVSPost2010PropOp48
 70
     1
102
RTVSPost2010Prop49
280
     0
102
RTVSPost2010PropOp49
 70
     1
102
RTVSPost2010Prop50
 90
       50
102
RTVSPost2010PropOp50
 70
     1
102
RTVSPost2010Prop51ColorIndex
 90
      256
102
RTVSPost2010Prop51ColorRGB
 90
-16777216
102
RTVSPost2010PropOp51
 70
     0
102
RTVSPost2010Prop52
140
1.0
102
RTVSPost2010PropOp52
 70
     0
102
RTVSPost2010Prop53
 90
        2
102
RTVSPost2010PropOp53
 70
     1
102
RTVSPost2010Prop54
  1
strokes_ogs.tif
102
RTVSPost2010PropOp54
 70
     1
102
RTVSPost2010Prop55
280
     0
102
RTVSPost2010PropOp55
 70
     1
102
RTVSPost2010Prop56
140
1.0
102
RTVSPost2010PropOp56
 70
     1
102
RTVSPost2010Prop57
140
1.0
102
RTVSPost2010PropOp57
 70
     1
  0
XRECORD
  5
5B5
102
{ACAD_REACTORS
330
5B4
102
}
330
5B4
100
AcDbXrecord
280
     1
102
RTVSPropertyOp0
 70
     1
102
RTVSPropertyOp1
 70
     1
102
RTVSPropertyOp2
 70
     1
102
RTVSPropertyOp3
 70
     1
102
RTVSPropertyOp4
 70
     1
102
RTVSPropertyOp5
 70
     1
102
RTVSPropertyOp6
 70
     1
102
RTVSPropertyOp7
 70
     1
102
RTVSPropertyOp8
 70
     1
102
RTVSPropertyOp9
 70
     1
102
RTVSPropertyOp10
 70
     1
102
RTVSPropertyOp11
 70
     1
102
RTVSPropertyOp12
 70
     1
102
RTVSPropertyOp13
 70
     1
102
RTVSPropertyOp14
 70
     1
102
RTVSPropertyOp15
 70
     1
102
RTVSPropertyOp16
 70
     1
102
RTVSPropertyOp17
 70
     1
102
RTVSPropertyOp18
 70
     1
102
RTVSPropertyOp19
 70
     1
102
RTVSPropertyOp20
 70
     1
102
RTVSPropertyOp21
 70
     1
102
RTVSPropertyOp22
 70
     1
102
RTVSPropertyOp23
 70
     1
102
RTVSPropertyOp24
 70
     1
102
RTVSPropertyOp25
 70
     1
102
RTVSPropertyOp26
 70
     1
102
RTVSPropertyOp27
 70
     1
102
RTVSPropertyOp28
 70
     1
102
RTVSPropertyOp29
 70
     1
102
RTVSPropertyOp30
 70
     1
102
RTVSPropertyOp31
 70
     1
102
RTVSPropertyOp32
 70
     1
102
RTVSPropertyOp33
 70
     1
102
RTVSPropertyOp34
 70
     1
102
RTVSPropertyOp35
 70
     1
102
RTVSPropertyOp36
 70
     1
102
RTVSPropertyOp37
 70
     1
102
RTVSPropertyOp38
 70
     1
102
RTVSPropertyOp39
 70
     1
102
RTVSPropertyOp40
 70
     1
102
RTVSPropertyOp41
 70
     1
102
RTVSPropertyOp42
 70
     1
102
RTVSPropertyOp43
 70
     1
102
RTVSPropertyOp44
 70
     1
102
RTVSPropertyOp45
 70
     1
102
RTVSPropertyOp46
 70
     1
102
RTVSPropertyOp47
 70
     1
102
RTVSPropertyOp48
 70
     1
102
RTVSPropertyOp49
 70
     1
102
RTVSPropertyOp50
 70
     1
102
RTVSPropertyOp51
 70
     0
102
RTVSPropertyOp52
 70
     0
102
RTVSPropertyOp53
 70
     1
102
RTVSPropertyOp54
 70
     1
102
RTVSPropertyOp55
 70
     1
102
RTVSPropertyOp56
 70
     1
102
RTVSPropertyOp57
 70
     1
102
RTVSPost2010Prop28
280
     0
102
RTVSPost2010PropOp28
 70
     1
102
RTVSPost2010Prop29
280
     1
102
RTVSPost2010PropOp29
 70
     1
102
RTVSPost2010Prop30
280
     1
102
RTVSPost2010PropOp30
 70
     1
102
RTVSPost2010Prop31
280
     0
102
RTVSPost2010PropOp31
 70
     1
102
RTVSPost2010Prop32
280
     0
102
RTVSPost2010PropOp32
 70
     1
102
RTVSPost2010Prop33
280
     0
102
RTVSPost2010PropOp33
 70
     1
102
RTVSPost2010Prop34
280
     0
102
RTVSPost2010PropOp34
 70
     1
102
RTVSPost2010Prop35
280
     0
102
RTVSPost2010PropOp35
 70
     1
102
RTVSPost2010Prop36
280
     0
102
RTVSPost2010PropOp36
 70
     1
102
RTVSPost2010Prop37
 90
       50
102
RTVSPost2010PropOp37
 70
     1
102
RTVSPost2010Prop38
140
0.0
102
RTVSPost2010PropOp38
 70
     1
102
RTVSPost2010Prop39
140
1.0
102
RTVSPost2010PropOp39
 70
     1
102
RTVSPost2010Prop40
 90
        0
102
RTVSPost2010PropOp40
 70
     1
102
RTVSPost2010Prop41ColorIndex
 90
       18
102
RTVSPost2010Prop41ColorRGB
 90
        0
102
RTVSPost2010PropOp41
 70
     1
102
RTVSPost2010Prop42
 90
       50
102
RTVSPost2010PropOp42
 70
     1
102
RTVSPost2010Prop43
 90
        3
102
RTVSPost2010PropOp43
 70
     1
102
RTVSPost2010Prop44ColorIndex
 90
        5
102
RTVSPost2010Prop44ColorRGB
 90
      255
102
RTVSPost2010PropOp44
 70
     1
102
RTVSPost2010Prop45
280
     0
102
RTVSPost2010PropOp45
 70
     1
102
RTVSPost2010Prop46
 90
       50
102
RTVSPost2010PropOp46
 70
     1
102
RTVSPost2010Prop47
 90
       50
102
RTVSPost2010PropOp47
 70
     1
102
RTVSPost2010Prop48
 90
       50
102
RTVSPost2010PropOp48
 70
     1
102
RTVSPost2010Prop49
280
     0
102
RTVSPost2010PropOp49
 70
     1
102
RTVSPost2010Prop50
 90
       50
102
RTVSPost2010PropOp50
 70
     1
102
RTVSPost2010Prop51ColorIndex
 90
      256
102
RTVSPost2010Prop51ColorRGB
 90
-16777216
102
RTVSPost2010PropOp51
 70
     0
102
RTVSPost2010Prop52
140
1.0
102
RTVSPost2010PropOp52
 70
     0
102
RTVSPost2010Prop53
 90
        2
102
RTVSPost2010PropOp53
 70
     1
102
RTVSPost2010Prop54
  1
strokes_ogs.tif
102
RTVSPost2010PropOp54
 70
     1
102
RTVSPost2010Prop55
280
     0
102
RTVSPost2010PropOp55
 70
     1
102
RTVSPost2010Prop56
140
1.0
102
RTVSPost2010PropOp56
 70
     1
102
RTVSPost2010Prop57
140
1.0
102
RTVSPost2010PropOp57
 70
     1
  0
XRECORD
  5
5A5
102
{ACAD_REACTORS
330
5A4
102
}
330
5A4
100
AcDbXrecord
280
     1
102
RTVSPropertyOp0
 70
     1
102
RTVSPropertyOp1
 70
     1
102
RTVSPropertyOp2
 70
     1
102
RTVSPropertyOp3
 70
     1
102
RTVSPropertyOp4
 70
     1
102
RTVSPropertyOp5
 70
     1
102
RTVSPropertyOp6
 70
     1
102
RTVSPropertyOp7
 70
     1
102
RTVSPropertyOp8
 70
     1
102
RTVSPropertyOp9
 70
     1
102
RTVSPropertyOp10
 70
     1
102
RTVSPropertyOp11
 70
     1
102
RTVSPropertyOp12
 70
     1
102
RTVSPropertyOp13
 70
     1
102
RTVSPropertyOp14
 70
     1
102
RTVSPropertyOp15
 70
     1
102
RTVSPropertyOp16
 70
     1
102
RTVSPropertyOp17
 70
     1
102
RTVSPropertyOp18
 70
     1
102
RTVSPropertyOp19
 70
     1
102
RTVSPropertyOp20
 70
     1
102
RTVSPropertyOp21
 70
     1
102
RTVSPropertyOp22
 70
     1
102
RTVSPropertyOp23
 70
     1
102
RTVSPropertyOp24
 70
     1
102
RTVSPropertyOp25
 70
     1
102
RTVSPropertyOp26
 70
     1
102
RTVSPropertyOp27
 70
     1
102
RTVSPropertyOp28
 70
     1
102
RTVSPropertyOp29
 70
     1
102
RTVSPropertyOp30
 70
     1
102
RTVSPropertyOp31
 70
     1
102
RTVSPropertyOp32
 70
     1
102
RTVSPropertyOp33
 70
     1
102
RTVSPropertyOp34
 70
     1
102
RTVSPropertyOp35
 70
     1
102
RTVSPropertyOp36
 70
     1
102
RTVSPropertyOp37
 70
     1
102
RTVSPropertyOp38
 70
     1
102
RTVSPropertyOp39
 70
     1
102
RTVSPropertyOp40
 70
     1
102
RTVSPropertyOp41
 70
     1
102
RTVSPropertyOp42
 70
     1
102
RTVSPropertyOp43
 70
     1
102
RTVSPropertyOp44
 70
     1
102
RTVSPropertyOp45
 70
     1
102
RTVSPropertyOp46
 70
     1
102
RTVSPropertyOp47
 70
     1
102
RTVSPropertyOp48
 70
     1
102
RTVSPropertyOp49
 70
     1
102
RTVSPropertyOp50
 70
     1
102
RTVSPropertyOp51
 70
     0
102
RTVSPropertyOp52
 70
     0
102
RTVSPropertyOp53
 70
     1
102
RTVSPropertyOp54
 70
     1
102
RTVSPropertyOp55
 70
     1
102
RTVSPropertyOp56
 70
     1
102
RTVSPropertyOp57
 70
     1
102
RTVSPost2010Prop28
280
     0
102
RTVSPost2010PropOp28
 70
     1
102
RTVSPost2010Prop29
280
     1
102
RTVSPost2010PropOp29
 70
     1
102
RTVSPost2010Prop30
280
     1
102
RTVSPost2010PropOp30
 70
     1
102
RTVSPost2010Prop31
280
     0
102
RTVSPost2010PropOp31
 70
     1
102
RTVSPost2010Prop32
280
     0
102
RTVSPost2010PropOp32
 70
     1
102
RTVSPost2010Prop33
280
     0
102
RTVSPost2010PropOp33
 70
     1
102
RTVSPost2010Prop34
280
     0
102
RTVSPost2010PropOp34
 70
     1
102
RTVSPost2010Prop35
280
     0
102
RTVSPost2010PropOp35
 70
     1
102
RTVSPost2010Prop36
280
     0
102
RTVSPost2010PropOp36
 70
     1
102
RTVSPost2010Prop37
 90
       50
102
RTVSPost2010PropOp37
 70
     1
102
RTVSPost2010Prop38
140
0.0
102
RTVSPost2010PropOp38
 70
     1
102
RTVSPost2010Prop39
140
1.0
102
RTVSPost2010PropOp39
 70
     1
102
RTVSPost2010Prop40
 90
        0
102
RTVSPost2010PropOp40
 70
     1
102
RTVSPost2010Prop41ColorIndex
 90
       18
102
RTVSPost2010Prop41ColorRGB
 90
        0
102
RTVSPost2010PropOp41
 70
     1
102
RTVSPost2010Prop42
 90
       50
102
RTVSPost2010PropOp42
 70
     1
102
RTVSPost2010Prop43
 90
        3
102
RTVSPost2010PropOp43
 70
     1
102
RTVSPost2010Prop44ColorIndex
 90
        5
102
RTVSPost2010Prop44ColorRGB
 90
      255
102
RTVSPost2010PropOp44
 70
     1
102
RTVSPost2010Prop45
280
     0
102
RTVSPost2010PropOp45
 70
     1
102
RTVSPost2010Prop46
 90
       50
102
RTVSPost2010PropOp46
 70
     1
102
RTVSPost2010Prop47
 90
       50
102
RTVSPost2010PropOp47
 70
     1
102
RTVSPost2010Prop48
 90
       50
102
RTVSPost2010PropOp48
 70
     1
102
RTVSPost2010Prop49
280
     0
102
RTVSPost2010PropOp49
 70
     1
102
RTVSPost2010Prop50
 90
       50
102
RTVSPost2010PropOp50
 70
     1
102
RTVSPost2010Prop51ColorIndex
 90
      256
102
RTVSPost2010Prop51ColorRGB
 90
-16777216
102
RTVSPost2010PropOp51
 70
     0
102
RTVSPost2010Prop52
140
1.0
102
RTVSPost2010PropOp52
 70
     0
102
RTVSPost2010Prop53
 90
        2
102
RTVSPost2010PropOp53
 70
     1
102
RTVSPost2010Prop54
  1
strokes_ogs.tif
102
RTVSPost2010PropOp54
 70
     1
102
RTVSPost2010Prop55
280
     0
102
RTVSPost2010PropOp55
 70
     1
102
RTVSPost2010Prop56
140
1.0
102
RTVSPost2010PropOp56
 70
     1
102
RTVSPost2010Prop57
140
1.0
102
RTVSPost2010PropOp57
 70
     1
  0
XRECORD
  5
597
102
{ACAD_REACTORS
330
596
102
}
330
596
100
AcDbXrecord
280
     1
102
RTVSPropertyOp0
 70
     1
102
RTVSPropertyOp1
 70
     1
102
RTVSPropertyOp2
 70
     1
102
RTVSPropertyOp3
 70
     1
102
RTVSPropertyOp4
 70
     1
102
RTVSPropertyOp5
 70
     1
102
RTVSPropertyOp6
 70
     1
102
RTVSPropertyOp7
 70
     1
102
RTVSPropertyOp8
 70
     1
102
RTVSPropertyOp9
 70
     1
102
RTVSPropertyOp10
 70
     1
102
RTVSPropertyOp11
 70
     1
102
RTVSPropertyOp12
 70
     1
102
RTVSPropertyOp13
 70
     1
102
RTVSPropertyOp14
 70
     1
102
RTVSPropertyOp15
 70
     1
102
RTVSPropertyOp16
 70
     1
102
RTVSPropertyOp17
 70
     1
102
RTVSPropertyOp18
 70
     1
102
RTVSPropertyOp19
 70
     1
102
RTVSPropertyOp20
 70
     1
102
RTVSPropertyOp21
 70
     1
102
RTVSPropertyOp22
 70
     1
102
RTVSPropertyOp23
 70
     1
102
RTVSPropertyOp24
 70
     1
102
RTVSPropertyOp25
 70
     1
102
RTVSPropertyOp26
 70
     1
102
RTVSPropertyOp27
 70
     1
102
RTVSPropertyOp28
 70
     1
102
RTVSPropertyOp29
 70
     1
102
RTVSPropertyOp30
 70
     1
102
RTVSPropertyOp31
 70
     1
102
RTVSPropertyOp32
 70
     1
102
RTVSPropertyOp33
 70
     1
102
RTVSPropertyOp34
 70
     1
102
RTVSPropertyOp35
 70
     1
102
RTVSPropertyOp36
 70
     1
102
RTVSPropertyOp37
 70
     1
102
RTVSPropertyOp38
 70
     1
102
RTVSPropertyOp39
 70
     1
102
RTVSPropertyOp40
 70
     1
102
RTVSPropertyOp41
 70
     1
102
RTVSPropertyOp42
 70
     1
102
RTVSPropertyOp43
 70
     1
102
RTVSPropertyOp44
 70
     1
102
RTVSPropertyOp45
 70
     1
102
RTVSPropertyOp46
 70
     1
102
RTVSPropertyOp47
 70
     1
102
RTVSPropertyOp48
 70
     1
102
RTVSPropertyOp49
 70
     1
102
RTVSPropertyOp50
 70
     1
102
RTVSPropertyOp51
 70
     0
102
RTVSPropertyOp52
 70
     0
102
RTVSPropertyOp53
 70
     1
102
RTVSPropertyOp54
 70
     1
102
RTVSPropertyOp55
 70
     1
102
RTVSPropertyOp56
 70
     1
102
RTVSPropertyOp57
 70
     1
102
RTVSPost2010Prop28
280
     0
102
RTVSPost2010PropOp28
 70
     1
102
RTVSPost2010Prop29
280
     1
102
RTVSPost2010PropOp29
 70
     1
102
RTVSPost2010Prop30
280
     1
102
RTVSPost2010PropOp30
 70
     1
102
RTVSPost2010Prop31
280
     0
102
RTVSPost2010PropOp31
 70
     1
102
RTVSPost2010Prop32
280
     0
102
RTVSPost2010PropOp32
 70
     1
102
RTVSPost2010Prop33
280
     0
102
RTVSPost2010PropOp33
 70
     1
102
RTVSPost2010Prop34
280
     0
102
RTVSPost2010PropOp34
 70
     1
102
RTVSPost2010Prop35
280
     0
102
RTVSPost2010PropOp35
 70
     1
102
RTVSPost2010Prop36
280
     0
102
RTVSPost2010PropOp36
 70
     1
102
RTVSPost2010Prop37
 90
       50
102
RTVSPost2010PropOp37
 70
     1
102
RTVSPost2010Prop38
140
0.0
102
RTVSPost2010PropOp38
 70
     1
102
RTVSPost2010Prop39
140
1.0
102
RTVSPost2010PropOp39
 70
     1
102
RTVSPost2010Prop40
 90
        0
102
RTVSPost2010PropOp40
 70
     1
102
RTVSPost2010Prop41ColorIndex
 90
       18
102
RTVSPost2010Prop41ColorRGB
 90
        0
102
RTVSPost2010PropOp41
 70
     1
102
RTVSPost2010Prop42
 90
       50
102
RTVSPost2010PropOp42
 70
     1
102
RTVSPost2010Prop43
 90
        3
102
RTVSPost2010PropOp43
 70
     1
102
RTVSPost2010Prop44ColorIndex
 90
        5
102
RTVSPost2010Prop44ColorRGB
 90
      255
102
RTVSPost2010PropOp44
 70
     1
102
RTVSPost2010Prop45
280
     0
102
RTVSPost2010PropOp45
 70
     1
102
RTVSPost2010Prop46
 90
       50
102
RTVSPost2010PropOp46
 70
     1
102
RTVSPost2010Prop47
 90
       50
102
RTVSPost2010PropOp47
 70
     1
102
RTVSPost2010Prop48
 90
       50
102
RTVSPost2010PropOp48
 70
     1
102
RTVSPost2010Prop49
280
     0
102
RTVSPost2010PropOp49
 70
     1
102
RTVSPost2010Prop50
 90
       50
102
RTVSPost2010PropOp50
 70
     1
102
RTVSPost2010Prop51ColorIndex
 90
      256
102
RTVSPost2010Prop51ColorRGB
 90
-16777216
102
RTVSPost2010PropOp51
 70
     0
102
RTVSPost2010Prop52
140
1.0
102
RTVSPost2010PropOp52
 70
     0
102
RTVSPost2010Prop53
 90
        2
102
RTVSPost2010PropOp53
 70
     1
102
RTVSPost2010Prop54
  1
strokes_ogs.tif
102
RTVSPost2010PropOp54
 70
     1
102
RTVSPost2010Prop55
280
     0
102
RTVSPost2010PropOp55
 70
     1
102
RTVSPost2010Prop56
140
1.0
102
RTVSPost2010PropOp56
 70
     1
102
RTVSPost2010Prop57
140
1.0
102
RTVSPost2010PropOp57
 70
     1
  0
XRECORD
  5
5B7
102
{ACAD_REACTORS
330
5B6
102
}
330
5B6
100
AcDbXrecord
280
     1
102
RTVSPropertyOp0
 70
     1
102
RTVSPropertyOp1
 70
     1
102
RTVSPropertyOp2
 70
     1
102
RTVSPropertyOp3
 70
     1
102
RTVSPropertyOp4
 70
     1
102
RTVSPropertyOp5
 70
     1
102
RTVSPropertyOp6
 70
     1
102
RTVSPropertyOp7
 70
     1
102
RTVSPropertyOp8
 70
     1
102
RTVSPropertyOp9
 70
     1
102
RTVSPropertyOp10
 70
     1
102
RTVSPropertyOp11
 70
     1
102
RTVSPropertyOp12
 70
     1
102
RTVSPropertyOp13
 70
     1
102
RTVSPropertyOp14
 70
     1
102
RTVSPropertyOp15
 70
     1
102
RTVSPropertyOp16
 70
     1
102
RTVSPropertyOp17
 70
     1
102
RTVSPropertyOp18
 70
     1
102
RTVSPropertyOp19
 70
     1
102
RTVSPropertyOp20
 70
     1
102
RTVSPropertyOp21
 70
     1
102
RTVSPropertyOp22
 70
     1
102
RTVSPropertyOp23
 70
     1
102
RTVSPropertyOp24
 70
     1
102
RTVSPropertyOp25
 70
     1
102
RTVSPropertyOp26
 70
     1
102
RTVSPropertyOp27
 70
     1
102
RTVSPropertyOp28
 70
     1
102
RTVSPropertyOp29
 70
     1
102
RTVSPropertyOp30
 70
     1
102
RTVSPropertyOp31
 70
     1
102
RTVSPropertyOp32
 70
     1
102
RTVSPropertyOp33
 70
     1
102
RTVSPropertyOp34
 70
     1
102
RTVSPropertyOp35
 70
     1
102
RTVSPropertyOp36
 70
     1
102
RTVSPropertyOp37
 70
     1
102
RTVSPropertyOp38
 70
     1
102
RTVSPropertyOp39
 70
     1
102
RTVSPropertyOp40
 70
     1
102
RTVSPropertyOp41
 70
     1
102
RTVSPropertyOp42
 70
     1
102
RTVSPropertyOp43
 70
     1
102
RTVSPropertyOp44
 70
     1
102
RTVSPropertyOp45
 70
     1
102
RTVSPropertyOp46
 70
     1
102
RTVSPropertyOp47
 70
     1
102
RTVSPropertyOp48
 70
     1
102
RTVSPropertyOp49
 70
     1
102
RTVSPropertyOp50
 70
     1
102
RTVSPropertyOp51
 70
     0
102
RTVSPropertyOp52
 70
     0
102
RTVSPropertyOp53
 70
     1
102
RTVSPropertyOp54
 70
     1
102
RTVSPropertyOp55
 70
     1
102
RTVSPropertyOp56
 70
     1
102
RTVSPropertyOp57
 70
     1
102
RTVSPost2010Prop28
280
     0
102
RTVSPost2010PropOp28
 70
     1
102
RTVSPost2010Prop29
280
     1
102
RTVSPost2010PropOp29
 70
     1
102
RTVSPost2010Prop30
280
     1
102
RTVSPost2010PropOp30
 70
     1
102
RTVSPost2010Prop31
280
     0
102
RTVSPost2010PropOp31
 70
     1
102
RTVSPost2010Prop32
280
     0
102
RTVSPost2010PropOp32
 70
     1
102
RTVSPost2010Prop33
280
     0
102
RTVSPost2010PropOp33
 70
     1
102
RTVSPost2010Prop34
280
     0
102
RTVSPost2010PropOp34
 70
     1
102
RTVSPost2010Prop35
280
     0
102
RTVSPost2010PropOp35
 70
     1
102
RTVSPost2010Prop36
280
     0
102
RTVSPost2010PropOp36
 70
     1
102
RTVSPost2010Prop37
 90
       50
102
RTVSPost2010PropOp37
 70
     1
102
RTVSPost2010Prop38
140
0.0
102
RTVSPost2010PropOp38
 70
     1
102
RTVSPost2010Prop39
140
1.0
102
RTVSPost2010PropOp39
 70
     1
102
RTVSPost2010Prop40
 90
        0
102
RTVSPost2010PropOp40
 70
     1
102
RTVSPost2010Prop41ColorIndex
 90
       18
102
RTVSPost2010Prop41ColorRGB
 90
        0
102
RTVSPost2010PropOp41
 70
     1
102
RTVSPost2010Prop42
 90
       50
102
RTVSPost2010PropOp42
 70
     1
102
RTVSPost2010Prop43
 90
        3
102
RTVSPost2010PropOp43
 70
     1
102
RTVSPost2010Prop44ColorIndex
 90
        5
102
RTVSPost2010Prop44ColorRGB
 90
      255
102
RTVSPost2010PropOp44
 70
     1
102
RTVSPost2010Prop45
280
     0
102
RTVSPost2010PropOp45
 70
     1
102
RTVSPost2010Prop46
 90
       50
102
RTVSPost2010PropOp46
 70
     1
102
RTVSPost2010Prop47
 90
       50
102
RTVSPost2010PropOp47
 70
     1
102
RTVSPost2010Prop48
 90
       50
102
RTVSPost2010PropOp48
 70
     1
102
RTVSPost2010Prop49
280
     0
102
RTVSPost2010PropOp49
 70
     1
102
RTVSPost2010Prop50
 90
       50
102
RTVSPost2010PropOp50
 70
     1
102
RTVSPost2010Prop51ColorIndex
 90
      256
102
RTVSPost2010Prop51ColorRGB
 90
-16777216
102
RTVSPost2010PropOp51
 70
     0
102
RTVSPost2010Prop52
140
1.0
102
RTVSPost2010PropOp52
 70
     0
102
RTVSPost2010Prop53
 90
        2
102
RTVSPost2010PropOp53
 70
     1
102
RTVSPost2010Prop54
  1
strokes_ogs.tif
102
RTVSPost2010PropOp54
 70
     1
102
RTVSPost2010Prop55
280
     0
102
RTVSPost2010PropOp55
 70
     1
102
RTVSPost2010Prop56
140
1.0
102
RTVSPost2010PropOp56
 70
     1
102
RTVSPost2010Prop57
140
1.0
102
RTVSPost2010PropOp57
 70
     1
  0
ENDSEC
  0
EOF
