  0
SECTION
  2
HEADER
  9
$ACADVER
  1
AC1021
  9
$ACADMAINTVER
 70
    25
  9
$DWGCODEPAGE
  3
ANSI_1252
  9
$LASTSAVEDBY
  1
asmae
  9
$INSBASE
 10
0.0
 20
0.0
 30
0.0
  9
$EXTMIN
 10
-43.14236270265063
 20
-40.14236270265062
 30
0.0
  9
$EXTMAX
 10
50.35363866136422
 20
50.35363866136422
 30
0.0
  9
$LIMMIN
 10
0.0
 20
0.0
  9
$LIMMAX
 10
12.0
 20
9.0
  9
$ORTHOMODE
 70
     0
  9
$REGENMODE
 70
     1
  9
$FILLMODE
 70
     1
  9
$QTEXTMODE
 70
     0
  9
$MIRRTEXT
 70
     1
  9
$LTSCALE
 40
1.0
  9
$ATTMODE
 70
     1
  9
$TEXTSIZE
 40
0.2
  9
$TRACEWID
 40
0.05
  9
$TEXTSTYLE
  7
Standard
  9
$CLAYER
  8
Layer 3_laser
  9
$CELTYPE
  6
ByLayer
  9
$CECOLOR
 62
   256
  9
$CELTSCALE
 40
1.0
  9
$DISPSILH
 70
     0
  9
$DIMSCALE
 40
1.0
  9
$DIMASZ
 40
0.18
  9
$DIMEXO
 40
0.0625
  9
$DIMDLI
 40
0.38
  9
$DIMRND
 40
0.0
  9
$DIMDLE
 40
0.0
  9
$DIMEXE
 40
0.18
  9
$DIMTP
 40
0.0
  9
$DIMTM
 40
0.0
  9
$DIMTXT
 40
0.18
  9
$DIMCEN
 40
0.09
  9
$DIMTSZ
 40
0.0
  9
$DIMTOL
 70
     0
  9
$DIMLIM
 70
     0
  9
$DIMTIH
 70
     1
  9
$DIMTOH
 70
     1
  9
$DIMSE1
 70
     0
  9
$DIMSE2
 70
     0
  9
$DIMTAD
 70
     0
  9
$DIMZIN
 70
     0
  9
$DIMBLK
  1

  9
$DIMASO
 70
     1
  9
$DIMSHO
 70
     1
  9
$DIMPOST
  1

  9
$DIMAPOST
  1

  9
$DIMALT
 70
     0
  9
$DIMALTD
 70
     2
  9
$DIMALTF
 40
25.4
  9
$DIMLFAC
 40
1.0
  9
$DIMTOFL
 70
     0
  9
$DIMTVP
 40
0.0
  9
$DIMTIX
 70
     0
  9
$DIMSOXD
 70
     0
  9
$DIMSAH
 70
     0
  9
$DIMBLK1
  1

  9
$DIMBLK2
  1

  9
$DIMSTYLE
  2
STANDARD_ACAD
  9
$DIMCLRD
 70
     0
  9
$DIMCLRE
 70
     0
  9
$DIMCLRT
 70
     0
  9
$DIMTFAC
 40
1.0
  9
$DIMGAP
 40
0.09
  9
$DIMJUST
 70
     0
  9
$DIMSD1
 70
     0
  9
$DIMSD2
 70
     0
  9
$DIMTOLJ
 70
     1
  9
$DIMTZIN
 70
     0
  9
$DIMALTZ
 70
     0
  9
$DIMALTTZ
 70
     0
  9
$DIMUPT
 70
     0
  9
$DIMDEC
 70
     4
  9
$DIMTDEC
 70
     4
  9
$DIMALTU
 70
     2
  9
$DIMALTTD
 70
     2
  9
$DIMTXSTY
  7
Standard
  9
$DIMAUNIT
 70
     0
  9
$DIMADEC
 70
     0
  9
$DIMALTRND
 40
0.0
  9
$DIMAZIN
 70
     0
  9
$DIMDSEP
 70
    46
  9
$DIMATFIT
 70
     3
  9
$DIMFRAC
 70
     0
  9
$DIMLDRBLK
  1

  9
$DIMLUNIT
 70
     2
  9
$DIMLWD
 70
    -2
  9
$DIMLWE
 70
    -2
  9
$DIMTMOVE
 70
     2
  9
$DIMFXL
 40
1.0
  9
$DIMFXLON
 70
     0
  9
$DIMJOGANG
 40
0.7853981633974483
  9
$DIMTFILL
 70
     0
  9
$DIMTFILLCLR
 70
     0
  9
$DIMARCSYM
 70
     0
  9
$DIMLTYPE
  6

  9
$DIMLTEX1
  6

  9
$DIMLTEX2
  6

  9
$LUNITS
 70
     2
  9
$LUPREC
 70
     3
  9
$SKETCHINC
 40
0.1
  9
$FILLETRAD
 40
0.0
  9
$AUNITS
 70
     0
  9
$AUPREC
 70
     0
  9
$MENU
  1
.
  9
$ELEVATION
 40
0.0
  9
$PELEVATION
 40
0.0
  9
$THICKNESS
 40
0.0
  9
$LIMCHECK
 70
     0
  9
$CHAMFERA
 40
0.0
  9
$CHAMFERB
 40
0.0
  9
$CHAMFERC
 40
0.0
  9
$CHAMFERD
 40
0.0
  9
$SKPOLY
 70
     0
  9
$TDCREATE
 40
2459516.03193066
  9
$TDUCREATE
 40
2459516.03193066
  9
$TDUPDATE
 40
2459516.03195162
  9
$TDUUPDATE
 40
2459516.03195162
  9
$TDINDWG
 40
0.0000000116
  9
$TDUSRTIMER
 40
0.0000000116
  9
$USRTIMER
 70
     1
  9
$ANGBASE
 50
0.0
  9
$ANGDIR
 70
     0
  9
$PDMODE
 70
     0
  9
$PDSIZE
 40
0.0
  9
$PLINEWID
 40
0.0
  9
$SPLFRAME
 70
     0
  9
$SPLINETYPE
 70
     6
  9
$SPLINESEGS
 70
     8
  9
$HANDSEED
  5
3E5
  9
$SURFTAB1
 70
     6
  9
$SURFTAB2
 70
     6
  9
$SURFTYPE
 70
     6
  9
$SURFU
 70
     6
  9
$SURFV
 70
     6
  9
$UCSBASE
  2

  9
$UCSNAME
  2

  9
$UCSORG
 10
0.0
 20
0.0
 30
0.0
  9
$UCSXDIR
 10
1.0
 20
0.0
 30
0.0
  9
$UCSYDIR
 10
0.0
 20
1.0
 30
0.0
  9
$UCSORTHOREF
  2

  9
$UCSORTHOVIEW
 70
     0
  9
$UCSORGTOP
 10
0.0
 20
0.0
 30
0.0
  9
$UCSORGBOTTOM
 10
0.0
 20
0.0
 30
0.0
  9
$UCSORGLEFT
 10
0.0
 20
0.0
 30
0.0
  9
$UCSORGRIGHT
 10
0.0
 20
0.0
 30
0.0
  9
$UCSORGFRONT
 10
0.0
 20
0.0
 30
0.0
  9
$UCSORGBACK
 10
0.0
 20
0.0
 30
0.0
  9
$PUCSBASE
  2

  9
$PUCSNAME
  2

  9
$PUCSORG
 10
0.0
 20
0.0
 30
0.0
  9
$PUCSXDIR
 10
1.0
 20
0.0
 30
0.0
  9
$PUCSYDIR
 10
0.0
 20
1.0
 30
0.0
  9
$PUCSORTHOREF
  2

  9
$PUCSORTHOVIEW
 70
     0
  9
$PUCSORGTOP
 10
0.0
 20
0.0
 30
0.0
  9
$PUCSORGBOTTOM
 10
0.0
 20
0.0
 30
0.0
  9
$PUCSORGLEFT
 10
0.0
 20
0.0
 30
0.0
  9
$PUCSORGRIGHT
 10
0.0
 20
0.0
 30
0.0
  9
$PUCSORGFRONT
 10
0.0
 20
0.0
 30
0.0
  9
$PUCSORGBACK
 10
0.0
 20
0.0
 30
0.0
  9
$USERI1
 70
     0
  9
$USERI2
 70
     0
  9
$USERI3
 70
     0
  9
$USERI4
 70
     0
  9
$USERI5
 70
     0
  9
$USERR1
 40
0.0
  9
$USERR2
 40
0.0
  9
$USERR3
 40
0.0
  9
$USERR4
 40
0.0
  9
$USERR5
 40
0.0
  9
$WORLDVIEW
 70
     1
  9
$SHADEDGE
 70
     3
  9
$SHADEDIF
 70
    70
  9
$TILEMODE
 70
     1
  9
$MAXACTVP
 70
    64
  9
$PINSBASE
 10
0.0
 20
0.0
 30
0.0
  9
$PLIMCHECK
 70
     0
  9
$PEXTMIN
 10
1.000000000000000E+20
 20
1.000000000000000E+20
 30
1.000000000000000E+20
  9
$PEXTMAX
 10
-1.000000000000000E+20
 20
-1.000000000000000E+20
 30
-1.000000000000000E+20
  9
$PLIMMIN
 10
0.0
 20
0.0
  9
$PLIMMAX
 10
12.0
 20
9.0
  9
$UNITMODE
 70
     0
  9
$VISRETAIN
 70
     1
  9
$PLINEGEN
 70
     0
  9
$PSLTSCALE
 70
     1
  9
$TREEDEPTH
 70
  3020
  9
$CMLSTYLE
  2
Standard
  9
$CMLJUST
 70
     0
  9
$CMLSCALE
 40
1.0
  9
$PROXYGRAPHICS
 70
     1
  9
$MEASUREMENT
 70
     1
  9
$CELWEIGHT
370
    -1
  9
$ENDCAPS
280
     0
  9
$JOINSTYLE
280
     0
  9
$LWDISPLAY
290
     0
  9
$INSUNITS
 70
     4
  9
$HYPERLINKBASE
  1

  9
$STYLESHEET
  1

  9
$XEDIT
290
     1
  9
$CEPSNTYPE
380
     0
  9
$PSTYLEMODE
290
     1
  9
$FINGERPRINTGUID
  2
{a3a7e293-93d3-1f4e-8807-aa5c701ab0d0}
  9
$VERSIONGUID
  2
{FAEB1C32-E019-11D5-929B-00C0DF256EC4}
  9
$EXTNAMES
290
     1
  9
$PSVPSCALE
 40
0.0
  9
$OLESTARTUP
290
     0
  9
$SORTENTS
280
   127
  9
$INDEXCTL
280
     0
  9
$HIDETEXT
280
     1
  9
$XCLIPFRAME
290
     0
  9
$HALOGAP
280
     0
  9
$OBSCOLOR
 70
   257
  9
$OBSLTYPE
280
     0
  9
$INTERSECTIONDISPLAY
280
     0
  9
$INTERSECTIONCOLOR
 70
   257
  9
$DIMASSOC
280
     2
  9
$PROJECTNAME
  1

  9
$CAMERADISPLAY
290
     0
  9
$LENSLENGTH
 40
50.0
  9
$CAMERAHEIGHT
 40
0.0
  9
$STEPSPERSEC
 40
2.0
  9
$STEPSIZE
 40
6.0
  9
$3DDWFPREC
 40
2.0
  9
$PSOLWIDTH
 40
0.25
  9
$PSOLHEIGHT
 40
4.0
  9
$LOFTANG1
 40
1.570796326794897
  9
$LOFTANG2
 40
1.570796326794897
  9
$LOFTMAG1
 40
0.0
  9
$LOFTMAG2
 40
0.0
  9
$LOFTPARAM
 70
     7
  9
$LOFTNORMALS
280
     1
  9
$LATITUDE
 40
37.795
  9
$LONGITUDE
 40
-122.394
  9
$NORTHDIRECTION
 40
0.0
  9
$TIMEZONE
 70
 -8000
  9
$LIGHTGLYPHDISPLAY
280
     1
  9
$TILEMODELIGHTSYNCH
280
     1
  9
$CMATERIAL
347
44
  9
$SOLIDHIST
280
     0
  9
$SHOWHIST
280
     1
  9
$DWFFRAME
280
     2
  9
$DGNFRAME
280
     2
  9
$REALWORLDSCALE
290
     1
  9
$INTERFERECOLOR
 62
   256
  9
$CSHADOW
280
     0
  9
$SHADOWPLANELOCATION
 40
0.0
  0
ENDSEC
  0
SECTION
  2
CLASSES
  0
CLASS
  1
ACDBDICTIONARYWDFLT
  2
AcDbDictionaryWithDefault
  3
ObjectDBX Classes
 90
        0
 91
        3
280
     0
281
     0
  0
CLASS
  1
VISUALSTYLE
  2
AcDbVisualStyle
  3
ObjectDBX Classes
 90
     4095
 91
        3
280
     0
281
     0
  0
CLASS
  1
MATERIAL
  2
AcDbMaterial
  3
ObjectDBX Classes
 90
     1153
 91
        3
280
     0
281
     0
  0
CLASS
  1
SCALE
  2
AcDbScale
  3
ObjectDBX Classes
 90
     1153
 91
        3
280
     0
281
     0
  0
CLASS
  1
TABLESTYLE
  2
AcDbTableStyle
  3
ObjectDBX Classes
 90
     4095
 91
        3
280
     0
281
     0
  0
CLASS
  1
MLEADERSTYLE
  2
AcDbMLeaderStyle
  3
ACDB_MLEADERSTYLE_CLASS
 90
     4095
 91
        3
280
     0
281
     0
  0
CLASS
  1
SUN
  2
AcDbSun
  3
SCENEOE
 90
     1153
 91
        3
280
     0
281
     0
  0
CLASS
  1
DICTIONARYVAR
  2
AcDbDictionaryVar
  3
ObjectDBX Classes
 90
        0
 91
        3
280
     0
281
     0
  0
CLASS
  1
CELLSTYLEMAP
  2
AcDbCellStyleMap
  3
ObjectDBX Classes
 90
     1152
 91
        3
280
     0
281
     0
  0
ENDSEC
  0
SECTION
  2
TABLES
  0
TABLE
  2
VPORT
  5
8
330
0
100
AcDbSymbolTable
 70
     1
  0
VPORT
  5
29
330
8
100
AcDbSymbolTableRecord
100
AcDbViewportTableRecord
  2
*Active
 70
     0
 10
0.0
 20
0.0
 11
1.0
 21
1.0
 12
10.42990654205607
 22
4.5
 13
0.0
 23
0.0
 14
0.5
 24
0.5
 15
0.5
 25
0.5
 16
0.0
 26
0.0
 36
1.0
 17
0.0
 27
0.0
 37
0.0
 40
9.0
 41
1.972972972850329
 42
50.0
 43
0.0
 44
0.0
 50
0.0
 51
0.0
 71
     0
 72
   100
 73
     1
 74
     3
 75
     0
 76
     0
 77
     0
 78
     0
281
     0
 65
     1
110
0.0
120
0.0
130
0.0
111
1.0
121
0.0
131
0.0
112
0.0
122
1.0
132
0.0
 79
     0
146
0.0
348
2F
 60
     3
 61
     5
292
     1
282
     1
141
0.0
142
0.0
 63
   250
361
5D
  0
ENDTAB
  0
TABLE
  2
LTYPE
  5
5
330
0
100
AcDbSymbolTable
 70
     1
  0
LTYPE
  5
14
330
5
100
AcDbSymbolTableRecord
100
AcDbLinetypeTableRecord
  2
ByBlock
 70
     0
  3

 72
    65
 73
     0
 40
0.0
  0
LTYPE
  5
15
330
5
100
AcDbSymbolTableRecord
100
AcDbLinetypeTableRecord
  2
ByLayer
 70
     0
  3

 72
    65
 73
     0
 40
0.0
  0
LTYPE
  5
16
330
5
100
AcDbSymbolTableRecord
100
AcDbLinetypeTableRecord
  2
Continuous
 70
     0
  3
Solid line
 72
    65
 73
     0
 40
0.0
  0
ENDTAB
  0
TABLE
  2
LAYER
  5
2
330
0
100
AcDbSymbolTable
 70
     2
  0
LAYER
  5
10
330
2
100
AcDbSymbolTableRecord
100
AcDbLayerTableRecord
  2
0
 70
     0
 62
     7
  6
Continuous
370
    -3
390
F
347
46
  0
LAYER
  5
5F
330
2
100
AcDbSymbolTableRecord
100
AcDbLayerTableRecord
  2
Layer 3_laser
 70
     0
 62
    96
420
    32512
  6
Continuous
370
    -3
390
F
347
46
  0
ENDTAB
  0
TABLE
  2
STYLE
  5
3
330
0
100
AcDbSymbolTable
 70
     1
  0
STYLE
  5
11
330
3
100
AcDbSymbolTableRecord
100
AcDbTextStyleTableRecord
  2
Standard
 70
     0
 40
0.0
 41
1.0
 50
0.0
 71
     0
 42
0.2
  3
txt
  4

  0
ENDTAB
  0
TABLE
  2
VIEW
  5
6
330
0
100
AcDbSymbolTable
 70
     0
  0
ENDTAB
  0
TABLE
  2
UCS
  5
7
330
0
100
AcDbSymbolTable
 70
     0
  0
ENDTAB
  0
TABLE
  2
APPID
  5
9
330
0
100
AcDbSymbolTable
 70
     3
  0
APPID
  5
12
330
9
100
AcDbSymbolTableRecord
100
AcDbRegAppTableRecord
  2
ACAD
 70
     0
  0
APPID
  5
5E
330
9
100
AcDbSymbolTableRecord
100
AcDbRegAppTableRecord
  2
Rhino
 70
     0
  0
APPID
  5
3DD
330
9
100
AcDbSymbolTableRecord
100
AcDbRegAppTableRecord
  2
ACAD_MLEADERVER
 70
     0
  0
ENDTAB
  0
TABLE
  2
DIMSTYLE
  5
A
330
0
100
AcDbSymbolTable
 70
     1
100
AcDbDimStyleTable
  0
DIMSTYLE
105
27
330
A
100
AcDbSymbolTableRecord
100
AcDbDimStyleTableRecord
  2
STANDARD_ACAD
 70
     0
178
     0
340
11
  0
ENDTAB
  0
TABLE
  2
BLOCK_RECORD
  5
1
330
0
100
AcDbSymbolTable
 70
     1
  0
BLOCK_RECORD
  5
1F
330
1
100
AcDbSymbolTableRecord
100
AcDbBlockTableRecord
  2
*Model_Space
340
22
 70
     0
280
     1
281
     0
  0
BLOCK_RECORD
  5
1B
330
1
100
AcDbSymbolTableRecord
100
AcDbBlockTableRecord
  2
*Paper_Space
340
1E
 70
     0
280
     1
281
     0
  0
BLOCK_RECORD
  5
23
330
1
100
AcDbSymbolTableRecord
100
AcDbBlockTableRecord
  2
*Paper_Space0
340
26
 70
     0
280
     1
281
     0
  0
ENDTAB
  0
ENDSEC
  0
SECTION
  2
BLOCKS
  0
BLOCK
  5
20
330
1F
100
AcDbEntity
  8
0
100
AcDbBlockBegin
  2
*Model_Space
 70
     0
 10
0.0
 20
0.0
 30
0.0
  3
*Model_Space
  1

  0
ENDBLK
  5
21
330
1F
100
AcDbEntity
  8
0
100
AcDbBlockEnd
  0
BLOCK
  5
1C
330
1B
100
AcDbEntity
 67
     1
  8
0
100
AcDbBlockBegin
  2
*Paper_Space
 70
     0
 10
0.0
 20
0.0
 30
0.0
  3
*Paper_Space
  1

  0
ENDBLK
  5
1D
330
1B
100
AcDbEntity
 67
     1
  8
0
100
AcDbBlockEnd
  0
BLOCK
  5
24
330
23
100
AcDbEntity
  8
0
100
AcDbBlockBegin
  2
*Paper_Space0
 70
     0
 10
0.0
 20
0.0
 30
0.0
  3
*Paper_Space0
  1

  0
ENDBLK
  5
25
330
23
100
AcDbEntity
  8
0
100
AcDbBlockEnd
  0
ENDSEC
  0
SECTION
  2
ENTITIES
  0
LINE
  5
60
330
1F
100
AcDbEntity
  8
Layer 3_laser
100
AcDbLine
 10
34.1056379793568
 20
12.92680606472587
 30
0.0
 11
29.75199931799258
 21
17.35363866136422
 31
0.0
  0
LINE
  5
61
330
1F
100
AcDbEntity
  8
Layer 3_laser
100
AcDbLine
 10
29.75199931799258
 20
17.35363866136422
 30
0.0
 11
28.19505393667226
 21
11.34306984369227
 31
0.0
  0
LINE
  5
62
330
1F
100
AcDbEntity
  8
Layer 3_laser
100
AcDbLine
 10
28.19505393667226
 20
11.34306984369227
 30
0.0
 11
22.2112759587136
 21
13.0
 31
0.0
  0
LINE
  5
63
330
1F
100
AcDbEntity
  8
Layer 3_laser
100
AcDbLine
 10
22.2112759587136
 20
13.0
 30
0.0
 11
23.86820611502133
 21
7.016222022041333
 31
0.0
  0
LINE
  5
64
330
1F
100
AcDbEntity
  8
Layer 3_laser
100
AcDbLine
 10
23.86820611502133
 20
7.016222022041333
 30
0.0
 11
17.85763729734938
 21
5.45927664072102
 31
0.0
  0
LINE
  5
65
330
1F
100
AcDbEntity
  8
Layer 3_laser
100
AcDbLine
 10
17.85763729734938
 20
5.45927664072102
 30
0.0
 11
22.28446989398773
 21
1.105637979356799
 31
0.0
  0
LINE
  5
66
330
1F
100
AcDbEntity
  8
Layer 3_laser
100
AcDbLine
 10
22.28446989398773
 20
1.105637979356799
 30
0.0
 11
17.85763729734937
 21
-3.248000682007419
 31
0.0
  0
LINE
  5
67
330
1F
100
AcDbEntity
  8
Layer 3_laser
100
AcDbLine
 10
17.85763729734937
 20
-3.248000682007419
 30
0.0
 11
23.86820611502133
 21
-4.804946063327733
 31
0.0
  0
LINE
  5
68
330
1F
100
AcDbEntity
  8
Layer 3_laser
100
AcDbLine
 10
23.86820611502133
 20
-4.804946063327733
 30
0.0
 11
22.2112759587136
 21
-10.7887240412864
 31
0.0
  0
LINE
  5
69
330
1F
100
AcDbEntity
  8
Layer 3_laser
100
AcDbLine
 10
22.2112759587136
 20
-10.7887240412864
 30
0.0
 11
28.19505393667226
 21
-9.131793884978666
 31
0.0
  0
LINE
  5
6A
330
1F
100
AcDbEntity
  8
Layer 3_laser
100
AcDbLine
 10
28.19505393667226
 20
-9.131793884978666
 30
0.0
 11
29.75199931799257
 21
-15.14236270265062
 31
0.0
  0
LINE
  5
6B
330
1F
100
AcDbEntity
  8
Layer 3_laser
100
AcDbLine
 10
29.75199931799257
 20
-15.14236270265062
 30
0.0
 11
34.10563797935679
 21
-10.71553010601227
 31
0.0
  0
LINE
  5
6C
330
1F
100
AcDbEntity
  8
Layer 3_laser
100
AcDbLine
 10
34.10563797935679
 20
-10.71553010601227
 30
0.0
 11
38.45927664072101
 21
-15.14236270265062
 31
0.0
  0
LINE
  5
6D
330
1F
100
AcDbEntity
  8
Layer 3_laser
100
AcDbLine
 10
38.45927664072101
 20
-15.14236270265062
 30
0.0
 11
40.01622202204133
 21
-9.131793884978672
 31
0.0
  0
LINE
  5
6E
330
1F
100
AcDbEntity
  8
Layer 3_laser
100
AcDbLine
 10
40.01622202204133
 20
-9.131793884978672
 30
0.0
 11
45.99999999999999
 21
-10.78872404128641
 31
0.0
  0
LINE
  5
6F
330
1F
100
AcDbEntity
  8
Layer 3_laser
100
AcDbLine
 10
45.99999999999999
 20
-10.78872404128641
 30
0.0
 11
44.34306984369226
 21
-4.804946063327741
 31
0.0
  0
LINE
  5
70
330
1F
100
AcDbEntity
  8
Layer 3_laser
100
AcDbLine
 10
44.34306984369226
 20
-4.804946063327741
 30
0.0
 11
50.35363866136422
 21
-3.248000682007433
 31
0.0
  0
LINE
  5
71
330
1F
100
AcDbEntity
  8
Layer 3_laser
100
AcDbLine
 10
50.35363866136422
 20
-3.248000682007433
 30
0.0
 11
45.92680606472587
 21
1.105637979356796
 31
0.0
  0
LINE
  5
72
330
1F
100
AcDbEntity
  8
Layer 3_laser
100
AcDbLine
 10
45.92680606472587
 20
1.105637979356796
 30
0.0
 11
50.35363866136422
 21
5.45927664072101
 31
0.0
  0
LINE
  5
73
330
1F
100
AcDbEntity
  8
Layer 3_laser
100
AcDbLine
 10
50.35363866136422
 20
5.45927664072101
 30
0.0
 11
44.34306984369227
 21
7.016222022041323
 31
0.0
  0
LINE
  5
74
330
1F
100
AcDbEntity
  8
Layer 3_laser
100
AcDbLine
 10
44.34306984369227
 20
7.016222022041323
 30
0.0
 11
46.0
 21
13.0
 31
0.0
  0
LINE
  5
75
330
1F
100
AcDbEntity
  8
Layer 3_laser
100
AcDbLine
 10
46.0
 20
13.0
 30
0.0
 11
40.01622202204133
 21
11.34306984369226
 31
0.0
  0
LINE
  5
76
330
1F
100
AcDbEntity
  8
Layer 3_laser
100
AcDbLine
 10
40.01622202204133
 20
11.34306984369226
 30
0.0
 11
38.45927664072103
 21
17.35363866136422
 31
0.0
  0
LINE
  5
77
330
1F
100
AcDbEntity
  8
Layer 3_laser
100
AcDbLine
 10
38.45927664072103
 20
17.35363866136422
 30
0.0
 11
34.1056379793568
 21
12.92680606472587
 31
0.0
  0
POLYLINE
  5
78
330
1F
100
AcDbEntity
  8
Layer 3_laser
100
AcDb2dPolyline
 66
     1
 10
0.0
 20
0.0
 30
0.0
  0
VERTEX
  5
79
330
78
100
AcDbEntity
  8
Layer 3_laser
100
AcDbVertex
100
AcDb2dVertex
 10
34.1056379793568
 20
12.92680606472587
 30
0.0
  0
VERTEX
  5
7A
330
78
100
AcDbEntity
  8
Layer 3_laser
100
AcDbVertex
100
AcDb2dVertex
 10
35.80522642652329
 20
12.47140271284234
 30
0.0
  0
SEQEND
  5
7B
330
78
100
AcDbEntity
  8
Layer 3_laser
  0
POLYLINE
  5
7C
330
1F
100
AcDbEntity
  8
Layer 3_laser
100
AcDb2dPolyline
 66
     1
 10
0.0
 20
0.0
 30
0.0
  0
VERTEX
  5
7D
330
7C
100
AcDbEntity
  8
Layer 3_laser
100
AcDbVertex
100
AcDb2dVertex
 10
38.31663357487486
 20
11.79847319557578
 30
0.0
  0
VERTEX
  5
7E
330
7C
100
AcDbEntity
  8
Layer 3_laser
100
AcDbVertex
100
AcDb2dVertex
 10
40.01622202204133
 20
11.34306984369226
 30
0.0
  0
SEQEND
  5
7F
330
7C
100
AcDbEntity
  8
Layer 3_laser
  0
POLYLINE
  5
80
330
1F
100
AcDbEntity
  8
Layer 3_laser
100
AcDb2dPolyline
 66
     1
 10
0.0
 20
0.0
 30
0.0
  0
VERTEX
  5
81
330
80
100
AcDbEntity
  8
Layer 3_laser
100
AcDbVertex
100
AcDb2dVertex
 10
40.01622202204133
 20
11.34306984369227
 30
0.0
  0
VERTEX
  5
82
330
80
100
AcDbEntity
  8
Layer 3_laser
100
AcDbVertex
100
AcDb2dVertex
 10
41.26040711732429
 20
10.09888474840931
 30
0.0
  0
SEQEND
  5
83
330
80
100
AcDbEntity
  8
Layer 3_laser
  0
POLYLINE
  5
84
330
1F
100
AcDbEntity
  8
Layer 3_laser
100
AcDb2dPolyline
 66
     1
 10
0.0
 20
0.0
 30
0.0
  0
VERTEX
  5
85
330
84
100
AcDbEntity
  8
Layer 3_laser
100
AcDbVertex
100
AcDb2dVertex
 10
43.0988847484093
 20
8.260407117324279
 30
0.0
  0
VERTEX
  5
86
330
84
100
AcDbEntity
  8
Layer 3_laser
100
AcDbVertex
100
AcDb2dVertex
 10
44.34306984369226
 20
7.016222022041326
 30
0.0
  0
SEQEND
  5
87
330
84
100
AcDbEntity
  8
Layer 3_laser
  0
POLYLINE
  5
88
330
1F
100
AcDbEntity
  8
Layer 3_laser
100
AcDb2dPolyline
 66
     1
 10
0.0
 20
0.0
 30
0.0
  0
VERTEX
  5
89
330
88
100
AcDbEntity
  8
Layer 3_laser
100
AcDbVertex
100
AcDb2dVertex
 10
44.34306984369225
 20
7.016222022041344
 30
0.0
  0
VERTEX
  5
8A
330
88
100
AcDbEntity
  8
Layer 3_laser
100
AcDbVertex
100
AcDb2dVertex
 10
44.79847319557578
 20
5.316633574874853
 30
0.0
  0
SEQEND
  5
8B
330
88
100
AcDbEntity
  8
Layer 3_laser
  0
POLYLINE
  5
8C
330
1F
100
AcDbEntity
  8
Layer 3_laser
100
AcDb2dPolyline
 66
     1
 10
0.0
 20
0.0
 30
0.0
  0
VERTEX
  5
8D
330
8C
100
AcDbEntity
  8
Layer 3_laser
100
AcDbVertex
100
AcDb2dVertex
 10
45.47140271284232
 20
2.805226426523275
 30
0.0
  0
VERTEX
  5
8E
330
8C
100
AcDbEntity
  8
Layer 3_laser
100
AcDbVertex
100
AcDb2dVertex
 10
45.92680606472585
 20
1.1056379793568
 30
0.0
  0
SEQEND
  5
8F
330
8C
100
AcDbEntity
  8
Layer 3_laser
  0
POLYLINE
  5
90
330
1F
100
AcDbEntity
  8
Layer 3_laser
100
AcDb2dPolyline
 66
     1
 10
0.0
 20
0.0
 30
0.0
  0
VERTEX
  5
91
330
90
100
AcDbEntity
  8
Layer 3_laser
100
AcDbVertex
100
AcDb2dVertex
 10
45.92680606472585
 20
1.105637979356845
 30
0.0
  0
VERTEX
  5
92
330
90
100
AcDbEntity
  8
Layer 3_laser
100
AcDbVertex
100
AcDb2dVertex
 10
45.47140271284232
 20
-0.5939504678096448
 30
0.0
  0
SEQEND
  5
93
330
90
100
AcDbEntity
  8
Layer 3_laser
  0
POLYLINE
  5
94
330
1F
100
AcDbEntity
  8
Layer 3_laser
100
AcDb2dPolyline
 66
     1
 10
0.0
 20
0.0
 30
0.0
  0
VERTEX
  5
95
330
94
100
AcDbEntity
  8
Layer 3_laser
100
AcDbVertex
100
AcDb2dVertex
 10
44.79847319557577
 20
-3.10535761616122
 30
0.0
  0
VERTEX
  5
96
330
94
100
AcDbEntity
  8
Layer 3_laser
100
AcDbVertex
100
AcDb2dVertex
 10
44.34306984369224
 20
-4.804946063327694
 30
0.0
  0
SEQEND
  5
97
330
94
100
AcDbEntity
  8
Layer 3_laser
  0
POLYLINE
  5
98
330
1F
100
AcDbEntity
  8
Layer 3_laser
100
AcDb2dPolyline
 66
     1
 10
0.0
 20
0.0
 30
0.0
  0
VERTEX
  5
99
330
98
100
AcDbEntity
  8
Layer 3_laser
100
AcDbVertex
100
AcDb2dVertex
 10
44.34306984369225
 20
-4.804946063327678
 30
0.0
  0
VERTEX
  5
9A
330
98
100
AcDbEntity
  8
Layer 3_laser
100
AcDbVertex
100
AcDb2dVertex
 10
43.09888474840929
 20
-6.049131158610644
 30
0.0
  0
SEQEND
  5
9B
330
98
100
AcDbEntity
  8
Layer 3_laser
  0
POLYLINE
  5
9C
330
1F
100
AcDbEntity
  8
Layer 3_laser
100
AcDb2dPolyline
 66
     1
 10
0.0
 20
0.0
 30
0.0
  0
VERTEX
  5
9D
330
9C
100
AcDbEntity
  8
Layer 3_laser
100
AcDbVertex
100
AcDb2dVertex
 10
41.26040711732426
 20
-7.887608789695662
 30
0.0
  0
VERTEX
  5
9E
330
9C
100
AcDbEntity
  8
Layer 3_laser
100
AcDbVertex
100
AcDb2dVertex
 10
40.01622202204131
 20
-9.131793884978615
 30
0.0
  0
SEQEND
  5
9F
330
9C
100
AcDbEntity
  8
Layer 3_laser
  0
POLYLINE
  5
A0
330
1F
100
AcDbEntity
  8
Layer 3_laser
100
AcDb2dPolyline
 66
     1
 10
0.0
 20
0.0
 30
0.0
  0
VERTEX
  5
A1
330
A0
100
AcDbEntity
  8
Layer 3_laser
100
AcDbVertex
100
AcDb2dVertex
 10
40.01622202204135
 20
-9.131793884978599
 30
0.0
  0
VERTEX
  5
A2
330
A0
100
AcDbEntity
  8
Layer 3_laser
100
AcDbVertex
100
AcDb2dVertex
 10
38.31663357487486
 20
-9.587197236862124
 30
0.0
  0
SEQEND
  5
A3
330
A0
100
AcDbEntity
  8
Layer 3_laser
  0
POLYLINE
  5
A4
330
1F
100
AcDbEntity
  8
Layer 3_laser
100
AcDb2dPolyline
 66
     1
 10
0.0
 20
0.0
 30
0.0
  0
VERTEX
  5
A5
330
A4
100
AcDbEntity
  8
Layer 3_laser
100
AcDbVertex
100
AcDb2dVertex
 10
35.80522642652328
 20
-10.26012675412868
 30
0.0
  0
VERTEX
  5
A6
330
A4
100
AcDbEntity
  8
Layer 3_laser
100
AcDbVertex
100
AcDb2dVertex
 10
34.10563797935681
 20
-10.7155301060122
 30
0.0
  0
SEQEND
  5
A7
330
A4
100
AcDbEntity
  8
Layer 3_laser
  0
POLYLINE
  5
A8
330
1F
100
AcDbEntity
  8
Layer 3_laser
100
AcDb2dPolyline
 66
     1
 10
0.0
 20
0.0
 30
0.0
  0
VERTEX
  5
A9
330
A8
100
AcDbEntity
  8
Layer 3_laser
100
AcDbVertex
100
AcDb2dVertex
 10
34.10563797935683
 20
-10.7155301060122
 30
0.0
  0
VERTEX
  5
AA
330
A8
100
AcDbEntity
  8
Layer 3_laser
100
AcDbVertex
100
AcDb2dVertex
 10
32.40604953219034
 20
-10.26012675412868
 30
0.0
  0
SEQEND
  5
AB
330
A8
100
AcDbEntity
  8
Layer 3_laser
  0
POLYLINE
  5
AC
330
1F
100
AcDbEntity
  8
Layer 3_laser
100
AcDb2dPolyline
 66
     1
 10
0.0
 20
0.0
 30
0.0
  0
VERTEX
  5
AD
330
AC
100
AcDbEntity
  8
Layer 3_laser
100
AcDbVertex
100
AcDb2dVertex
 10
29.89464238383876
 20
-9.58719723686212
 30
0.0
  0
VERTEX
  5
AE
330
AC
100
AcDbEntity
  8
Layer 3_laser
100
AcDbVertex
100
AcDb2dVertex
 10
28.19505393667229
 20
-9.131793884978599
 30
0.0
  0
SEQEND
  5
AF
330
AC
100
AcDbEntity
  8
Layer 3_laser
  0
POLYLINE
  5
B0
330
1F
100
AcDbEntity
  8
Layer 3_laser
100
AcDb2dPolyline
 66
     1
 10
0.0
 20
0.0
 30
0.0
  0
VERTEX
  5
B1
330
B0
100
AcDbEntity
  8
Layer 3_laser
100
AcDbVertex
100
AcDb2dVertex
 10
28.19505393667233
 20
-9.131793884978627
 30
0.0
  0
VERTEX
  5
B2
330
B0
100
AcDbEntity
  8
Layer 3_laser
100
AcDbVertex
100
AcDb2dVertex
 10
26.95086884138937
 20
-7.887608789695671
 30
0.0
  0
SEQEND
  5
B3
330
B0
100
AcDbEntity
  8
Layer 3_laser
  0
POLYLINE
  5
B4
330
1F
100
AcDbEntity
  8
Layer 3_laser
100
AcDb2dPolyline
 66
     1
 10
0.0
 20
0.0
 30
0.0
  0
VERTEX
  5
B5
330
B4
100
AcDbEntity
  8
Layer 3_laser
100
AcDbVertex
100
AcDb2dVertex
 10
25.11239121030434
 20
-6.049131158610649
 30
0.0
  0
VERTEX
  5
B6
330
B4
100
AcDbEntity
  8
Layer 3_laser
100
AcDbVertex
100
AcDb2dVertex
 10
23.86820611502139
 20
-4.804946063327701
 30
0.0
  0
SEQEND
  5
B7
330
B4
100
AcDbEntity
  8
Layer 3_laser
  0
POLYLINE
  5
B8
330
1F
100
AcDbEntity
  8
Layer 3_laser
100
AcDb2dPolyline
 66
     1
 10
0.0
 20
0.0
 30
0.0
  0
VERTEX
  5
B9
330
B8
100
AcDbEntity
  8
Layer 3_laser
100
AcDbVertex
100
AcDb2dVertex
 10
23.8682061150214
 20
-4.804946063327732
 30
0.0
  0
VERTEX
  5
BA
330
B8
100
AcDbEntity
  8
Layer 3_laser
100
AcDbVertex
100
AcDb2dVertex
 10
23.41280276313787
 20
-3.105357616161244
 30
0.0
  0
SEQEND
  5
BB
330
B8
100
AcDbEntity
  8
Layer 3_laser
  0
POLYLINE
  5
BC
330
1F
100
AcDbEntity
  8
Layer 3_laser
100
AcDb2dPolyline
 66
     1
 10
0.0
 20
0.0
 30
0.0
  0
VERTEX
  5
BD
330
BC
100
AcDbEntity
  8
Layer 3_laser
100
AcDbVertex
100
AcDb2dVertex
 10
22.73987324587131
 20
-0.5939504678096688
 30
0.0
  0
VERTEX
  5
BE
330
BC
100
AcDbEntity
  8
Layer 3_laser
100
AcDbVertex
100
AcDb2dVertex
 10
22.28446989398778
 20
1.105637979356804
 30
0.0
  0
SEQEND
  5
BF
330
BC
100
AcDbEntity
  8
Layer 3_laser
  0
POLYLINE
  5
C0
330
1F
100
AcDbEntity
  8
Layer 3_laser
100
AcDb2dPolyline
 66
     1
 10
0.0
 20
0.0
 30
0.0
  0
VERTEX
  5
C1
330
C0
100
AcDbEntity
  8
Layer 3_laser
100
AcDbVertex
100
AcDb2dVertex
 10
22.28446989398778
 20
1.105637979356818
 30
0.0
  0
VERTEX
  5
C2
330
C0
100
AcDbEntity
  8
Layer 3_laser
100
AcDbVertex
100
AcDb2dVertex
 10
22.7398732458713
 20
2.805226426523308
 30
0.0
  0
SEQEND
  5
C3
330
C0
100
AcDbEntity
  8
Layer 3_laser
  0
POLYLINE
  5
C4
330
1F
100
AcDbEntity
  8
Layer 3_laser
100
AcDb2dPolyline
 66
     1
 10
0.0
 20
0.0
 30
0.0
  0
VERTEX
  5
C5
330
C4
100
AcDbEntity
  8
Layer 3_laser
100
AcDbVertex
100
AcDb2dVertex
 10
23.41280276313786
 20
5.316633574874881
 30
0.0
  0
VERTEX
  5
C6
330
C4
100
AcDbEntity
  8
Layer 3_laser
100
AcDbVertex
100
AcDb2dVertex
 10
23.86820611502138
 20
7.016222022041358
 30
0.0
  0
SEQEND
  5
C7
330
C4
100
AcDbEntity
  8
Layer 3_laser
  0
POLYLINE
  5
C8
330
1F
100
AcDbEntity
  8
Layer 3_laser
100
AcDb2dPolyline
 66
     1
 10
0.0
 20
0.0
 30
0.0
  0
VERTEX
  5
C9
330
C8
100
AcDbEntity
  8
Layer 3_laser
100
AcDbVertex
100
AcDb2dVertex
 10
23.86820611502135
 20
7.016222022041308
 30
0.0
  0
VERTEX
  5
CA
330
C8
100
AcDbEntity
  8
Layer 3_laser
100
AcDbVertex
100
AcDb2dVertex
 10
25.11239121030431
 20
8.260407117324277
 30
0.0
  0
SEQEND
  5
CB
330
C8
100
AcDbEntity
  8
Layer 3_laser
  0
POLYLINE
  5
CC
330
1F
100
AcDbEntity
  8
Layer 3_laser
100
AcDb2dPolyline
 66
     1
 10
0.0
 20
0.0
 30
0.0
  0
VERTEX
  5
CD
330
CC
100
AcDbEntity
  8
Layer 3_laser
100
AcDbVertex
100
AcDb2dVertex
 10
26.95086884138933
 20
10.0988847484093
 30
0.0
  0
VERTEX
  5
CE
330
CC
100
AcDbEntity
  8
Layer 3_laser
100
AcDbVertex
100
AcDb2dVertex
 10
28.19505393667228
 20
11.34306984369226
 30
0.0
  0
SEQEND
  5
CF
330
CC
100
AcDbEntity
  8
Layer 3_laser
  0
POLYLINE
  5
D0
330
1F
100
AcDbEntity
  8
Layer 3_laser
100
AcDb2dPolyline
 66
     1
 10
0.0
 20
0.0
 30
0.0
  0
VERTEX
  5
D1
330
D0
100
AcDbEntity
  8
Layer 3_laser
100
AcDbVertex
100
AcDb2dVertex
 10
28.19505393667228
 20
11.34306984369226
 30
0.0
  0
VERTEX
  5
D2
330
D0
100
AcDbEntity
  8
Layer 3_laser
100
AcDbVertex
100
AcDb2dVertex
 10
29.89464238383876
 20
11.79847319557579
 30
0.0
  0
SEQEND
  5
D3
330
D0
100
AcDbEntity
  8
Layer 3_laser
  0
POLYLINE
  5
D4
330
1F
100
AcDbEntity
  8
Layer 3_laser
100
AcDb2dPolyline
 66
     1
 10
0.0
 20
0.0
 30
0.0
  0
VERTEX
  5
D5
330
D4
100
AcDbEntity
  8
Layer 3_laser
100
AcDbVertex
100
AcDb2dVertex
 10
32.40604953219034
 20
12.47140271284234
 30
0.0
  0
VERTEX
  5
D6
330
D4
100
AcDbEntity
  8
Layer 3_laser
100
AcDbVertex
100
AcDb2dVertex
 10
34.10563797935681
 20
12.92680606472587
 30
0.0
  0
SEQEND
  5
D7
330
D4
100
AcDbEntity
  8
Layer 3_laser
  0
LINE
  5
D8
330
1F
100
AcDbEntity
  8
Layer 3_laser
100
AcDbLine
 10
15.1056379793568
 20
-12.07319393527413
 30
0.0
 11
10.75199931799258
 21
-7.646361338635778
 31
0.0
  0
LINE
  5
D9
330
1F
100
AcDbEntity
  8
Layer 3_laser
100
AcDbLine
 10
10.75199931799258
 20
-7.646361338635778
 30
0.0
 11
9.195053936672263
 21
-13.65693015630773
 31
0.0
  0
LINE
  5
DA
330
1F
100
AcDbEntity
  8
Layer 3_laser
100
AcDbLine
 10
9.195053936672263
 20
-13.65693015630773
 30
0.0
 11
3.211275958713596
 21
-12.0
 31
0.0
  0
LINE
  5
DB
330
1F
100
AcDbEntity
  8
Layer 3_laser
100
AcDbLine
 10
3.211275958713596
 20
-12.0
 30
0.0
 11
4.868206115021331
 21
-17.98377797795867
 31
0.0
  0
LINE
  5
DC
330
1F
100
AcDbEntity
  8
Layer 3_laser
100
AcDbLine
 10
4.868206115021331
 20
-17.98377797795867
 30
0.0
 11
-1.142362702650622
 21
-19.54072335927898
 31
0.0
  0
LINE
  5
DD
330
1F
100
AcDbEntity
  8
Layer 3_laser
100
AcDbLine
 10
-1.142362702650622
 20
-19.54072335927898
 30
0.0
 11
3.28446989398773
 21
-23.8943620206432
 31
0.0
  0
LINE
  5
DE
330
1F
100
AcDbEntity
  8
Layer 3_laser
100
AcDbLine
 10
3.28446989398773
 20
-23.8943620206432
 30
0.0
 11
-1.142362702650626
 21
-28.24800068200742
 31
0.0
  0
LINE
  5
DF
330
1F
100
AcDbEntity
  8
Layer 3_laser
100
AcDbLine
 10
-1.142362702650626
 20
-28.24800068200742
 30
0.0
 11
4.868206115021327
 21
-29.80494606332773
 31
0.0
  0
LINE
  5
E0
330
1F
100
AcDbEntity
  8
Layer 3_laser
100
AcDbLine
 10
4.868206115021327
 20
-29.80494606332773
 30
0.0
 11
3.211275958713596
 21
-35.7887240412864
 31
0.0
  0
LINE
  5
E1
330
1F
100
AcDbEntity
  8
Layer 3_laser
100
AcDbLine
 10
3.211275958713596
 20
-35.7887240412864
 30
0.0
 11
9.19505393667226
 21
-34.13179388497866
 31
0.0
  0
LINE
  5
E2
330
1F
100
AcDbEntity
  8
Layer 3_laser
100
AcDbLine
 10
9.19505393667226
 20
-34.13179388497866
 30
0.0
 11
10.75199931799257
 21
-40.14236270265062
 31
0.0
  0
LINE
  5
E3
330
1F
100
AcDbEntity
  8
Layer 3_laser
100
AcDbLine
 10
10.75199931799257
 20
-40.14236270265062
 30
0.0
 11
15.1056379793568
 21
-35.71553010601227
 31
0.0
  0
LINE
  5
E4
330
1F
100
AcDbEntity
  8
Layer 3_laser
100
AcDbLine
 10
15.1056379793568
 20
-35.71553010601227
 30
0.0
 11
19.45927664072101
 21
-40.14236270265062
 31
0.0
  0
LINE
  5
E5
330
1F
100
AcDbEntity
  8
Layer 3_laser
100
AcDbLine
 10
19.45927664072101
 20
-40.14236270265062
 30
0.0
 11
21.01622202204133
 21
-34.13179388497867
 31
0.0
  0
LINE
  5
E6
330
1F
100
AcDbEntity
  8
Layer 3_laser
100
AcDbLine
 10
21.01622202204133
 20
-34.13179388497867
 30
0.0
 11
26.99999999999999
 21
-35.78872404128641
 31
0.0
  0
LINE
  5
E7
330
1F
100
AcDbEntity
  8
Layer 3_laser
100
AcDbLine
 10
26.99999999999999
 20
-35.78872404128641
 30
0.0
 11
25.34306984369226
 21
-29.80494606332774
 31
0.0
  0
LINE
  5
E8
330
1F
100
AcDbEntity
  8
Layer 3_laser
100
AcDbLine
 10
25.34306984369226
 20
-29.80494606332774
 30
0.0
 11
31.35363866136422
 21
-28.24800068200743
 31
0.0
  0
LINE
  5
E9
330
1F
100
AcDbEntity
  8
Layer 3_laser
100
AcDbLine
 10
31.35363866136422
 20
-28.24800068200743
 30
0.0
 11
26.92680606472587
 21
-23.8943620206432
 31
0.0
  0
LINE
  5
EA
330
1F
100
AcDbEntity
  8
Layer 3_laser
100
AcDbLine
 10
26.92680606472587
 20
-23.8943620206432
 30
0.0
 11
31.35363866136422
 21
-19.54072335927899
 31
0.0
  0
LINE
  5
EB
330
1F
100
AcDbEntity
  8
Layer 3_laser
100
AcDbLine
 10
31.35363866136422
 20
-19.54072335927899
 30
0.0
 11
25.34306984369227
 21
-17.98377797795868
 31
0.0
  0
LINE
  5
EC
330
1F
100
AcDbEntity
  8
Layer 3_laser
100
AcDbLine
 10
25.34306984369227
 20
-17.98377797795868
 30
0.0
 11
27.0
 21
-12.0
 31
0.0
  0
LINE
  5
ED
330
1F
100
AcDbEntity
  8
Layer 3_laser
100
AcDbLine
 10
27.0
 20
-12.0
 30
0.0
 11
21.01622202204134
 21
-13.65693015630774
 31
0.0
  0
LINE
  5
EE
330
1F
100
AcDbEntity
  8
Layer 3_laser
100
AcDbLine
 10
21.01622202204134
 20
-13.65693015630774
 30
0.0
 11
19.45927664072103
 21
-7.646361338635785
 31
0.0
  0
LINE
  5
EF
330
1F
100
AcDbEntity
  8
Layer 3_laser
100
AcDbLine
 10
19.45927664072103
 20
-7.646361338635785
 30
0.0
 11
15.1056379793568
 21
-12.07319393527413
 31
0.0
  0
POLYLINE
  5
F0
330
1F
100
AcDbEntity
  8
Layer 3_laser
100
AcDb2dPolyline
 66
     1
 10
0.0
 20
0.0
 30
0.0
  0
VERTEX
  5
F1
330
F0
100
AcDbEntity
  8
Layer 3_laser
100
AcDbVertex
100
AcDb2dVertex
 10
15.1056379793568
 20
-12.07319393527413
 30
0.0
  0
VERTEX
  5
F2
330
F0
100
AcDbEntity
  8
Layer 3_laser
100
AcDbVertex
100
AcDb2dVertex
 10
16.80522642652329
 20
-12.52859728715766
 30
0.0
  0
SEQEND
  5
F3
330
F0
100
AcDbEntity
  8
Layer 3_laser
  0
POLYLINE
  5
F4
330
1F
100
AcDbEntity
  8
Layer 3_laser
100
AcDb2dPolyline
 66
     1
 10
0.0
 20
0.0
 30
0.0
  0
VERTEX
  5
F5
330
F4
100
AcDbEntity
  8
Layer 3_laser
100
AcDbVertex
100
AcDb2dVertex
 10
19.31663357487486
 20
-13.20152680442422
 30
0.0
  0
VERTEX
  5
F6
330
F4
100
AcDbEntity
  8
Layer 3_laser
100
AcDbVertex
100
AcDb2dVertex
 10
21.01622202204134
 20
-13.65693015630774
 30
0.0
  0
SEQEND
  5
F7
330
F4
100
AcDbEntity
  8
Layer 3_laser
  0
POLYLINE
  5
F8
330
1F
100
AcDbEntity
  8
Layer 3_laser
100
AcDb2dPolyline
 66
     1
 10
0.0
 20
0.0
 30
0.0
  0
VERTEX
  5
F9
330
F8
100
AcDbEntity
  8
Layer 3_laser
100
AcDbVertex
100
AcDb2dVertex
 10
21.01622202204133
 20
-13.65693015630773
 30
0.0
  0
VERTEX
  5
FA
330
F8
100
AcDbEntity
  8
Layer 3_laser
100
AcDbVertex
100
AcDb2dVertex
 10
22.26040711732429
 20
-14.90111525159069
 30
0.0
  0
SEQEND
  5
FB
330
F8
100
AcDbEntity
  8
Layer 3_laser
  0
POLYLINE
  5
FC
330
1F
100
AcDbEntity
  8
Layer 3_laser
100
AcDb2dPolyline
 66
     1
 10
0.0
 20
0.0
 30
0.0
  0
VERTEX
  5
FD
330
FC
100
AcDbEntity
  8
Layer 3_laser
100
AcDbVertex
100
AcDb2dVertex
 10
24.09888474840931
 20
-16.73959288267572
 30
0.0
  0
VERTEX
  5
FE
330
FC
100
AcDbEntity
  8
Layer 3_laser
100
AcDbVertex
100
AcDb2dVertex
 10
25.34306984369226
 20
-17.98377797795867
 30
0.0
  0
SEQEND
  5
FF
330
FC
100
AcDbEntity
  8
Layer 3_laser
  0
POLYLINE
  5
100
330
1F
100
AcDbEntity
  8
Layer 3_laser
100
AcDb2dPolyline
 66
     1
 10
0.0
 20
0.0
 30
0.0
  0
VERTEX
  5
101
330
100
100
AcDbEntity
  8
Layer 3_laser
100
AcDbVertex
100
AcDb2dVertex
 10
25.34306984369225
 20
-17.98377797795866
 30
0.0
  0
VERTEX
  5
102
330
100
100
AcDbEntity
  8
Layer 3_laser
100
AcDbVertex
100
AcDb2dVertex
 10
25.79847319557578
 20
-19.68336642512515
 30
0.0
  0
SEQEND
  5
103
330
100
100
AcDbEntity
  8
Layer 3_laser
  0
POLYLINE
  5
104
330
1F
100
AcDbEntity
  8
Layer 3_laser
100
AcDb2dPolyline
 66
     1
 10
0.0
 20
0.0
 30
0.0
  0
VERTEX
  5
105
330
104
100
AcDbEntity
  8
Layer 3_laser
100
AcDbVertex
100
AcDb2dVertex
 10
26.47140271284232
 20
-22.19477357347672
 30
0.0
  0
VERTEX
  5
106
330
104
100
AcDbEntity
  8
Layer 3_laser
100
AcDbVertex
100
AcDb2dVertex
 10
26.92680606472585
 20
-23.8943620206432
 30
0.0
  0
SEQEND
  5
107
330
104
100
AcDbEntity
  8
Layer 3_laser
  0
POLYLINE
  5
108
330
1F
100
AcDbEntity
  8
Layer 3_laser
100
AcDb2dPolyline
 66
     1
 10
0.0
 20
0.0
 30
0.0
  0
VERTEX
  5
109
330
108
100
AcDbEntity
  8
Layer 3_laser
100
AcDbVertex
100
AcDb2dVertex
 10
26.92680606472585
 20
-23.89436202064315
 30
0.0
  0
VERTEX
  5
10A
330
108
100
AcDbEntity
  8
Layer 3_laser
100
AcDbVertex
100
AcDb2dVertex
 10
26.47140271284232
 20
-25.59395046780964
 30
0.0
  0
SEQEND
  5
10B
330
108
100
AcDbEntity
  8
Layer 3_laser
  0
POLYLINE
  5
10C
330
1F
100
AcDbEntity
  8
Layer 3_laser
100
AcDb2dPolyline
 66
     1
 10
0.0
 20
0.0
 30
0.0
  0
VERTEX
  5
10D
330
10C
100
AcDbEntity
  8
Layer 3_laser
100
AcDbVertex
100
AcDb2dVertex
 10
25.79847319557576
 20
-28.10535761616122
 30
0.0
  0
VERTEX
  5
10E
330
10C
100
AcDbEntity
  8
Layer 3_laser
100
AcDbVertex
100
AcDb2dVertex
 10
25.34306984369224
 20
-29.80494606332769
 30
0.0
  0
SEQEND
  5
10F
330
10C
100
AcDbEntity
  8
Layer 3_laser
  0
POLYLINE
  5
110
330
1F
100
AcDbEntity
  8
Layer 3_laser
100
AcDb2dPolyline
 66
     1
 10
0.0
 20
0.0
 30
0.0
  0
VERTEX
  5
111
330
110
100
AcDbEntity
  8
Layer 3_laser
100
AcDbVertex
100
AcDb2dVertex
 10
25.34306984369225
 20
-29.80494606332768
 30
0.0
  0
VERTEX
  5
112
330
110
100
AcDbEntity
  8
Layer 3_laser
100
AcDbVertex
100
AcDb2dVertex
 10
24.09888474840929
 20
-31.04913115861064
 30
0.0
  0
SEQEND
  5
113
330
110
100
AcDbEntity
  8
Layer 3_laser
  0
POLYLINE
  5
114
330
1F
100
AcDbEntity
  8
Layer 3_laser
100
AcDb2dPolyline
 66
     1
 10
0.0
 20
0.0
 30
0.0
  0
VERTEX
  5
115
330
114
100
AcDbEntity
  8
Layer 3_laser
100
AcDbVertex
100
AcDb2dVertex
 10
22.26040711732426
 20
-32.88760878969566
 30
0.0
  0
VERTEX
  5
116
330
114
100
AcDbEntity
  8
Layer 3_laser
100
AcDbVertex
100
AcDb2dVertex
 10
21.01622202204131
 20
-34.13179388497861
 30
0.0
  0
SEQEND
  5
117
330
114
100
AcDbEntity
  8
Layer 3_laser
  0
POLYLINE
  5
118
330
1F
100
AcDbEntity
  8
Layer 3_laser
100
AcDb2dPolyline
 66
     1
 10
0.0
 20
0.0
 30
0.0
  0
VERTEX
  5
119
330
118
100
AcDbEntity
  8
Layer 3_laser
100
AcDbVertex
100
AcDb2dVertex
 10
21.01622202204134
 20
-34.1317938849786
 30
0.0
  0
VERTEX
  5
11A
330
118
100
AcDbEntity
  8
Layer 3_laser
100
AcDbVertex
100
AcDb2dVertex
 10
19.31663357487486
 20
-34.58719723686212
 30
0.0
  0
SEQEND
  5
11B
330
118
100
AcDbEntity
  8
Layer 3_laser
  0
POLYLINE
  5
11C
330
1F
100
AcDbEntity
  8
Layer 3_laser
100
AcDb2dPolyline
 66
     1
 10
0.0
 20
0.0
 30
0.0
  0
VERTEX
  5
11D
330
11C
100
AcDbEntity
  8
Layer 3_laser
100
AcDbVertex
100
AcDb2dVertex
 10
16.80522642652328
 20
-35.26012675412868
 30
0.0
  0
VERTEX
  5
11E
330
11C
100
AcDbEntity
  8
Layer 3_laser
100
AcDbVertex
100
AcDb2dVertex
 10
15.10563797935681
 20
-35.7155301060122
 30
0.0
  0
SEQEND
  5
11F
330
11C
100
AcDbEntity
  8
Layer 3_laser
  0
POLYLINE
  5
120
330
1F
100
AcDbEntity
  8
Layer 3_laser
100
AcDb2dPolyline
 66
     1
 10
0.0
 20
0.0
 30
0.0
  0
VERTEX
  5
121
330
120
100
AcDbEntity
  8
Layer 3_laser
100
AcDbVertex
100
AcDb2dVertex
 10
15.10563797935682
 20
-35.7155301060122
 30
0.0
  0
VERTEX
  5
122
330
120
100
AcDbEntity
  8
Layer 3_laser
100
AcDbVertex
100
AcDb2dVertex
 10
13.40604953219034
 20
-35.26012675412868
 30
0.0
  0
SEQEND
  5
123
330
120
100
AcDbEntity
  8
Layer 3_laser
  0
POLYLINE
  5
124
330
1F
100
AcDbEntity
  8
Layer 3_laser
100
AcDb2dPolyline
 66
     1
 10
0.0
 20
0.0
 30
0.0
  0
VERTEX
  5
125
330
124
100
AcDbEntity
  8
Layer 3_laser
100
AcDbVertex
100
AcDb2dVertex
 10
10.89464238383876
 20
-34.58719723686212
 30
0.0
  0
VERTEX
  5
126
330
124
100
AcDbEntity
  8
Layer 3_laser
100
AcDbVertex
100
AcDb2dVertex
 10
9.195053936672286
 20
-34.1317938849786
 30
0.0
  0
SEQEND
  5
127
330
124
100
AcDbEntity
  8
Layer 3_laser
  0
POLYLINE
  5
128
330
1F
100
AcDbEntity
  8
Layer 3_laser
100
AcDb2dPolyline
 66
     1
 10
0.0
 20
0.0
 30
0.0
  0
VERTEX
  5
129
330
128
100
AcDbEntity
  8
Layer 3_laser
100
AcDbVertex
100
AcDb2dVertex
 10
9.195053936672332
 20
-34.13179388497863
 30
0.0
  0
VERTEX
  5
12A
330
128
100
AcDbEntity
  8
Layer 3_laser
100
AcDbVertex
100
AcDb2dVertex
 10
7.950868841389365
 20
-32.88760878969567
 30
0.0
  0
SEQEND
  5
12B
330
128
100
AcDbEntity
  8
Layer 3_laser
  0
POLYLINE
  5
12C
330
1F
100
AcDbEntity
  8
Layer 3_laser
100
AcDb2dPolyline
 66
     1
 10
0.0
 20
0.0
 30
0.0
  0
VERTEX
  5
12D
330
12C
100
AcDbEntity
  8
Layer 3_laser
100
AcDbVertex
100
AcDb2dVertex
 10
6.112391210304342
 20
-31.04913115861065
 30
0.0
  0
VERTEX
  5
12E
330
12C
100
AcDbEntity
  8
Layer 3_laser
100
AcDbVertex
100
AcDb2dVertex
 10
4.868206115021385
 20
-29.8049460633277
 30
0.0
  0
SEQEND
  5
12F
330
12C
100
AcDbEntity
  8
Layer 3_laser
  0
POLYLINE
  5
130
330
1F
100
AcDbEntity
  8
Layer 3_laser
100
AcDb2dPolyline
 66
     1
 10
0.0
 20
0.0
 30
0.0
  0
VERTEX
  5
131
330
130
100
AcDbEntity
  8
Layer 3_laser
100
AcDbVertex
100
AcDb2dVertex
 10
4.868206115021398
 20
-29.80494606332773
 30
0.0
  0
VERTEX
  5
132
330
130
100
AcDbEntity
  8
Layer 3_laser
100
AcDbVertex
100
AcDb2dVertex
 10
4.412802763137865
 20
-28.10535761616124
 30
0.0
  0
SEQEND
  5
133
330
130
100
AcDbEntity
  8
Layer 3_laser
  0
POLYLINE
  5
134
330
1F
100
AcDbEntity
  8
Layer 3_laser
100
AcDb2dPolyline
 66
     1
 10
0.0
 20
0.0
 30
0.0
  0
VERTEX
  5
135
330
134
100
AcDbEntity
  8
Layer 3_laser
100
AcDbVertex
100
AcDb2dVertex
 10
3.739873245871308
 20
-25.59395046780967
 30
0.0
  0
VERTEX
  5
136
330
134
100
AcDbEntity
  8
Layer 3_laser
100
AcDbVertex
100
AcDb2dVertex
 10
3.284469893987776
 20
-23.8943620206432
 30
0.0
  0
SEQEND
  5
137
330
134
100
AcDbEntity
  8
Layer 3_laser
  0
POLYLINE
  5
138
330
1F
100
AcDbEntity
  8
Layer 3_laser
100
AcDb2dPolyline
 66
     1
 10
0.0
 20
0.0
 30
0.0
  0
VERTEX
  5
139
330
138
100
AcDbEntity
  8
Layer 3_laser
100
AcDbVertex
100
AcDb2dVertex
 10
3.284469893987776
 20
-23.89436202064318
 30
0.0
  0
VERTEX
  5
13A
330
138
100
AcDbEntity
  8
Layer 3_laser
100
AcDbVertex
100
AcDb2dVertex
 10
3.739873245871301
 20
-22.19477357347669
 30
0.0
  0
SEQEND
  5
13B
330
138
100
AcDbEntity
  8
Layer 3_laser
  0
POLYLINE
  5
13C
330
1F
100
AcDbEntity
  8
Layer 3_laser
100
AcDb2dPolyline
 66
     1
 10
0.0
 20
0.0
 30
0.0
  0
VERTEX
  5
13D
330
13C
100
AcDbEntity
  8
Layer 3_laser
100
AcDbVertex
100
AcDb2dVertex
 10
4.412802763137858
 20
-19.68336642512512
 30
0.0
  0
VERTEX
  5
13E
330
13C
100
AcDbEntity
  8
Layer 3_laser
100
AcDbVertex
100
AcDb2dVertex
 10
4.86820611502138
 20
-17.98377797795864
 30
0.0
  0
SEQEND
  5
13F
330
13C
100
AcDbEntity
  8
Layer 3_laser
  0
POLYLINE
  5
140
330
1F
100
AcDbEntity
  8
Layer 3_laser
100
AcDb2dPolyline
 66
     1
 10
0.0
 20
0.0
 30
0.0
  0
VERTEX
  5
141
330
140
100
AcDbEntity
  8
Layer 3_laser
100
AcDbVertex
100
AcDb2dVertex
 10
4.868206115021351
 20
-17.98377797795869
 30
0.0
  0
VERTEX
  5
142
330
140
100
AcDbEntity
  8
Layer 3_laser
100
AcDbVertex
100
AcDb2dVertex
 10
6.11239121030431
 20
-16.73959288267572
 30
0.0
  0
SEQEND
  5
143
330
140
100
AcDbEntity
  8
Layer 3_laser
  0
POLYLINE
  5
144
330
1F
100
AcDbEntity
  8
Layer 3_laser
100
AcDb2dPolyline
 66
     1
 10
0.0
 20
0.0
 30
0.0
  0
VERTEX
  5
145
330
144
100
AcDbEntity
  8
Layer 3_laser
100
AcDbVertex
100
AcDb2dVertex
 10
7.95086884138933
 20
-14.9011152515907
 30
0.0
  0
VERTEX
  5
146
330
144
100
AcDbEntity
  8
Layer 3_laser
100
AcDbVertex
100
AcDb2dVertex
 10
9.195053936672277
 20
-13.65693015630774
 30
0.0
  0
SEQEND
  5
147
330
144
100
AcDbEntity
  8
Layer 3_laser
  0
POLYLINE
  5
148
330
1F
100
AcDbEntity
  8
Layer 3_laser
100
AcDb2dPolyline
 66
     1
 10
0.0
 20
0.0
 30
0.0
  0
VERTEX
  5
149
330
148
100
AcDbEntity
  8
Layer 3_laser
100
AcDbVertex
100
AcDb2dVertex
 10
9.195053936672277
 20
-13.65693015630774
 30
0.0
  0
VERTEX
  5
14A
330
148
100
AcDbEntity
  8
Layer 3_laser
100
AcDbVertex
100
AcDb2dVertex
 10
10.89464238383877
 20
-13.20152680442421
 30
0.0
  0
SEQEND
  5
14B
330
148
100
AcDbEntity
  8
Layer 3_laser
  0
POLYLINE
  5
14C
330
1F
100
AcDbEntity
  8
Layer 3_laser
100
AcDb2dPolyline
 66
     1
 10
0.0
 20
0.0
 30
0.0
  0
VERTEX
  5
14D
330
14C
100
AcDbEntity
  8
Layer 3_laser
100
AcDbVertex
100
AcDb2dVertex
 10
13.40604953219034
 20
-12.52859728715766
 30
0.0
  0
VERTEX
  5
14E
330
14C
100
AcDbEntity
  8
Layer 3_laser
100
AcDbVertex
100
AcDb2dVertex
 10
15.10563797935682
 20
-12.07319393527413
 30
0.0
  0
SEQEND
  5
14F
330
14C
100
AcDbEntity
  8
Layer 3_laser
  0
LINE
  5
150
330
1F
100
AcDbEntity
  8
Layer 3_laser
100
AcDbLine
 10
-15.8943620206432
 20
-8.073193935274134
 30
0.0
 11
-20.24800068200742
 21
-3.646361338635778
 31
0.0
  0
LINE
  5
151
330
1F
100
AcDbEntity
  8
Layer 3_laser
100
AcDbLine
 10
-20.24800068200742
 20
-3.646361338635778
 30
0.0
 11
-21.80494606332774
 21
-9.656930156307734
 31
0.0
  0
LINE
  5
152
330
1F
100
AcDbEntity
  8
Layer 3_laser
100
AcDbLine
 10
-21.80494606332774
 20
-9.656930156307734
 30
0.0
 11
-27.7887240412864
 21
-8.0
 31
0.0
  0
LINE
  5
153
330
1F
100
AcDbEntity
  8
Layer 3_laser
100
AcDbLine
 10
-27.7887240412864
 20
-8.0
 30
0.0
 11
-26.13179388497867
 21
-13.98377797795867
 31
0.0
  0
LINE
  5
154
330
1F
100
AcDbEntity
  8
Layer 3_laser
100
AcDbLine
 10
-26.13179388497867
 20
-13.98377797795867
 30
0.0
 11
-32.14236270265062
 21
-15.54072335927898
 31
0.0
  0
LINE
  5
155
330
1F
100
AcDbEntity
  8
Layer 3_laser
100
AcDbLine
 10
-32.14236270265062
 20
-15.54072335927898
 30
0.0
 11
-27.71553010601227
 21
-19.8943620206432
 31
0.0
  0
LINE
  5
156
330
1F
100
AcDbEntity
  8
Layer 3_laser
100
AcDbLine
 10
-27.71553010601227
 20
-19.8943620206432
 30
0.0
 11
-32.14236270265063
 21
-24.24800068200742
 31
0.0
  0
LINE
  5
157
330
1F
100
AcDbEntity
  8
Layer 3_laser
100
AcDbLine
 10
-32.14236270265063
 20
-24.24800068200742
 30
0.0
 11
-26.13179388497867
 21
-25.80494606332773
 31
0.0
  0
LINE
  5
158
330
1F
100
AcDbEntity
  8
Layer 3_laser
100
AcDbLine
 10
-26.13179388497867
 20
-25.80494606332773
 30
0.0
 11
-27.7887240412864
 21
-31.7887240412864
 31
0.0
  0
LINE
  5
159
330
1F
100
AcDbEntity
  8
Layer 3_laser
100
AcDbLine
 10
-27.7887240412864
 20
-31.7887240412864
 30
0.0
 11
-21.80494606332774
 21
-30.13179388497867
 31
0.0
  0
LINE
  5
15A
330
1F
100
AcDbEntity
  8
Layer 3_laser
100
AcDbLine
 10
-21.80494606332774
 20
-30.13179388497867
 30
0.0
 11
-20.24800068200743
 21
-36.14236270265062
 31
0.0
  0
LINE
  5
15B
330
1F
100
AcDbEntity
  8
Layer 3_laser
100
AcDbLine
 10
-20.24800068200743
 20
-36.14236270265062
 30
0.0
 11
-15.8943620206432
 21
-31.71553010601227
 31
0.0
  0
LINE
  5
15C
330
1F
100
AcDbEntity
  8
Layer 3_laser
100
AcDbLine
 10
-15.8943620206432
 20
-31.71553010601227
 30
0.0
 11
-11.54072335927899
 21
-36.14236270265062
 31
0.0
  0
LINE
  5
15D
330
1F
100
AcDbEntity
  8
Layer 3_laser
100
AcDbLine
 10
-11.54072335927899
 20
-36.14236270265062
 30
0.0
 11
-9.98377797795867
 21
-30.13179388497867
 31
0.0
  0
LINE
  5
15E
330
1F
100
AcDbEntity
  8
Layer 3_laser
100
AcDbLine
 10
-9.98377797795867
 20
-30.13179388497867
 30
0.0
 11
-4.000000000000007
 21
-31.78872404128641
 31
0.0
  0
LINE
  5
15F
330
1F
100
AcDbEntity
  8
Layer 3_laser
100
AcDbLine
 10
-4.000000000000007
 20
-31.78872404128641
 30
0.0
 11
-5.656930156307737
 21
-25.80494606332774
 31
0.0
  0
LINE
  5
160
330
1F
100
AcDbEntity
  8
Layer 3_laser
100
AcDbLine
 10
-5.656930156307737
 20
-25.80494606332774
 30
0.0
 11
0.3536386613642151
 21
-24.24800068200743
 31
0.0
  0
LINE
  5
161
330
1F
100
AcDbEntity
  8
Layer 3_laser
100
AcDbLine
 10
0.3536386613642151
 20
-24.24800068200743
 30
0.0
 11
-4.073193935274134
 21
-19.8943620206432
 31
0.0
  0
LINE
  5
162
330
1F
100
AcDbEntity
  8
Layer 3_laser
100
AcDbLine
 10
-4.073193935274134
 20
-19.8943620206432
 30
0.0
 11
0.3536386613642186
 21
-15.54072335927899
 31
0.0
  0
LINE
  5
163
330
1F
100
AcDbEntity
  8
Layer 3_laser
100
AcDbLine
 10
0.3536386613642186
 20
-15.54072335927899
 30
0.0
 11
-5.65693015630773
 21
-13.98377797795868
 31
0.0
  0
LINE
  5
164
330
1F
100
AcDbEntity
  8
Layer 3_laser
100
AcDbLine
 10
-5.65693015630773
 20
-13.98377797795868
 30
0.0
 11
-4.0
 21
-8.0
 31
0.0
  0
LINE
  5
165
330
1F
100
AcDbEntity
  8
Layer 3_laser
100
AcDbLine
 10
-4.0
 20
-8.0
 30
0.0
 11
-9.983777977958663
 21
-9.656930156307737
 31
0.0
  0
LINE
  5
166
330
1F
100
AcDbEntity
  8
Layer 3_laser
100
AcDbLine
 10
-9.983777977958663
 20
-9.656930156307737
 30
0.0
 11
-11.54072335927897
 21
-3.646361338635785
 31
0.0
  0
LINE
  5
167
330
1F
100
AcDbEntity
  8
Layer 3_laser
100
AcDbLine
 10
-11.54072335927897
 20
-3.646361338635785
 30
0.0
 11
-15.8943620206432
 21
-8.073193935274134
 31
0.0
  0
POLYLINE
  5
168
330
1F
100
AcDbEntity
  8
Layer 3_laser
100
AcDb2dPolyline
 66
     1
 10
0.0
 20
0.0
 30
0.0
  0
VERTEX
  5
169
330
168
100
AcDbEntity
  8
Layer 3_laser
100
AcDbVertex
100
AcDb2dVertex
 10
-15.8943620206432
 20
-8.073193935274134
 30
0.0
  0
VERTEX
  5
16A
330
168
100
AcDbEntity
  8
Layer 3_laser
100
AcDbVertex
100
AcDb2dVertex
 10
-14.19477357347671
 20
-8.528597287157659
 30
0.0
  0
SEQEND
  5
16B
330
168
100
AcDbEntity
  8
Layer 3_laser
  0
POLYLINE
  5
16C
330
1F
100
AcDbEntity
  8
Layer 3_laser
100
AcDb2dPolyline
 66
     1
 10
0.0
 20
0.0
 30
0.0
  0
VERTEX
  5
16D
330
16C
100
AcDbEntity
  8
Layer 3_laser
100
AcDbVertex
100
AcDb2dVertex
 10
-11.68336642512514
 20
-9.201526804424216
 30
0.0
  0
VERTEX
  5
16E
330
16C
100
AcDbEntity
  8
Layer 3_laser
100
AcDbVertex
100
AcDb2dVertex
 10
-9.983777977958663
 20
-9.656930156307737
 30
0.0
  0
SEQEND
  5
16F
330
16C
100
AcDbEntity
  8
Layer 3_laser
  0
POLYLINE
  5
170
330
1F
100
AcDbEntity
  8
Layer 3_laser
100
AcDb2dPolyline
 66
     1
 10
0.0
 20
0.0
 30
0.0
  0
VERTEX
  5
171
330
170
100
AcDbEntity
  8
Layer 3_laser
100
AcDbVertex
100
AcDb2dVertex
 10
-9.98377797795867
 20
-9.65693015630773
 30
0.0
  0
VERTEX
  5
172
330
170
100
AcDbEntity
  8
Layer 3_laser
100
AcDbVertex
100
AcDb2dVertex
 10
-8.739592882675709
 20
-10.90111525159069
 30
0.0
  0
SEQEND
  5
173
330
170
100
AcDbEntity
  8
Layer 3_laser
  0
POLYLINE
  5
174
330
1F
100
AcDbEntity
  8
Layer 3_laser
100
AcDb2dPolyline
 66
     1
 10
0.0
 20
0.0
 30
0.0
  0
VERTEX
  5
175
330
174
100
AcDbEntity
  8
Layer 3_laser
100
AcDbVertex
100
AcDb2dVertex
 10
-6.901115251590692
 20
-12.73959288267572
 30
0.0
  0
VERTEX
  5
176
330
174
100
AcDbEntity
  8
Layer 3_laser
100
AcDbVertex
100
AcDb2dVertex
 10
-5.656930156307741
 20
-13.98377797795867
 30
0.0
  0
SEQEND
  5
177
330
174
100
AcDbEntity
  8
Layer 3_laser
  0
POLYLINE
  5
178
330
1F
100
AcDbEntity
  8
Layer 3_laser
100
AcDb2dPolyline
 66
     1
 10
0.0
 20
0.0
 30
0.0
  0
VERTEX
  5
179
330
178
100
AcDbEntity
  8
Layer 3_laser
100
AcDbVertex
100
AcDb2dVertex
 10
-5.656930156307748
 20
-13.98377797795866
 30
0.0
  0
VERTEX
  5
17A
330
178
100
AcDbEntity
  8
Layer 3_laser
100
AcDbVertex
100
AcDb2dVertex
 10
-5.201526804424219
 20
-15.68336642512515
 30
0.0
  0
SEQEND
  5
17B
330
178
100
AcDbEntity
  8
Layer 3_laser
  0
POLYLINE
  5
17C
330
1F
100
AcDbEntity
  8
Layer 3_laser
100
AcDb2dPolyline
 66
     1
 10
0.0
 20
0.0
 30
0.0
  0
VERTEX
  5
17D
330
17C
100
AcDbEntity
  8
Layer 3_laser
100
AcDbVertex
100
AcDb2dVertex
 10
-4.528597287157677
 20
-18.19477357347672
 30
0.0
  0
VERTEX
  5
17E
330
17C
100
AcDbEntity
  8
Layer 3_laser
100
AcDbVertex
100
AcDb2dVertex
 10
-4.073193935274155
 20
-19.8943620206432
 30
0.0
  0
SEQEND
  5
17F
330
17C
100
AcDbEntity
  8
Layer 3_laser
  0
POLYLINE
  5
180
330
1F
100
AcDbEntity
  8
Layer 3_laser
100
AcDb2dPolyline
 66
     1
 10
0.0
 20
0.0
 30
0.0
  0
VERTEX
  5
181
330
180
100
AcDbEntity
  8
Layer 3_laser
100
AcDbVertex
100
AcDb2dVertex
 10
-4.073193935274155
 20
-19.89436202064315
 30
0.0
  0
VERTEX
  5
182
330
180
100
AcDbEntity
  8
Layer 3_laser
100
AcDbVertex
100
AcDb2dVertex
 10
-4.52859728715768
 20
-21.59395046780964
 30
0.0
  0
SEQEND
  5
183
330
180
100
AcDbEntity
  8
Layer 3_laser
  0
POLYLINE
  5
184
330
1F
100
AcDbEntity
  8
Layer 3_laser
100
AcDb2dPolyline
 66
     1
 10
0.0
 20
0.0
 30
0.0
  0
VERTEX
  5
185
330
184
100
AcDbEntity
  8
Layer 3_laser
100
AcDbVertex
100
AcDb2dVertex
 10
-5.201526804424237
 20
-24.10535761616122
 30
0.0
  0
VERTEX
  5
186
330
184
100
AcDbEntity
  8
Layer 3_laser
100
AcDbVertex
100
AcDb2dVertex
 10
-5.656930156307759
 20
-25.80494606332769
 30
0.0
  0
SEQEND
  5
187
330
184
100
AcDbEntity
  8
Layer 3_laser
  0
POLYLINE
  5
188
330
1F
100
AcDbEntity
  8
Layer 3_laser
100
AcDb2dPolyline
 66
     1
 10
0.0
 20
0.0
 30
0.0
  0
VERTEX
  5
189
330
188
100
AcDbEntity
  8
Layer 3_laser
100
AcDbVertex
100
AcDb2dVertex
 10
-5.656930156307748
 20
-25.80494606332768
 30
0.0
  0
VERTEX
  5
18A
330
188
100
AcDbEntity
  8
Layer 3_laser
100
AcDbVertex
100
AcDb2dVertex
 10
-6.90111525159071
 20
-27.04913115861064
 30
0.0
  0
SEQEND
  5
18B
330
188
100
AcDbEntity
  8
Layer 3_laser
  0
POLYLINE
  5
18C
330
1F
100
AcDbEntity
  8
Layer 3_laser
100
AcDb2dPolyline
 66
     1
 10
0.0
 20
0.0
 30
0.0
  0
VERTEX
  5
18D
330
18C
100
AcDbEntity
  8
Layer 3_laser
100
AcDbVertex
100
AcDb2dVertex
 10
-8.739592882675737
 20
-28.88760878969566
 30
0.0
  0
VERTEX
  5
18E
330
18C
100
AcDbEntity
  8
Layer 3_laser
100
AcDbVertex
100
AcDb2dVertex
 10
-9.983777977958688
 20
-30.13179388497861
 30
0.0
  0
SEQEND
  5
18F
330
18C
100
AcDbEntity
  8
Layer 3_laser
  0
POLYLINE
  5
190
330
1F
100
AcDbEntity
  8
Layer 3_laser
100
AcDb2dPolyline
 66
     1
 10
0.0
 20
0.0
 30
0.0
  0
VERTEX
  5
191
330
190
100
AcDbEntity
  8
Layer 3_laser
100
AcDbVertex
100
AcDb2dVertex
 10
-9.983777977958656
 20
-30.1317938849786
 30
0.0
  0
VERTEX
  5
192
330
190
100
AcDbEntity
  8
Layer 3_laser
100
AcDbVertex
100
AcDb2dVertex
 10
-11.68336642512514
 20
-30.58719723686212
 30
0.0
  0
SEQEND
  5
193
330
190
100
AcDbEntity
  8
Layer 3_laser
  0
POLYLINE
  5
194
330
1F
100
AcDbEntity
  8
Layer 3_laser
100
AcDb2dPolyline
 66
     1
 10
0.0
 20
0.0
 30
0.0
  0
VERTEX
  5
195
330
194
100
AcDbEntity
  8
Layer 3_laser
100
AcDbVertex
100
AcDb2dVertex
 10
-14.19477357347672
 20
-31.26012675412868
 30
0.0
  0
VERTEX
  5
196
330
194
100
AcDbEntity
  8
Layer 3_laser
100
AcDbVertex
100
AcDb2dVertex
 10
-15.89436202064319
 20
-31.7155301060122
 30
0.0
  0
SEQEND
  5
197
330
194
100
AcDbEntity
  8
Layer 3_laser
  0
POLYLINE
  5
198
330
1F
100
AcDbEntity
  8
Layer 3_laser
100
AcDb2dPolyline
 66
     1
 10
0.0
 20
0.0
 30
0.0
  0
VERTEX
  5
199
330
198
100
AcDbEntity
  8
Layer 3_laser
100
AcDbVertex
100
AcDb2dVertex
 10
-15.89436202064318
 20
-31.7155301060122
 30
0.0
  0
VERTEX
  5
19A
330
198
100
AcDbEntity
  8
Layer 3_laser
100
AcDbVertex
100
AcDb2dVertex
 10
-17.59395046780966
 20
-31.26012675412868
 30
0.0
  0
SEQEND
  5
19B
330
198
100
AcDbEntity
  8
Layer 3_laser
  0
POLYLINE
  5
19C
330
1F
100
AcDbEntity
  8
Layer 3_laser
100
AcDb2dPolyline
 66
     1
 10
0.0
 20
0.0
 30
0.0
  0
VERTEX
  5
19D
330
19C
100
AcDbEntity
  8
Layer 3_laser
100
AcDbVertex
100
AcDb2dVertex
 10
-20.10535761616124
 20
-30.58719723686212
 30
0.0
  0
VERTEX
  5
19E
330
19C
100
AcDbEntity
  8
Layer 3_laser
100
AcDbVertex
100
AcDb2dVertex
 10
-21.80494606332771
 20
-30.1317938849786
 30
0.0
  0
SEQEND
  5
19F
330
19C
100
AcDbEntity
  8
Layer 3_laser
  0
POLYLINE
  5
1A0
330
1F
100
AcDbEntity
  8
Layer 3_laser
100
AcDb2dPolyline
 66
     1
 10
0.0
 20
0.0
 30
0.0
  0
VERTEX
  5
1A1
330
1A0
100
AcDbEntity
  8
Layer 3_laser
100
AcDbVertex
100
AcDb2dVertex
 10
-21.80494606332767
 20
-30.13179388497863
 30
0.0
  0
VERTEX
  5
1A2
330
1A0
100
AcDbEntity
  8
Layer 3_laser
100
AcDbVertex
100
AcDb2dVertex
 10
-23.04913115861063
 20
-28.88760878969567
 30
0.0
  0
SEQEND
  5
1A3
330
1A0
100
AcDbEntity
  8
Layer 3_laser
  0
POLYLINE
  5
1A4
330
1F
100
AcDbEntity
  8
Layer 3_laser
100
AcDb2dPolyline
 66
     1
 10
0.0
 20
0.0
 30
0.0
  0
VERTEX
  5
1A5
330
1A4
100
AcDbEntity
  8
Layer 3_laser
100
AcDbVertex
100
AcDb2dVertex
 10
-24.88760878969566
 20
-27.04913115861065
 30
0.0
  0
VERTEX
  5
1A6
330
1A4
100
AcDbEntity
  8
Layer 3_laser
100
AcDbVertex
100
AcDb2dVertex
 10
-26.13179388497861
 20
-25.8049460633277
 30
0.0
  0
SEQEND
  5
1A7
330
1A4
100
AcDbEntity
  8
Layer 3_laser
  0
POLYLINE
  5
1A8
330
1F
100
AcDbEntity
  8
Layer 3_laser
100
AcDb2dPolyline
 66
     1
 10
0.0
 20
0.0
 30
0.0
  0
VERTEX
  5
1A9
330
1A8
100
AcDbEntity
  8
Layer 3_laser
100
AcDbVertex
100
AcDb2dVertex
 10
-26.1317938849786
 20
-25.80494606332773
 30
0.0
  0
VERTEX
  5
1AA
330
1A8
100
AcDbEntity
  8
Layer 3_laser
100
AcDbVertex
100
AcDb2dVertex
 10
-26.58719723686213
 20
-24.10535761616124
 30
0.0
  0
SEQEND
  5
1AB
330
1A8
100
AcDbEntity
  8
Layer 3_laser
  0
POLYLINE
  5
1AC
330
1F
100
AcDbEntity
  8
Layer 3_laser
100
AcDb2dPolyline
 66
     1
 10
0.0
 20
0.0
 30
0.0
  0
VERTEX
  5
1AD
330
1AC
100
AcDbEntity
  8
Layer 3_laser
100
AcDbVertex
100
AcDb2dVertex
 10
-27.26012675412869
 20
-21.59395046780967
 30
0.0
  0
VERTEX
  5
1AE
330
1AC
100
AcDbEntity
  8
Layer 3_laser
100
AcDbVertex
100
AcDb2dVertex
 10
-27.71553010601222
 20
-19.8943620206432
 30
0.0
  0
SEQEND
  5
1AF
330
1AC
100
AcDbEntity
  8
Layer 3_laser
  0
POLYLINE
  5
1B0
330
1F
100
AcDbEntity
  8
Layer 3_laser
100
AcDb2dPolyline
 66
     1
 10
0.0
 20
0.0
 30
0.0
  0
VERTEX
  5
1B1
330
1B0
100
AcDbEntity
  8
Layer 3_laser
100
AcDbVertex
100
AcDb2dVertex
 10
-27.71553010601222
 20
-19.89436202064318
 30
0.0
  0
VERTEX
  5
1B2
330
1B0
100
AcDbEntity
  8
Layer 3_laser
100
AcDbVertex
100
AcDb2dVertex
 10
-27.2601267541287
 20
-18.19477357347669
 30
0.0
  0
SEQEND
  5
1B3
330
1B0
100
AcDbEntity
  8
Layer 3_laser
  0
POLYLINE
  5
1B4
330
1F
100
AcDbEntity
  8
Layer 3_laser
100
AcDb2dPolyline
 66
     1
 10
0.0
 20
0.0
 30
0.0
  0
VERTEX
  5
1B5
330
1B4
100
AcDbEntity
  8
Layer 3_laser
100
AcDbVertex
100
AcDb2dVertex
 10
-26.58719723686214
 20
-15.68336642512512
 30
0.0
  0
VERTEX
  5
1B6
330
1B4
100
AcDbEntity
  8
Layer 3_laser
100
AcDbVertex
100
AcDb2dVertex
 10
-26.13179388497862
 20
-13.98377797795864
 30
0.0
  0
SEQEND
  5
1B7
330
1B4
100
AcDbEntity
  8
Layer 3_laser
  0
POLYLINE
  5
1B8
330
1F
100
AcDbEntity
  8
Layer 3_laser
100
AcDb2dPolyline
 66
     1
 10
0.0
 20
0.0
 30
0.0
  0
VERTEX
  5
1B9
330
1B8
100
AcDbEntity
  8
Layer 3_laser
100
AcDbVertex
100
AcDb2dVertex
 10
-26.13179388497865
 20
-13.98377797795869
 30
0.0
  0
VERTEX
  5
1BA
330
1B8
100
AcDbEntity
  8
Layer 3_laser
100
AcDbVertex
100
AcDb2dVertex
 10
-24.88760878969569
 20
-12.73959288267572
 30
0.0
  0
SEQEND
  5
1BB
330
1B8
100
AcDbEntity
  8
Layer 3_laser
  0
POLYLINE
  5
1BC
330
1F
100
AcDbEntity
  8
Layer 3_laser
100
AcDb2dPolyline
 66
     1
 10
0.0
 20
0.0
 30
0.0
  0
VERTEX
  5
1BD
330
1BC
100
AcDbEntity
  8
Layer 3_laser
100
AcDbVertex
100
AcDb2dVertex
 10
-23.04913115861067
 20
-10.9011152515907
 30
0.0
  0
VERTEX
  5
1BE
330
1BC
100
AcDbEntity
  8
Layer 3_laser
100
AcDbVertex
100
AcDb2dVertex
 10
-21.80494606332772
 20
-9.656930156307745
 30
0.0
  0
SEQEND
  5
1BF
330
1BC
100
AcDbEntity
  8
Layer 3_laser
  0
POLYLINE
  5
1C0
330
1F
100
AcDbEntity
  8
Layer 3_laser
100
AcDb2dPolyline
 66
     1
 10
0.0
 20
0.0
 30
0.0
  0
VERTEX
  5
1C1
330
1C0
100
AcDbEntity
  8
Layer 3_laser
100
AcDbVertex
100
AcDb2dVertex
 10
-21.80494606332772
 20
-9.656930156307741
 30
0.0
  0
VERTEX
  5
1C2
330
1C0
100
AcDbEntity
  8
Layer 3_laser
100
AcDbVertex
100
AcDb2dVertex
 10
-20.10535761616124
 20
-9.201526804424212
 30
0.0
  0
SEQEND
  5
1C3
330
1C0
100
AcDbEntity
  8
Layer 3_laser
  0
POLYLINE
  5
1C4
330
1F
100
AcDbEntity
  8
Layer 3_laser
100
AcDb2dPolyline
 66
     1
 10
0.0
 20
0.0
 30
0.0
  0
VERTEX
  5
1C5
330
1C4
100
AcDbEntity
  8
Layer 3_laser
100
AcDbVertex
100
AcDb2dVertex
 10
-17.59395046780966
 20
-8.528597287157659
 30
0.0
  0
VERTEX
  5
1C6
330
1C4
100
AcDbEntity
  8
Layer 3_laser
100
AcDbVertex
100
AcDb2dVertex
 10
-15.89436202064318
 20
-8.073193935274134
 30
0.0
  0
SEQEND
  5
1C7
330
1C4
100
AcDbEntity
  8
Layer 3_laser
  0
LINE
  5
1C8
330
1F
100
AcDbEntity
  8
Layer 3_laser
100
AcDbLine
 10
-26.8943620206432
 20
20.92680606472587
 30
0.0
 11
-31.24800068200742
 21
25.35363866136422
 31
0.0
  0
LINE
  5
1C9
330
1F
100
AcDbEntity
  8
Layer 3_laser
100
AcDbLine
 10
-31.24800068200742
 20
25.35363866136422
 30
0.0
 11
-32.80494606332773
 21
19.34306984369227
 31
0.0
  0
LINE
  5
1CA
330
1F
100
AcDbEntity
  8
Layer 3_laser
100
AcDbLine
 10
-32.80494606332773
 20
19.34306984369227
 30
0.0
 11
-38.7887240412864
 21
21.0
 31
0.0
  0
LINE
  5
1CB
330
1F
100
AcDbEntity
  8
Layer 3_laser
100
AcDbLine
 10
-38.7887240412864
 20
21.0
 30
0.0
 11
-37.13179388497867
 21
15.01622202204133
 31
0.0
  0
LINE
  5
1CC
330
1F
100
AcDbEntity
  8
Layer 3_laser
100
AcDbLine
 10
-37.13179388497867
 20
15.01622202204133
 30
0.0
 11
-43.14236270265062
 21
13.45927664072102
 31
0.0
  0
LINE
  5
1CD
330
1F
100
AcDbEntity
  8
Layer 3_laser
100
AcDbLine
 10
-43.14236270265062
 20
13.45927664072102
 30
0.0
 11
-38.71553010601227
 21
9.1056379793568
 31
0.0
  0
LINE
  5
1CE
330
1F
100
AcDbEntity
  8
Layer 3_laser
100
AcDbLine
 10
-38.71553010601227
 20
9.1056379793568
 30
0.0
 11
-43.14236270265063
 21
4.751999317992581
 31
0.0
  0
LINE
  5
1CF
330
1F
100
AcDbEntity
  8
Layer 3_laser
100
AcDbLine
 10
-43.14236270265063
 20
4.751999317992581
 30
0.0
 11
-37.13179388497867
 21
3.195053936672267
 31
0.0
  0
LINE
  5
1D0
330
1F
100
AcDbEntity
  8
Layer 3_laser
100
AcDbLine
 10
-37.13179388497867
 20
3.195053936672267
 30
0.0
 11
-38.7887240412864
 21
-2.788724041286402
 31
0.0
  0
LINE
  5
1D1
330
1F
100
AcDbEntity
  8
Layer 3_laser
100
AcDbLine
 10
-38.7887240412864
 20
-2.788724041286402
 30
0.0
 11
-32.80494606332774
 21
-1.131793884978666
 31
0.0
  0
LINE
  5
1D2
330
1F
100
AcDbEntity
  8
Layer 3_laser
100
AcDbLine
 10
-32.80494606332774
 20
-1.131793884978666
 30
0.0
 11
-31.24800068200743
 21
-7.142362702650621
 31
0.0
  0
LINE
  5
1D3
330
1F
100
AcDbEntity
  8
Layer 3_laser
100
AcDbLine
 10
-31.24800068200743
 20
-7.142362702650621
 30
0.0
 11
-26.8943620206432
 21
-2.71553010601227
 31
0.0
  0
LINE
  5
1D4
330
1F
100
AcDbEntity
  8
Layer 3_laser
100
AcDbLine
 10
-26.8943620206432
 20
-2.71553010601227
 30
0.0
 11
-22.54072335927899
 21
-7.142362702650624
 31
0.0
  0
LINE
  5
1D5
330
1F
100
AcDbEntity
  8
Layer 3_laser
100
AcDbLine
 10
-22.54072335927899
 20
-7.142362702650624
 30
0.0
 11
-20.98377797795867
 21
-1.131793884978672
 31
0.0
  0
LINE
  5
1D6
330
1F
100
AcDbEntity
  8
Layer 3_laser
100
AcDbLine
 10
-20.98377797795867
 20
-1.131793884978672
 30
0.0
 11
-15.00000000000001
 21
-2.788724041286409
 31
0.0
  0
LINE
  5
1D7
330
1F
100
AcDbEntity
  8
Layer 3_laser
100
AcDbLine
 10
-15.00000000000001
 20
-2.788724041286409
 30
0.0
 11
-16.65693015630774
 21
3.195053936672259
 31
0.0
  0
LINE
  5
1D8
330
1F
100
AcDbEntity
  8
Layer 3_laser
100
AcDbLine
 10
-16.65693015630774
 20
3.195053936672259
 30
0.0
 11
-10.64636133863578
 21
4.751999317992567
 31
0.0
  0
LINE
  5
1D9
330
1F
100
AcDbEntity
  8
Layer 3_laser
100
AcDbLine
 10
-10.64636133863578
 20
4.751999317992567
 30
0.0
 11
-15.07319393527413
 21
9.105637979356796
 31
0.0
  0
LINE
  5
1DA
330
1F
100
AcDbEntity
  8
Layer 3_laser
100
AcDbLine
 10
-15.07319393527413
 20
9.105637979356796
 30
0.0
 11
-10.64636133863578
 21
13.45927664072101
 31
0.0
  0
LINE
  5
1DB
330
1F
100
AcDbEntity
  8
Layer 3_laser
100
AcDbLine
 10
-10.64636133863578
 20
13.45927664072101
 30
0.0
 11
-16.65693015630773
 21
15.01622202204132
 31
0.0
  0
LINE
  5
1DC
330
1F
100
AcDbEntity
  8
Layer 3_laser
100
AcDbLine
 10
-16.65693015630773
 20
15.01622202204132
 30
0.0
 11
-15.0
 21
21.0
 31
0.0
  0
LINE
  5
1DD
330
1F
100
AcDbEntity
  8
Layer 3_laser
100
AcDbLine
 10
-15.0
 20
21.0
 30
0.0
 11
-20.98377797795866
 21
19.34306984369226
 31
0.0
  0
LINE
  5
1DE
330
1F
100
AcDbEntity
  8
Layer 3_laser
100
AcDbLine
 10
-20.98377797795866
 20
19.34306984369226
 30
0.0
 11
-22.54072335927897
 21
25.35363866136422
 31
0.0
  0
LINE
  5
1DF
330
1F
100
AcDbEntity
  8
Layer 3_laser
100
AcDbLine
 10
-22.54072335927897
 20
25.35363866136422
 30
0.0
 11
-26.8943620206432
 21
20.92680606472587
 31
0.0
  0
POLYLINE
  5
1E0
330
1F
100
AcDbEntity
  8
Layer 3_laser
100
AcDb2dPolyline
 66
     1
 10
0.0
 20
0.0
 30
0.0
  0
VERTEX
  5
1E1
330
1E0
100
AcDbEntity
  8
Layer 3_laser
100
AcDbVertex
100
AcDb2dVertex
 10
-26.8943620206432
 20
20.92680606472587
 30
0.0
  0
VERTEX
  5
1E2
330
1E0
100
AcDbEntity
  8
Layer 3_laser
100
AcDbVertex
100
AcDb2dVertex
 10
-25.19477357347671
 20
20.47140271284234
 30
0.0
  0
SEQEND
  5
1E3
330
1E0
100
AcDbEntity
  8
Layer 3_laser
  0
POLYLINE
  5
1E4
330
1F
100
AcDbEntity
  8
Layer 3_laser
100
AcDb2dPolyline
 66
     1
 10
0.0
 20
0.0
 30
0.0
  0
VERTEX
  5
1E5
330
1E4
100
AcDbEntity
  8
Layer 3_laser
100
AcDbVertex
100
AcDb2dVertex
 10
-22.68336642512514
 20
19.79847319557578
 30
0.0
  0
VERTEX
  5
1E6
330
1E4
100
AcDbEntity
  8
Layer 3_laser
100
AcDbVertex
100
AcDb2dVertex
 10
-20.98377797795866
 20
19.34306984369226
 30
0.0
  0
SEQEND
  5
1E7
330
1E4
100
AcDbEntity
  8
Layer 3_laser
  0
POLYLINE
  5
1E8
330
1F
100
AcDbEntity
  8
Layer 3_laser
100
AcDb2dPolyline
 66
     1
 10
0.0
 20
0.0
 30
0.0
  0
VERTEX
  5
1E9
330
1E8
100
AcDbEntity
  8
Layer 3_laser
100
AcDbVertex
100
AcDb2dVertex
 10
-20.98377797795867
 20
19.34306984369227
 30
0.0
  0
VERTEX
  5
1EA
330
1E8
100
AcDbEntity
  8
Layer 3_laser
100
AcDbVertex
100
AcDb2dVertex
 10
-19.73959288267571
 20
18.0988847484093
 30
0.0
  0
SEQEND
  5
1EB
330
1E8
100
AcDbEntity
  8
Layer 3_laser
  0
POLYLINE
  5
1EC
330
1F
100
AcDbEntity
  8
Layer 3_laser
100
AcDb2dPolyline
 66
     1
 10
0.0
 20
0.0
 30
0.0
  0
VERTEX
  5
1ED
330
1EC
100
AcDbEntity
  8
Layer 3_laser
100
AcDbVertex
100
AcDb2dVertex
 10
-17.90111525159069
 20
16.26040711732428
 30
0.0
  0
VERTEX
  5
1EE
330
1EC
100
AcDbEntity
  8
Layer 3_laser
100
AcDbVertex
100
AcDb2dVertex
 10
-16.65693015630774
 20
15.01622202204133
 30
0.0
  0
SEQEND
  5
1EF
330
1EC
100
AcDbEntity
  8
Layer 3_laser
  0
POLYLINE
  5
1F0
330
1F
100
AcDbEntity
  8
Layer 3_laser
100
AcDb2dPolyline
 66
     1
 10
0.0
 20
0.0
 30
0.0
  0
VERTEX
  5
1F1
330
1F0
100
AcDbEntity
  8
Layer 3_laser
100
AcDbVertex
100
AcDb2dVertex
 10
-16.65693015630775
 20
15.01622202204134
 30
0.0
  0
VERTEX
  5
1F2
330
1F0
100
AcDbEntity
  8
Layer 3_laser
100
AcDbVertex
100
AcDb2dVertex
 10
-16.20152680442422
 20
13.31663357487485
 30
0.0
  0
SEQEND
  5
1F3
330
1F0
100
AcDbEntity
  8
Layer 3_laser
  0
POLYLINE
  5
1F4
330
1F
100
AcDbEntity
  8
Layer 3_laser
100
AcDb2dPolyline
 66
     1
 10
0.0
 20
0.0
 30
0.0
  0
VERTEX
  5
1F5
330
1F4
100
AcDbEntity
  8
Layer 3_laser
100
AcDbVertex
100
AcDb2dVertex
 10
-15.52859728715768
 20
10.80522642652327
 30
0.0
  0
VERTEX
  5
1F6
330
1F4
100
AcDbEntity
  8
Layer 3_laser
100
AcDbVertex
100
AcDb2dVertex
 10
-15.07319393527415
 20
9.1056379793568
 30
0.0
  0
SEQEND
  5
1F7
330
1F4
100
AcDbEntity
  8
Layer 3_laser
  0
POLYLINE
  5
1F8
330
1F
100
AcDbEntity
  8
Layer 3_laser
100
AcDb2dPolyline
 66
     1
 10
0.0
 20
0.0
 30
0.0
  0
VERTEX
  5
1F9
330
1F8
100
AcDbEntity
  8
Layer 3_laser
100
AcDbVertex
100
AcDb2dVertex
 10
-15.07319393527415
 20
9.105637979356846
 30
0.0
  0
VERTEX
  5
1FA
330
1F8
100
AcDbEntity
  8
Layer 3_laser
100
AcDbVertex
100
AcDb2dVertex
 10
-15.52859728715768
 20
7.406049532190355
 30
0.0
  0
SEQEND
  5
1FB
330
1F8
100
AcDbEntity
  8
Layer 3_laser
  0
POLYLINE
  5
1FC
330
1F
100
AcDbEntity
  8
Layer 3_laser
100
AcDb2dPolyline
 66
     1
 10
0.0
 20
0.0
 30
0.0
  0
VERTEX
  5
1FD
330
1FC
100
AcDbEntity
  8
Layer 3_laser
100
AcDbVertex
100
AcDb2dVertex
 10
-16.20152680442424
 20
4.89464238383878
 30
0.0
  0
VERTEX
  5
1FE
330
1FC
100
AcDbEntity
  8
Layer 3_laser
100
AcDbVertex
100
AcDb2dVertex
 10
-16.65693015630776
 20
3.195053936672306
 30
0.0
  0
SEQEND
  5
1FF
330
1FC
100
AcDbEntity
  8
Layer 3_laser
  0
POLYLINE
  5
200
330
1F
100
AcDbEntity
  8
Layer 3_laser
100
AcDb2dPolyline
 66
     1
 10
0.0
 20
0.0
 30
0.0
  0
VERTEX
  5
201
330
200
100
AcDbEntity
  8
Layer 3_laser
100
AcDbVertex
100
AcDb2dVertex
 10
-16.65693015630775
 20
3.195053936672322
 30
0.0
  0
VERTEX
  5
202
330
200
100
AcDbEntity
  8
Layer 3_laser
100
AcDbVertex
100
AcDb2dVertex
 10
-17.90111525159071
 20
1.950868841389356
 30
0.0
  0
SEQEND
  5
203
330
200
100
AcDbEntity
  8
Layer 3_laser
  0
POLYLINE
  5
204
330
1F
100
AcDbEntity
  8
Layer 3_laser
100
AcDb2dPolyline
 66
     1
 10
0.0
 20
0.0
 30
0.0
  0
VERTEX
  5
205
330
204
100
AcDbEntity
  8
Layer 3_laser
100
AcDbVertex
100
AcDb2dVertex
 10
-19.73959288267574
 20
0.1123912103043381
 30
0.0
  0
VERTEX
  5
206
330
204
100
AcDbEntity
  8
Layer 3_laser
100
AcDbVertex
100
AcDb2dVertex
 10
-20.98377797795869
 20
-1.131793884978615
 30
0.0
  0
SEQEND
  5
207
330
204
100
AcDbEntity
  8
Layer 3_laser
  0
POLYLINE
  5
208
330
1F
100
AcDbEntity
  8
Layer 3_laser
100
AcDb2dPolyline
 66
     1
 10
0.0
 20
0.0
 30
0.0
  0
VERTEX
  5
209
330
208
100
AcDbEntity
  8
Layer 3_laser
100
AcDbVertex
100
AcDb2dVertex
 10
-20.98377797795866
 20
-1.131793884978599
 30
0.0
  0
VERTEX
  5
20A
330
208
100
AcDbEntity
  8
Layer 3_laser
100
AcDbVertex
100
AcDb2dVertex
 10
-22.68336642512514
 20
-1.587197236862124
 30
0.0
  0
SEQEND
  5
20B
330
208
100
AcDbEntity
  8
Layer 3_laser
  0
POLYLINE
  5
20C
330
1F
100
AcDbEntity
  8
Layer 3_laser
100
AcDb2dPolyline
 66
     1
 10
0.0
 20
0.0
 30
0.0
  0
VERTEX
  5
20D
330
20C
100
AcDbEntity
  8
Layer 3_laser
100
AcDbVertex
100
AcDb2dVertex
 10
-25.19477357347672
 20
-2.260126754128677
 30
0.0
  0
VERTEX
  5
20E
330
20C
100
AcDbEntity
  8
Layer 3_laser
100
AcDbVertex
100
AcDb2dVertex
 10
-26.89436202064319
 20
-2.715530106012203
 30
0.0
  0
SEQEND
  5
20F
330
20C
100
AcDbEntity
  8
Layer 3_laser
  0
POLYLINE
  5
210
330
1F
100
AcDbEntity
  8
Layer 3_laser
100
AcDb2dPolyline
 66
     1
 10
0.0
 20
0.0
 30
0.0
  0
VERTEX
  5
211
330
210
100
AcDbEntity
  8
Layer 3_laser
100
AcDbVertex
100
AcDb2dVertex
 10
-26.89436202064318
 20
-2.715530106012203
 30
0.0
  0
VERTEX
  5
212
330
210
100
AcDbEntity
  8
Layer 3_laser
100
AcDbVertex
100
AcDb2dVertex
 10
-28.59395046780966
 20
-2.260126754128677
 30
0.0
  0
SEQEND
  5
213
330
210
100
AcDbEntity
  8
Layer 3_laser
  0
POLYLINE
  5
214
330
1F
100
AcDbEntity
  8
Layer 3_laser
100
AcDb2dPolyline
 66
     1
 10
0.0
 20
0.0
 30
0.0
  0
VERTEX
  5
215
330
214
100
AcDbEntity
  8
Layer 3_laser
100
AcDbVertex
100
AcDb2dVertex
 10
-31.10535761616124
 20
-1.587197236862121
 30
0.0
  0
VERTEX
  5
216
330
214
100
AcDbEntity
  8
Layer 3_laser
100
AcDbVertex
100
AcDb2dVertex
 10
-32.80494606332771
 20
-1.131793884978599
 30
0.0
  0
SEQEND
  5
217
330
214
100
AcDbEntity
  8
Layer 3_laser
  0
POLYLINE
  5
218
330
1F
100
AcDbEntity
  8
Layer 3_laser
100
AcDb2dPolyline
 66
     1
 10
0.0
 20
0.0
 30
0.0
  0
VERTEX
  5
219
330
218
100
AcDbEntity
  8
Layer 3_laser
100
AcDbVertex
100
AcDb2dVertex
 10
-32.80494606332767
 20
-1.131793884978627
 30
0.0
  0
VERTEX
  5
21A
330
218
100
AcDbEntity
  8
Layer 3_laser
100
AcDbVertex
100
AcDb2dVertex
 10
-34.04913115861063
 20
0.1123912103043292
 30
0.0
  0
SEQEND
  5
21B
330
218
100
AcDbEntity
  8
Layer 3_laser
  0
POLYLINE
  5
21C
330
1F
100
AcDbEntity
  8
Layer 3_laser
100
AcDb2dPolyline
 66
     1
 10
0.0
 20
0.0
 30
0.0
  0
VERTEX
  5
21D
330
21C
100
AcDbEntity
  8
Layer 3_laser
100
AcDbVertex
100
AcDb2dVertex
 10
-35.88760878969566
 20
1.950868841389351
 30
0.0
  0
VERTEX
  5
21E
330
21C
100
AcDbEntity
  8
Layer 3_laser
100
AcDbVertex
100
AcDb2dVertex
 10
-37.13179388497861
 20
3.195053936672299
 30
0.0
  0
SEQEND
  5
21F
330
21C
100
AcDbEntity
  8
Layer 3_laser
  0
POLYLINE
  5
220
330
1F
100
AcDbEntity
  8
Layer 3_laser
100
AcDb2dPolyline
 66
     1
 10
0.0
 20
0.0
 30
0.0
  0
VERTEX
  5
221
330
220
100
AcDbEntity
  8
Layer 3_laser
100
AcDbVertex
100
AcDb2dVertex
 10
-37.13179388497861
 20
3.195053936672268
 30
0.0
  0
VERTEX
  5
222
330
220
100
AcDbEntity
  8
Layer 3_laser
100
AcDbVertex
100
AcDb2dVertex
 10
-37.58719723686214
 20
4.894642383838756
 30
0.0
  0
SEQEND
  5
223
330
220
100
AcDbEntity
  8
Layer 3_laser
  0
POLYLINE
  5
224
330
1F
100
AcDbEntity
  8
Layer 3_laser
100
AcDb2dPolyline
 66
     1
 10
0.0
 20
0.0
 30
0.0
  0
VERTEX
  5
225
330
224
100
AcDbEntity
  8
Layer 3_laser
100
AcDbVertex
100
AcDb2dVertex
 10
-38.26012675412869
 20
7.406049532190331
 30
0.0
  0
VERTEX
  5
226
330
224
100
AcDbEntity
  8
Layer 3_laser
100
AcDbVertex
100
AcDb2dVertex
 10
-38.71553010601222
 20
9.105637979356803
 30
0.0
  0
SEQEND
  5
227
330
224
100
AcDbEntity
  8
Layer 3_laser
  0
POLYLINE
  5
228
330
1F
100
AcDbEntity
  8
Layer 3_laser
100
AcDb2dPolyline
 66
     1
 10
0.0
 20
0.0
 30
0.0
  0
VERTEX
  5
229
330
228
100
AcDbEntity
  8
Layer 3_laser
100
AcDbVertex
100
AcDb2dVertex
 10
-38.71553010601222
 20
9.105637979356818
 30
0.0
  0
VERTEX
  5
22A
330
228
100
AcDbEntity
  8
Layer 3_laser
100
AcDbVertex
100
AcDb2dVertex
 10
-38.2601267541287
 20
10.80522642652331
 30
0.0
  0
SEQEND
  5
22B
330
228
100
AcDbEntity
  8
Layer 3_laser
  0
POLYLINE
  5
22C
330
1F
100
AcDbEntity
  8
Layer 3_laser
100
AcDb2dPolyline
 66
     1
 10
0.0
 20
0.0
 30
0.0
  0
VERTEX
  5
22D
330
22C
100
AcDbEntity
  8
Layer 3_laser
100
AcDbVertex
100
AcDb2dVertex
 10
-37.58719723686214
 20
13.31663357487488
 30
0.0
  0
VERTEX
  5
22E
330
22C
100
AcDbEntity
  8
Layer 3_laser
100
AcDbVertex
100
AcDb2dVertex
 10
-37.13179388497862
 20
15.01622202204136
 30
0.0
  0
SEQEND
  5
22F
330
22C
100
AcDbEntity
  8
Layer 3_laser
  0
POLYLINE
  5
230
330
1F
100
AcDbEntity
  8
Layer 3_laser
100
AcDb2dPolyline
 66
     1
 10
0.0
 20
0.0
 30
0.0
  0
VERTEX
  5
231
330
230
100
AcDbEntity
  8
Layer 3_laser
100
AcDbVertex
100
AcDb2dVertex
 10
-37.13179388497865
 20
15.01622202204131
 30
0.0
  0
VERTEX
  5
232
330
230
100
AcDbEntity
  8
Layer 3_laser
100
AcDbVertex
100
AcDb2dVertex
 10
-35.88760878969569
 20
16.26040711732428
 30
0.0
  0
SEQEND
  5
233
330
230
100
AcDbEntity
  8
Layer 3_laser
  0
POLYLINE
  5
234
330
1F
100
AcDbEntity
  8
Layer 3_laser
100
AcDb2dPolyline
 66
     1
 10
0.0
 20
0.0
 30
0.0
  0
VERTEX
  5
235
330
234
100
AcDbEntity
  8
Layer 3_laser
100
AcDbVertex
100
AcDb2dVertex
 10
-34.04913115861067
 20
18.0988847484093
 30
0.0
  0
VERTEX
  5
236
330
234
100
AcDbEntity
  8
Layer 3_laser
100
AcDbVertex
100
AcDb2dVertex
 10
-32.80494606332772
 20
19.34306984369226
 30
0.0
  0
SEQEND
  5
237
330
234
100
AcDbEntity
  8
Layer 3_laser
  0
POLYLINE
  5
238
330
1F
100
AcDbEntity
  8
Layer 3_laser
100
AcDb2dPolyline
 66
     1
 10
0.0
 20
0.0
 30
0.0
  0
VERTEX
  5
239
330
238
100
AcDbEntity
  8
Layer 3_laser
100
AcDbVertex
100
AcDb2dVertex
 10
-32.80494606332772
 20
19.34306984369226
 30
0.0
  0
VERTEX
  5
23A
330
238
100
AcDbEntity
  8
Layer 3_laser
100
AcDbVertex
100
AcDb2dVertex
 10
-31.10535761616124
 20
19.79847319557579
 30
0.0
  0
SEQEND
  5
23B
330
238
100
AcDbEntity
  8
Layer 3_laser
  0
POLYLINE
  5
23C
330
1F
100
AcDbEntity
  8
Layer 3_laser
100
AcDb2dPolyline
 66
     1
 10
0.0
 20
0.0
 30
0.0
  0
VERTEX
  5
23D
330
23C
100
AcDbEntity
  8
Layer 3_laser
100
AcDbVertex
100
AcDb2dVertex
 10
-28.59395046780966
 20
20.47140271284234
 30
0.0
  0
VERTEX
  5
23E
330
23C
100
AcDbEntity
  8
Layer 3_laser
100
AcDbVertex
100
AcDb2dVertex
 10
-26.89436202064319
 20
20.92680606472587
 30
0.0
  0
SEQEND
  5
23F
330
23C
100
AcDbEntity
  8
Layer 3_laser
  0
LINE
  5
240
330
1F
100
AcDbEntity
  8
Layer 3_laser
100
AcDbLine
 10
-7.894362020643203
 20
45.92680606472587
 30
0.0
 11
-12.24800068200742
 21
50.35363866136422
 31
0.0
  0
LINE
  5
241
330
1F
100
AcDbEntity
  8
Layer 3_laser
100
AcDbLine
 10
-12.24800068200742
 20
50.35363866136422
 30
0.0
 11
-13.80494606332774
 21
44.34306984369226
 31
0.0
  0
LINE
  5
242
330
1F
100
AcDbEntity
  8
Layer 3_laser
100
AcDbLine
 10
-13.80494606332774
 20
44.34306984369226
 30
0.0
 11
-19.7887240412864
 21
46.0
 31
0.0
  0
LINE
  5
243
330
1F
100
AcDbEntity
  8
Layer 3_laser
100
AcDbLine
 10
-19.7887240412864
 20
46.0
 30
0.0
 11
-18.13179388497867
 21
40.01622202204133
 31
0.0
  0
LINE
  5
244
330
1F
100
AcDbEntity
  8
Layer 3_laser
100
AcDbLine
 10
-18.13179388497867
 20
40.01622202204133
 30
0.0
 11
-24.14236270265062
 21
38.45927664072102
 31
0.0
  0
LINE
  5
245
330
1F
100
AcDbEntity
  8
Layer 3_laser
100
AcDbLine
 10
-24.14236270265062
 20
38.45927664072102
 30
0.0
 11
-19.71553010601227
 21
34.1056379793568
 31
0.0
  0
LINE
  5
246
330
1F
100
AcDbEntity
  8
Layer 3_laser
100
AcDbLine
 10
-19.71553010601227
 20
34.1056379793568
 30
0.0
 11
-24.14236270265063
 21
29.75199931799258
 31
0.0
  0
LINE
  5
247
330
1F
100
AcDbEntity
  8
Layer 3_laser
100
AcDbLine
 10
-24.14236270265063
 20
29.75199931799258
 30
0.0
 11
-18.13179388497867
 21
28.19505393667227
 31
0.0
  0
LINE
  5
248
330
1F
100
AcDbEntity
  8
Layer 3_laser
100
AcDbLine
 10
-18.13179388497867
 20
28.19505393667227
 30
0.0
 11
-19.7887240412864
 21
22.2112759587136
 31
0.0
  0
LINE
  5
249
330
1F
100
AcDbEntity
  8
Layer 3_laser
100
AcDbLine
 10
-19.7887240412864
 20
22.2112759587136
 30
0.0
 11
-13.80494606332774
 21
23.86820611502133
 31
0.0
  0
LINE
  5
24A
330
1F
100
AcDbEntity
  8
Layer 3_laser
100
AcDbLine
 10
-13.80494606332774
 20
23.86820611502133
 30
0.0
 11
-12.24800068200743
 21
17.85763729734938
 31
0.0
  0
LINE
  5
24B
330
1F
100
AcDbEntity
  8
Layer 3_laser
100
AcDbLine
 10
-12.24800068200743
 20
17.85763729734938
 30
0.0
 11
-7.894362020643204
 21
22.28446989398773
 31
0.0
  0
LINE
  5
24C
330
1F
100
AcDbEntity
  8
Layer 3_laser
100
AcDbLine
 10
-7.894362020643204
 20
22.28446989398773
 30
0.0
 11
-3.54072335927899
 21
17.85763729734938
 31
0.0
  0
LINE
  5
24D
330
1F
100
AcDbEntity
  8
Layer 3_laser
100
AcDbLine
 10
-3.54072335927899
 20
17.85763729734938
 30
0.0
 11
-1.98377797795867
 21
23.86820611502133
 31
0.0
  0
LINE
  5
24E
330
1F
100
AcDbEntity
  8
Layer 3_laser
100
AcDbLine
 10
-1.98377797795867
 20
23.86820611502133
 30
0.0
 11
3.999999999999993
 21
22.21127595871359
 31
0.0
  0
LINE
  5
24F
330
1F
100
AcDbEntity
  8
Layer 3_laser
100
AcDbLine
 10
3.999999999999993
 20
22.21127595871359
 30
0.0
 11
2.343069843692263
 21
28.19505393667226
 31
0.0
  0
LINE
  5
250
330
1F
100
AcDbEntity
  8
Layer 3_laser
100
AcDbLine
 10
2.343069843692263
 20
28.19505393667226
 30
0.0
 11
8.353638661364215
 21
29.75199931799257
 31
0.0
  0
LINE
  5
251
330
1F
100
AcDbEntity
  8
Layer 3_laser
100
AcDbLine
 10
8.353638661364215
 20
29.75199931799257
 30
0.0
 11
3.926806064725866
 21
34.1056379793568
 31
0.0
  0
LINE
  5
252
330
1F
100
AcDbEntity
  8
Layer 3_laser
100
AcDbLine
 10
3.926806064725866
 20
34.1056379793568
 30
0.0
 11
8.353638661364219
 21
38.45927664072101
 31
0.0
  0
LINE
  5
253
330
1F
100
AcDbEntity
  8
Layer 3_laser
100
AcDbLine
 10
8.353638661364219
 20
38.45927664072101
 30
0.0
 11
2.34306984369227
 21
40.01622202204132
 31
0.0
  0
LINE
  5
254
330
1F
100
AcDbEntity
  8
Layer 3_laser
100
AcDbLine
 10
2.34306984369227
 20
40.01622202204132
 30
0.0
 11
4.0
 21
46.0
 31
0.0
  0
LINE
  5
255
330
1F
100
AcDbEntity
  8
Layer 3_laser
100
AcDbLine
 10
4.0
 20
46.0
 30
0.0
 11
-1.983777977958663
 21
44.34306984369226
 31
0.0
  0
LINE
  5
256
330
1F
100
AcDbEntity
  8
Layer 3_laser
100
AcDbLine
 10
-1.983777977958663
 20
44.34306984369226
 30
0.0
 11
-3.540723359278971
 21
50.35363866136422
 31
0.0
  0
LINE
  5
257
330
1F
100
AcDbEntity
  8
Layer 3_laser
100
AcDbLine
 10
-3.540723359278971
 20
50.35363866136422
 30
0.0
 11
-7.894362020643203
 21
45.92680606472587
 31
0.0
  0
POLYLINE
  5
258
330
1F
100
AcDbEntity
  8
Layer 3_laser
100
AcDb2dPolyline
 66
     1
 10
0.0
 20
0.0
 30
0.0
  0
VERTEX
  5
259
330
258
100
AcDbEntity
  8
Layer 3_laser
100
AcDbVertex
100
AcDb2dVertex
 10
-7.894362020643203
 20
45.92680606472587
 30
0.0
  0
VERTEX
  5
25A
330
258
100
AcDbEntity
  8
Layer 3_laser
100
AcDbVertex
100
AcDb2dVertex
 10
-6.194773573476713
 20
45.47140271284234
 30
0.0
  0
SEQEND
  5
25B
330
258
100
AcDbEntity
  8
Layer 3_laser
  0
POLYLINE
  5
25C
330
1F
100
AcDbEntity
  8
Layer 3_laser
100
AcDb2dPolyline
 66
     1
 10
0.0
 20
0.0
 30
0.0
  0
VERTEX
  5
25D
330
25C
100
AcDbEntity
  8
Layer 3_laser
100
AcDbVertex
100
AcDb2dVertex
 10
-3.683366425125138
 20
44.79847319557578
 30
0.0
  0
VERTEX
  5
25E
330
25C
100
AcDbEntity
  8
Layer 3_laser
100
AcDbVertex
100
AcDb2dVertex
 10
-1.983777977958663
 20
44.34306984369226
 30
0.0
  0
SEQEND
  5
25F
330
25C
100
AcDbEntity
  8
Layer 3_laser
  0
POLYLINE
  5
260
330
1F
100
AcDbEntity
  8
Layer 3_laser
100
AcDb2dPolyline
 66
     1
 10
0.0
 20
0.0
 30
0.0
  0
VERTEX
  5
261
330
260
100
AcDbEntity
  8
Layer 3_laser
100
AcDbVertex
100
AcDb2dVertex
 10
-1.98377797795867
 20
44.34306984369227
 30
0.0
  0
VERTEX
  5
262
330
260
100
AcDbEntity
  8
Layer 3_laser
100
AcDbVertex
100
AcDb2dVertex
 10
-0.7395928826757086
 20
43.0988847484093
 30
0.0
  0
SEQEND
  5
263
330
260
100
AcDbEntity
  8
Layer 3_laser
  0
POLYLINE
  5
264
330
1F
100
AcDbEntity
  8
Layer 3_laser
100
AcDb2dPolyline
 66
     1
 10
0.0
 20
0.0
 30
0.0
  0
VERTEX
  5
265
330
264
100
AcDbEntity
  8
Layer 3_laser
100
AcDbVertex
100
AcDb2dVertex
 10
1.098884748409308
 20
41.26040711732428
 30
0.0
  0
VERTEX
  5
266
330
264
100
AcDbEntity
  8
Layer 3_laser
100
AcDbVertex
100
AcDb2dVertex
 10
2.343069843692259
 20
40.01622202204133
 30
0.0
  0
SEQEND
  5
267
330
264
100
AcDbEntity
  8
Layer 3_laser
  0
POLYLINE
  5
268
330
1F
100
AcDbEntity
  8
Layer 3_laser
100
AcDb2dPolyline
 66
     1
 10
0.0
 20
0.0
 30
0.0
  0
VERTEX
  5
269
330
268
100
AcDbEntity
  8
Layer 3_laser
100
AcDbVertex
100
AcDb2dVertex
 10
2.343069843692252
 20
40.01622202204135
 30
0.0
  0
VERTEX
  5
26A
330
268
100
AcDbEntity
  8
Layer 3_laser
100
AcDbVertex
100
AcDb2dVertex
 10
2.798473195575781
 20
38.31663357487486
 30
0.0
  0
SEQEND
  5
26B
330
268
100
AcDbEntity
  8
Layer 3_laser
  0
POLYLINE
  5
26C
330
1F
100
AcDbEntity
  8
Layer 3_laser
100
AcDb2dPolyline
 66
     1
 10
0.0
 20
0.0
 30
0.0
  0
VERTEX
  5
26D
330
26C
100
AcDbEntity
  8
Layer 3_laser
100
AcDbVertex
100
AcDb2dVertex
 10
3.471402712842323
 20
35.80522642652328
 30
0.0
  0
VERTEX
  5
26E
330
26C
100
AcDbEntity
  8
Layer 3_laser
100
AcDbVertex
100
AcDb2dVertex
 10
3.926806064725845
 20
34.1056379793568
 30
0.0
  0
SEQEND
  5
26F
330
26C
100
AcDbEntity
  8
Layer 3_laser
  0
POLYLINE
  5
270
330
1F
100
AcDbEntity
  8
Layer 3_laser
100
AcDb2dPolyline
 66
     1
 10
0.0
 20
0.0
 30
0.0
  0
VERTEX
  5
271
330
270
100
AcDbEntity
  8
Layer 3_laser
100
AcDbVertex
100
AcDb2dVertex
 10
3.926806064725845
 20
34.10563797935684
 30
0.0
  0
VERTEX
  5
272
330
270
100
AcDbEntity
  8
Layer 3_laser
100
AcDbVertex
100
AcDb2dVertex
 10
3.47140271284232
 20
32.40604953219035
 30
0.0
  0
SEQEND
  5
273
330
270
100
AcDbEntity
  8
Layer 3_laser
  0
POLYLINE
  5
274
330
1F
100
AcDbEntity
  8
Layer 3_laser
100
AcDb2dPolyline
 66
     1
 10
0.0
 20
0.0
 30
0.0
  0
VERTEX
  5
275
330
274
100
AcDbEntity
  8
Layer 3_laser
100
AcDbVertex
100
AcDb2dVertex
 10
2.798473195575763
 20
29.89464238383878
 30
0.0
  0
VERTEX
  5
276
330
274
100
AcDbEntity
  8
Layer 3_laser
100
AcDbVertex
100
AcDb2dVertex
 10
2.343069843692241
 20
28.19505393667231
 30
0.0
  0
SEQEND
  5
277
330
274
100
AcDbEntity
  8
Layer 3_laser
  0
POLYLINE
  5
278
330
1F
100
AcDbEntity
  8
Layer 3_laser
100
AcDb2dPolyline
 66
     1
 10
0.0
 20
0.0
 30
0.0
  0
VERTEX
  5
279
330
278
100
AcDbEntity
  8
Layer 3_laser
100
AcDbVertex
100
AcDb2dVertex
 10
2.343069843692252
 20
28.19505393667232
 30
0.0
  0
VERTEX
  5
27A
330
278
100
AcDbEntity
  8
Layer 3_laser
100
AcDbVertex
100
AcDb2dVertex
 10
1.09888474840929
 20
26.95086884138936
 30
0.0
  0
SEQEND
  5
27B
330
278
100
AcDbEntity
  8
Layer 3_laser
  0
POLYLINE
  5
27C
330
1F
100
AcDbEntity
  8
Layer 3_laser
100
AcDb2dPolyline
 66
     1
 10
0.0
 20
0.0
 30
0.0
  0
VERTEX
  5
27D
330
27C
100
AcDbEntity
  8
Layer 3_laser
100
AcDbVertex
100
AcDb2dVertex
 10
-0.739592882675737
 20
25.11239121030434
 30
0.0
  0
VERTEX
  5
27E
330
27C
100
AcDbEntity
  8
Layer 3_laser
100
AcDbVertex
100
AcDb2dVertex
 10
-1.983777977958688
 20
23.86820611502139
 30
0.0
  0
SEQEND
  5
27F
330
27C
100
AcDbEntity
  8
Layer 3_laser
  0
POLYLINE
  5
280
330
1F
100
AcDbEntity
  8
Layer 3_laser
100
AcDb2dPolyline
 66
     1
 10
0.0
 20
0.0
 30
0.0
  0
VERTEX
  5
281
330
280
100
AcDbEntity
  8
Layer 3_laser
100
AcDbVertex
100
AcDb2dVertex
 10
-1.983777977958656
 20
23.8682061150214
 30
0.0
  0
VERTEX
  5
282
330
280
100
AcDbEntity
  8
Layer 3_laser
100
AcDbVertex
100
AcDb2dVertex
 10
-3.683366425125144
 20
23.41280276313788
 30
0.0
  0
SEQEND
  5
283
330
280
100
AcDbEntity
  8
Layer 3_laser
  0
POLYLINE
  5
284
330
1F
100
AcDbEntity
  8
Layer 3_laser
100
AcDb2dPolyline
 66
     1
 10
0.0
 20
0.0
 30
0.0
  0
VERTEX
  5
285
330
284
100
AcDbEntity
  8
Layer 3_laser
100
AcDbVertex
100
AcDb2dVertex
 10
-6.194773573476721
 20
22.73987324587132
 30
0.0
  0
VERTEX
  5
286
330
284
100
AcDbEntity
  8
Layer 3_laser
100
AcDbVertex
100
AcDb2dVertex
 10
-7.894362020643195
 20
22.2844698939878
 30
0.0
  0
SEQEND
  5
287
330
284
100
AcDbEntity
  8
Layer 3_laser
  0
POLYLINE
  5
288
330
1F
100
AcDbEntity
  8
Layer 3_laser
100
AcDb2dPolyline
 66
     1
 10
0.0
 20
0.0
 30
0.0
  0
VERTEX
  5
289
330
288
100
AcDbEntity
  8
Layer 3_laser
100
AcDbVertex
100
AcDb2dVertex
 10
-7.894362020643174
 20
22.2844698939878
 30
0.0
  0
VERTEX
  5
28A
330
288
100
AcDbEntity
  8
Layer 3_laser
100
AcDbVertex
100
AcDb2dVertex
 10
-9.593950467809664
 20
22.73987324587132
 30
0.0
  0
SEQEND
  5
28B
330
288
100
AcDbEntity
  8
Layer 3_laser
  0
POLYLINE
  5
28C
330
1F
100
AcDbEntity
  8
Layer 3_laser
100
AcDb2dPolyline
 66
     1
 10
0.0
 20
0.0
 30
0.0
  0
VERTEX
  5
28D
330
28C
100
AcDbEntity
  8
Layer 3_laser
100
AcDbVertex
100
AcDb2dVertex
 10
-12.10535761616124
 20
23.41280276313788
 30
0.0
  0
VERTEX
  5
28E
330
28C
100
AcDbEntity
  8
Layer 3_laser
100
AcDbVertex
100
AcDb2dVertex
 10
-13.80494606332771
 20
23.8682061150214
 30
0.0
  0
SEQEND
  5
28F
330
28C
100
AcDbEntity
  8
Layer 3_laser
  0
POLYLINE
  5
290
330
1F
100
AcDbEntity
  8
Layer 3_laser
100
AcDb2dPolyline
 66
     1
 10
0.0
 20
0.0
 30
0.0
  0
VERTEX
  5
291
330
290
100
AcDbEntity
  8
Layer 3_laser
100
AcDbVertex
100
AcDb2dVertex
 10
-13.80494606332767
 20
23.86820611502137
 30
0.0
  0
VERTEX
  5
292
330
290
100
AcDbEntity
  8
Layer 3_laser
100
AcDbVertex
100
AcDb2dVertex
 10
-15.04913115861063
 20
25.11239121030433
 30
0.0
  0
SEQEND
  5
293
330
290
100
AcDbEntity
  8
Layer 3_laser
  0
POLYLINE
  5
294
330
1F
100
AcDbEntity
  8
Layer 3_laser
100
AcDb2dPolyline
 66
     1
 10
0.0
 20
0.0
 30
0.0
  0
VERTEX
  5
295
330
294
100
AcDbEntity
  8
Layer 3_laser
100
AcDbVertex
100
AcDb2dVertex
 10
-16.88760878969566
 20
26.95086884138935
 30
0.0
  0
VERTEX
  5
296
330
294
100
AcDbEntity
  8
Layer 3_laser
100
AcDbVertex
100
AcDb2dVertex
 10
-18.13179388497861
 20
28.1950539366723
 30
0.0
  0
SEQEND
  5
297
330
294
100
AcDbEntity
  8
Layer 3_laser
  0
POLYLINE
  5
298
330
1F
100
AcDbEntity
  8
Layer 3_laser
100
AcDb2dPolyline
 66
     1
 10
0.0
 20
0.0
 30
0.0
  0
VERTEX
  5
299
330
298
100
AcDbEntity
  8
Layer 3_laser
100
AcDbVertex
100
AcDb2dVertex
 10
-18.1317938849786
 20
28.19505393667227
 30
0.0
  0
VERTEX
  5
29A
330
298
100
AcDbEntity
  8
Layer 3_laser
100
AcDbVertex
100
AcDb2dVertex
 10
-18.58719723686213
 20
29.89464238383876
 30
0.0
  0
SEQEND
  5
29B
330
298
100
AcDbEntity
  8
Layer 3_laser
  0
POLYLINE
  5
29C
330
1F
100
AcDbEntity
  8
Layer 3_laser
100
AcDb2dPolyline
 66
     1
 10
0.0
 20
0.0
 30
0.0
  0
VERTEX
  5
29D
330
29C
100
AcDbEntity
  8
Layer 3_laser
100
AcDbVertex
100
AcDb2dVertex
 10
-19.26012675412869
 20
32.40604953219033
 30
0.0
  0
VERTEX
  5
29E
330
29C
100
AcDbEntity
  8
Layer 3_laser
100
AcDbVertex
100
AcDb2dVertex
 10
-19.71553010601222
 20
34.10563797935681
 30
0.0
  0
SEQEND
  5
29F
330
29C
100
AcDbEntity
  8
Layer 3_laser
  0
POLYLINE
  5
2A0
330
1F
100
AcDbEntity
  8
Layer 3_laser
100
AcDb2dPolyline
 66
     1
 10
0.0
 20
0.0
 30
0.0
  0
VERTEX
  5
2A1
330
2A0
100
AcDbEntity
  8
Layer 3_laser
100
AcDbVertex
100
AcDb2dVertex
 10
-19.71553010601222
 20
34.10563797935681
 30
0.0
  0
VERTEX
  5
2A2
330
2A0
100
AcDbEntity
  8
Layer 3_laser
100
AcDbVertex
100
AcDb2dVertex
 10
-19.2601267541287
 20
35.8052264265233
 30
0.0
  0
SEQEND
  5
2A3
330
2A0
100
AcDbEntity
  8
Layer 3_laser
  0
POLYLINE
  5
2A4
330
1F
100
AcDbEntity
  8
Layer 3_laser
100
AcDb2dPolyline
 66
     1
 10
0.0
 20
0.0
 30
0.0
  0
VERTEX
  5
2A5
330
2A4
100
AcDbEntity
  8
Layer 3_laser
100
AcDbVertex
100
AcDb2dVertex
 10
-18.58719723686214
 20
38.31663357487488
 30
0.0
  0
VERTEX
  5
2A6
330
2A4
100
AcDbEntity
  8
Layer 3_laser
100
AcDbVertex
100
AcDb2dVertex
 10
-18.13179388497862
 20
40.01622202204136
 30
0.0
  0
SEQEND
  5
2A7
330
2A4
100
AcDbEntity
  8
Layer 3_laser
  0
POLYLINE
  5
2A8
330
1F
100
AcDbEntity
  8
Layer 3_laser
100
AcDb2dPolyline
 66
     1
 10
0.0
 20
0.0
 30
0.0
  0
VERTEX
  5
2A9
330
2A8
100
AcDbEntity
  8
Layer 3_laser
100
AcDbVertex
100
AcDb2dVertex
 10
-18.13179388497865
 20
40.0162220220413
 30
0.0
  0
VERTEX
  5
2AA
330
2A8
100
AcDbEntity
  8
Layer 3_laser
100
AcDbVertex
100
AcDb2dVertex
 10
-16.88760878969569
 20
41.26040711732428
 30
0.0
  0
SEQEND
  5
2AB
330
2A8
100
AcDbEntity
  8
Layer 3_laser
  0
POLYLINE
  5
2AC
330
1F
100
AcDbEntity
  8
Layer 3_laser
100
AcDb2dPolyline
 66
     1
 10
0.0
 20
0.0
 30
0.0
  0
VERTEX
  5
2AD
330
2AC
100
AcDbEntity
  8
Layer 3_laser
100
AcDbVertex
100
AcDb2dVertex
 10
-15.04913115861067
 20
43.0988847484093
 30
0.0
  0
VERTEX
  5
2AE
330
2AC
100
AcDbEntity
  8
Layer 3_laser
100
AcDbVertex
100
AcDb2dVertex
 10
-13.80494606332772
 20
44.34306984369226
 30
0.0
  0
SEQEND
  5
2AF
330
2AC
100
AcDbEntity
  8
Layer 3_laser
  0
POLYLINE
  5
2B0
330
1F
100
AcDbEntity
  8
Layer 3_laser
100
AcDb2dPolyline
 66
     1
 10
0.0
 20
0.0
 30
0.0
  0
VERTEX
  5
2B1
330
2B0
100
AcDbEntity
  8
Layer 3_laser
100
AcDbVertex
100
AcDb2dVertex
 10
-13.80494606332772
 20
44.34306984369226
 30
0.0
  0
VERTEX
  5
2B2
330
2B0
100
AcDbEntity
  8
Layer 3_laser
100
AcDbVertex
100
AcDb2dVertex
 10
-12.10535761616123
 20
44.79847319557579
 30
0.0
  0
SEQEND
  5
2B3
330
2B0
100
AcDbEntity
  8
Layer 3_laser
  0
POLYLINE
  5
2B4
330
1F
100
AcDbEntity
  8
Layer 3_laser
100
AcDb2dPolyline
 66
     1
 10
0.0
 20
0.0
 30
0.0
  0
VERTEX
  5
2B5
330
2B4
100
AcDbEntity
  8
Layer 3_laser
100
AcDbVertex
100
AcDb2dVertex
 10
-9.593950467809659
 20
45.47140271284234
 30
0.0
  0
VERTEX
  5
2B6
330
2B4
100
AcDbEntity
  8
Layer 3_laser
100
AcDbVertex
100
AcDb2dVertex
 10
-7.894362020643184
 20
45.92680606472587
 30
0.0
  0
SEQEND
  5
2B7
330
2B4
100
AcDbEntity
  8
Layer 3_laser
  0
LINE
  5
2B8
330
1F
100
AcDbEntity
  8
Layer 3_laser
100
AcDbLine
 10
22.1056379793568
 20
40.92680606472587
 30
0.0
 11
17.75199931799258
 21
45.35363866136422
 31
0.0
  0
LINE
  5
2B9
330
1F
100
AcDbEntity
  8
Layer 3_laser
100
AcDbLine
 10
17.75199931799258
 20
45.35363866136422
 30
0.0
 11
16.19505393667226
 21
39.34306984369226
 31
0.0
  0
LINE
  5
2BA
330
1F
100
AcDbEntity
  8
Layer 3_laser
100
AcDbLine
 10
16.19505393667226
 20
39.34306984369226
 30
0.0
 11
10.2112759587136
 21
41.0
 31
0.0
  0
LINE
  5
2BB
330
1F
100
AcDbEntity
  8
Layer 3_laser
100
AcDbLine
 10
10.2112759587136
 20
41.0
 30
0.0
 11
11.86820611502133
 21
35.01622202204133
 31
0.0
  0
LINE
  5
2BC
330
1F
100
AcDbEntity
  8
Layer 3_laser
100
AcDbLine
 10
11.86820611502133
 20
35.01622202204133
 30
0.0
 11
5.857637297349378
 21
33.45927664072102
 31
0.0
  0
LINE
  5
2BD
330
1F
100
AcDbEntity
  8
Layer 3_laser
100
AcDbLine
 10
5.857637297349378
 20
33.45927664072102
 30
0.0
 11
10.28446989398773
 21
29.1056379793568
 31
0.0
  0
LINE
  5
2BE
330
1F
100
AcDbEntity
  8
Layer 3_laser
100
AcDbLine
 10
10.28446989398773
 20
29.1056379793568
 30
0.0
 11
5.857637297349374
 21
24.75199931799258
 31
0.0
  0
LINE
  5
2BF
330
1F
100
AcDbEntity
  8
Layer 3_laser
100
AcDbLine
 10
5.857637297349374
 20
24.75199931799258
 30
0.0
 11
11.86820611502133
 21
23.19505393667227
 31
0.0
  0
LINE
  5
2C0
330
1F
100
AcDbEntity
  8
Layer 3_laser
100
AcDbLine
 10
11.86820611502133
 20
23.19505393667227
 30
0.0
 11
10.2112759587136
 21
17.2112759587136
 31
0.0
  0
LINE
  5
2C1
330
1F
100
AcDbEntity
  8
Layer 3_laser
100
AcDbLine
 10
10.2112759587136
 20
17.2112759587136
 30
0.0
 11
16.19505393667226
 21
18.86820611502133
 31
0.0
  0
LINE
  5
2C2
330
1F
100
AcDbEntity
  8
Layer 3_laser
100
AcDbLine
 10
16.19505393667226
 20
18.86820611502133
 30
0.0
 11
17.75199931799257
 21
12.85763729734938
 31
0.0
  0
LINE
  5
2C3
330
1F
100
AcDbEntity
  8
Layer 3_laser
100
AcDbLine
 10
17.75199931799257
 20
12.85763729734938
 30
0.0
 11
22.1056379793568
 21
17.28446989398773
 31
0.0
  0
LINE
  5
2C4
330
1F
100
AcDbEntity
  8
Layer 3_laser
100
AcDbLine
 10
22.1056379793568
 20
17.28446989398773
 30
0.0
 11
26.45927664072101
 21
12.85763729734938
 31
0.0
  0
LINE
  5
2C5
330
1F
100
AcDbEntity
  8
Layer 3_laser
100
AcDbLine
 10
26.45927664072101
 20
12.85763729734938
 30
0.0
 11
28.01622202204133
 21
18.86820611502133
 31
0.0
  0
LINE
  5
2C6
330
1F
100
AcDbEntity
  8
Layer 3_laser
100
AcDbLine
 10
28.01622202204133
 20
18.86820611502133
 30
0.0
 11
33.99999999999999
 21
17.21127595871359
 31
0.0
  0
LINE
  5
2C7
330
1F
100
AcDbEntity
  8
Layer 3_laser
100
AcDbLine
 10
33.99999999999999
 20
17.21127595871359
 30
0.0
 11
32.34306984369226
 21
23.19505393667226
 31
0.0
  0
LINE
  5
2C8
330
1F
100
AcDbEntity
  8
Layer 3_laser
100
AcDbLine
 10
32.34306984369226
 20
23.19505393667226
 30
0.0
 11
38.35363866136422
 21
24.75199931799257
 31
0.0
  0
LINE
  5
2C9
330
1F
100
AcDbEntity
  8
Layer 3_laser
100
AcDbLine
 10
38.35363866136422
 20
24.75199931799257
 30
0.0
 11
33.92680606472587
 21
29.1056379793568
 31
0.0
  0
LINE
  5
2CA
330
1F
100
AcDbEntity
  8
Layer 3_laser
100
AcDbLine
 10
33.92680606472587
 20
29.1056379793568
 30
0.0
 11
38.35363866136422
 21
33.45927664072101
 31
0.0
  0
LINE
  5
2CB
330
1F
100
AcDbEntity
  8
Layer 3_laser
100
AcDbLine
 10
38.35363866136422
 20
33.45927664072101
 30
0.0
 11
32.34306984369227
 21
35.01622202204132
 31
0.0
  0
LINE
  5
2CC
330
1F
100
AcDbEntity
  8
Layer 3_laser
100
AcDbLine
 10
32.34306984369227
 20
35.01622202204132
 30
0.0
 11
34.0
 21
41.0
 31
0.0
  0
LINE
  5
2CD
330
1F
100
AcDbEntity
  8
Layer 3_laser
100
AcDbLine
 10
34.0
 20
41.0
 30
0.0
 11
28.01622202204134
 21
39.34306984369226
 31
0.0
  0
LINE
  5
2CE
330
1F
100
AcDbEntity
  8
Layer 3_laser
100
AcDbLine
 10
28.01622202204134
 20
39.34306984369226
 30
0.0
 11
26.45927664072103
 21
45.35363866136422
 31
0.0
  0
LINE
  5
2CF
330
1F
100
AcDbEntity
  8
Layer 3_laser
100
AcDbLine
 10
26.45927664072103
 20
45.35363866136422
 30
0.0
 11
22.1056379793568
 21
40.92680606472587
 31
0.0
  0
POLYLINE
  5
2D0
330
1F
100
AcDbEntity
  8
Layer 3_laser
100
AcDb2dPolyline
 66
     1
 10
0.0
 20
0.0
 30
0.0
  0
VERTEX
  5
2D1
330
2D0
100
AcDbEntity
  8
Layer 3_laser
100
AcDbVertex
100
AcDb2dVertex
 10
22.1056379793568
 20
40.92680606472587
 30
0.0
  0
VERTEX
  5
2D2
330
2D0
100
AcDbEntity
  8
Layer 3_laser
100
AcDbVertex
100
AcDb2dVertex
 10
23.80522642652329
 20
40.47140271284234
 30
0.0
  0
SEQEND
  5
2D3
330
2D0
100
AcDbEntity
  8
Layer 3_laser
  0
POLYLINE
  5
2D4
330
1F
100
AcDbEntity
  8
Layer 3_laser
100
AcDb2dPolyline
 66
     1
 10
0.0
 20
0.0
 30
0.0
  0
VERTEX
  5
2D5
330
2D4
100
AcDbEntity
  8
Layer 3_laser
100
AcDbVertex
100
AcDb2dVertex
 10
26.31663357487486
 20
39.79847319557578
 30
0.0
  0
VERTEX
  5
2D6
330
2D4
100
AcDbEntity
  8
Layer 3_laser
100
AcDbVertex
100
AcDb2dVertex
 10
28.01622202204134
 20
39.34306984369226
 30
0.0
  0
SEQEND
  5
2D7
330
2D4
100
AcDbEntity
  8
Layer 3_laser
  0
POLYLINE
  5
2D8
330
1F
100
AcDbEntity
  8
Layer 3_laser
100
AcDb2dPolyline
 66
     1
 10
0.0
 20
0.0
 30
0.0
  0
VERTEX
  5
2D9
330
2D8
100
AcDbEntity
  8
Layer 3_laser
100
AcDbVertex
100
AcDb2dVertex
 10
28.01622202204133
 20
39.34306984369227
 30
0.0
  0
VERTEX
  5
2DA
330
2D8
100
AcDbEntity
  8
Layer 3_laser
100
AcDbVertex
100
AcDb2dVertex
 10
29.26040711732429
 20
38.0988847484093
 30
0.0
  0
SEQEND
  5
2DB
330
2D8
100
AcDbEntity
  8
Layer 3_laser
  0
POLYLINE
  5
2DC
330
1F
100
AcDbEntity
  8
Layer 3_laser
100
AcDb2dPolyline
 66
     1
 10
0.0
 20
0.0
 30
0.0
  0
VERTEX
  5
2DD
330
2DC
100
AcDbEntity
  8
Layer 3_laser
100
AcDbVertex
100
AcDb2dVertex
 10
31.09888474840931
 20
36.26040711732428
 30
0.0
  0
VERTEX
  5
2DE
330
2DC
100
AcDbEntity
  8
Layer 3_laser
100
AcDbVertex
100
AcDb2dVertex
 10
32.34306984369226
 20
35.01622202204133
 30
0.0
  0
SEQEND
  5
2DF
330
2DC
100
AcDbEntity
  8
Layer 3_laser
  0
POLYLINE
  5
2E0
330
1F
100
AcDbEntity
  8
Layer 3_laser
100
AcDb2dPolyline
 66
     1
 10
0.0
 20
0.0
 30
0.0
  0
VERTEX
  5
2E1
330
2E0
100
AcDbEntity
  8
Layer 3_laser
100
AcDbVertex
100
AcDb2dVertex
 10
32.34306984369225
 20
35.01622202204135
 30
0.0
  0
VERTEX
  5
2E2
330
2E0
100
AcDbEntity
  8
Layer 3_laser
100
AcDbVertex
100
AcDb2dVertex
 10
32.79847319557578
 20
33.31663357487486
 30
0.0
  0
SEQEND
  5
2E3
330
2E0
100
AcDbEntity
  8
Layer 3_laser
  0
POLYLINE
  5
2E4
330
1F
100
AcDbEntity
  8
Layer 3_laser
100
AcDb2dPolyline
 66
     1
 10
0.0
 20
0.0
 30
0.0
  0
VERTEX
  5
2E5
330
2E4
100
AcDbEntity
  8
Layer 3_laser
100
AcDbVertex
100
AcDb2dVertex
 10
33.47140271284232
 20
30.80522642652328
 30
0.0
  0
VERTEX
  5
2E6
330
2E4
100
AcDbEntity
  8
Layer 3_laser
100
AcDbVertex
100
AcDb2dVertex
 10
33.92680606472585
 20
29.1056379793568
 30
0.0
  0
SEQEND
  5
2E7
330
2E4
100
AcDbEntity
  8
Layer 3_laser
  0
POLYLINE
  5
2E8
330
1F
100
AcDbEntity
  8
Layer 3_laser
100
AcDb2dPolyline
 66
     1
 10
0.0
 20
0.0
 30
0.0
  0
VERTEX
  5
2E9
330
2E8
100
AcDbEntity
  8
Layer 3_laser
100
AcDbVertex
100
AcDb2dVertex
 10
33.92680606472585
 20
29.10563797935685
 30
0.0
  0
VERTEX
  5
2EA
330
2E8
100
AcDbEntity
  8
Layer 3_laser
100
AcDbVertex
100
AcDb2dVertex
 10
33.47140271284232
 20
27.40604953219036
 30
0.0
  0
SEQEND
  5
2EB
330
2E8
100
AcDbEntity
  8
Layer 3_laser
  0
POLYLINE
  5
2EC
330
1F
100
AcDbEntity
  8
Layer 3_laser
100
AcDb2dPolyline
 66
     1
 10
0.0
 20
0.0
 30
0.0
  0
VERTEX
  5
2ED
330
2EC
100
AcDbEntity
  8
Layer 3_laser
100
AcDbVertex
100
AcDb2dVertex
 10
32.79847319557577
 20
24.89464238383878
 30
0.0
  0
VERTEX
  5
2EE
330
2EC
100
AcDbEntity
  8
Layer 3_laser
100
AcDbVertex
100
AcDb2dVertex
 10
32.34306984369224
 20
23.19505393667231
 30
0.0
  0
SEQEND
  5
2EF
330
2EC
100
AcDbEntity
  8
Layer 3_laser
  0
POLYLINE
  5
2F0
330
1F
100
AcDbEntity
  8
Layer 3_laser
100
AcDb2dPolyline
 66
     1
 10
0.0
 20
0.0
 30
0.0
  0
VERTEX
  5
2F1
330
2F0
100
AcDbEntity
  8
Layer 3_laser
100
AcDbVertex
100
AcDb2dVertex
 10
32.34306984369225
 20
23.19505393667232
 30
0.0
  0
VERTEX
  5
2F2
330
2F0
100
AcDbEntity
  8
Layer 3_laser
100
AcDbVertex
100
AcDb2dVertex
 10
31.09888474840929
 20
21.95086884138936
 30
0.0
  0
SEQEND
  5
2F3
330
2F0
100
AcDbEntity
  8
Layer 3_laser
  0
POLYLINE
  5
2F4
330
1F
100
AcDbEntity
  8
Layer 3_laser
100
AcDb2dPolyline
 66
     1
 10
0.0
 20
0.0
 30
0.0
  0
VERTEX
  5
2F5
330
2F4
100
AcDbEntity
  8
Layer 3_laser
100
AcDbVertex
100
AcDb2dVertex
 10
29.26040711732426
 20
20.11239121030434
 30
0.0
  0
VERTEX
  5
2F6
330
2F4
100
AcDbEntity
  8
Layer 3_laser
100
AcDbVertex
100
AcDb2dVertex
 10
28.01622202204131
 20
18.86820611502139
 30
0.0
  0
SEQEND
  5
2F7
330
2F4
100
AcDbEntity
  8
Layer 3_laser
  0
POLYLINE
  5
2F8
330
1F
100
AcDbEntity
  8
Layer 3_laser
100
AcDb2dPolyline
 66
     1
 10
0.0
 20
0.0
 30
0.0
  0
VERTEX
  5
2F9
330
2F8
100
AcDbEntity
  8
Layer 3_laser
100
AcDbVertex
100
AcDb2dVertex
 10
28.01622202204134
 20
18.8682061150214
 30
0.0
  0
VERTEX
  5
2FA
330
2F8
100
AcDbEntity
  8
Layer 3_laser
100
AcDbVertex
100
AcDb2dVertex
 10
26.31663357487486
 20
18.41280276313788
 30
0.0
  0
SEQEND
  5
2FB
330
2F8
100
AcDbEntity
  8
Layer 3_laser
  0
POLYLINE
  5
2FC
330
1F
100
AcDbEntity
  8
Layer 3_laser
100
AcDb2dPolyline
 66
     1
 10
0.0
 20
0.0
 30
0.0
  0
VERTEX
  5
2FD
330
2FC
100
AcDbEntity
  8
Layer 3_laser
100
AcDbVertex
100
AcDb2dVertex
 10
23.80522642652328
 20
17.73987324587132
 30
0.0
  0
VERTEX
  5
2FE
330
2FC
100
AcDbEntity
  8
Layer 3_laser
100
AcDbVertex
100
AcDb2dVertex
 10
22.10563797935681
 20
17.2844698939878
 30
0.0
  0
SEQEND
  5
2FF
330
2FC
100
AcDbEntity
  8
Layer 3_laser
  0
POLYLINE
  5
300
330
1F
100
AcDbEntity
  8
Layer 3_laser
100
AcDb2dPolyline
 66
     1
 10
0.0
 20
0.0
 30
0.0
  0
VERTEX
  5
301
330
300
100
AcDbEntity
  8
Layer 3_laser
100
AcDbVertex
100
AcDb2dVertex
 10
22.10563797935682
 20
17.2844698939878
 30
0.0
  0
VERTEX
  5
302
330
300
100
AcDbEntity
  8
Layer 3_laser
100
AcDbVertex
100
AcDb2dVertex
 10
20.40604953219034
 20
17.73987324587132
 30
0.0
  0
SEQEND
  5
303
330
300
100
AcDbEntity
  8
Layer 3_laser
  0
POLYLINE
  5
304
330
1F
100
AcDbEntity
  8
Layer 3_laser
100
AcDb2dPolyline
 66
     1
 10
0.0
 20
0.0
 30
0.0
  0
VERTEX
  5
305
330
304
100
AcDbEntity
  8
Layer 3_laser
100
AcDbVertex
100
AcDb2dVertex
 10
17.89464238383876
 20
18.41280276313788
 30
0.0
  0
VERTEX
  5
306
330
304
100
AcDbEntity
  8
Layer 3_laser
100
AcDbVertex
100
AcDb2dVertex
 10
16.19505393667229
 20
18.8682061150214
 30
0.0
  0
SEQEND
  5
307
330
304
100
AcDbEntity
  8
Layer 3_laser
  0
POLYLINE
  5
308
330
1F
100
AcDbEntity
  8
Layer 3_laser
100
AcDb2dPolyline
 66
     1
 10
0.0
 20
0.0
 30
0.0
  0
VERTEX
  5
309
330
308
100
AcDbEntity
  8
Layer 3_laser
100
AcDbVertex
100
AcDb2dVertex
 10
16.19505393667233
 20
18.86820611502137
 30
0.0
  0
VERTEX
  5
30A
330
308
100
AcDbEntity
  8
Layer 3_laser
100
AcDbVertex
100
AcDb2dVertex
 10
14.95086884138937
 20
20.11239121030433
 30
0.0
  0
SEQEND
  5
30B
330
308
100
AcDbEntity
  8
Layer 3_laser
  0
POLYLINE
  5
30C
330
1F
100
AcDbEntity
  8
Layer 3_laser
100
AcDb2dPolyline
 66
     1
 10
0.0
 20
0.0
 30
0.0
  0
VERTEX
  5
30D
330
30C
100
AcDbEntity
  8
Layer 3_laser
100
AcDbVertex
100
AcDb2dVertex
 10
13.11239121030434
 20
21.95086884138935
 30
0.0
  0
VERTEX
  5
30E
330
30C
100
AcDbEntity
  8
Layer 3_laser
100
AcDbVertex
100
AcDb2dVertex
 10
11.86820611502139
 20
23.1950539366723
 30
0.0
  0
SEQEND
  5
30F
330
30C
100
AcDbEntity
  8
Layer 3_laser
  0
POLYLINE
  5
310
330
1F
100
AcDbEntity
  8
Layer 3_laser
100
AcDb2dPolyline
 66
     1
 10
0.0
 20
0.0
 30
0.0
  0
VERTEX
  5
311
330
310
100
AcDbEntity
  8
Layer 3_laser
100
AcDbVertex
100
AcDb2dVertex
 10
11.8682061150214
 20
23.19505393667227
 30
0.0
  0
VERTEX
  5
312
330
310
100
AcDbEntity
  8
Layer 3_laser
100
AcDbVertex
100
AcDb2dVertex
 10
11.41280276313787
 20
24.89464238383876
 30
0.0
  0
SEQEND
  5
313
330
310
100
AcDbEntity
  8
Layer 3_laser
  0
POLYLINE
  5
314
330
1F
100
AcDbEntity
  8
Layer 3_laser
100
AcDb2dPolyline
 66
     1
 10
0.0
 20
0.0
 30
0.0
  0
VERTEX
  5
315
330
314
100
AcDbEntity
  8
Layer 3_laser
100
AcDbVertex
100
AcDb2dVertex
 10
10.73987324587131
 20
27.40604953219033
 30
0.0
  0
VERTEX
  5
316
330
314
100
AcDbEntity
  8
Layer 3_laser
100
AcDbVertex
100
AcDb2dVertex
 10
10.28446989398778
 20
29.1056379793568
 30
0.0
  0
SEQEND
  5
317
330
314
100
AcDbEntity
  8
Layer 3_laser
  0
POLYLINE
  5
318
330
1F
100
AcDbEntity
  8
Layer 3_laser
100
AcDb2dPolyline
 66
     1
 10
0.0
 20
0.0
 30
0.0
  0
VERTEX
  5
319
330
318
100
AcDbEntity
  8
Layer 3_laser
100
AcDbVertex
100
AcDb2dVertex
 10
10.28446989398778
 20
29.10563797935682
 30
0.0
  0
VERTEX
  5
31A
330
318
100
AcDbEntity
  8
Layer 3_laser
100
AcDbVertex
100
AcDb2dVertex
 10
10.7398732458713
 20
30.80522642652331
 30
0.0
  0
SEQEND
  5
31B
330
318
100
AcDbEntity
  8
Layer 3_laser
  0
POLYLINE
  5
31C
330
1F
100
AcDbEntity
  8
Layer 3_laser
100
AcDb2dPolyline
 66
     1
 10
0.0
 20
0.0
 30
0.0
  0
VERTEX
  5
31D
330
31C
100
AcDbEntity
  8
Layer 3_laser
100
AcDbVertex
100
AcDb2dVertex
 10
11.41280276313786
 20
33.31663357487488
 30
0.0
  0
VERTEX
  5
31E
330
31C
100
AcDbEntity
  8
Layer 3_laser
100
AcDbVertex
100
AcDb2dVertex
 10
11.86820611502138
 20
35.01622202204136
 30
0.0
  0
SEQEND
  5
31F
330
31C
100
AcDbEntity
  8
Layer 3_laser
  0
POLYLINE
  5
320
330
1F
100
AcDbEntity
  8
Layer 3_laser
100
AcDb2dPolyline
 66
     1
 10
0.0
 20
0.0
 30
0.0
  0
VERTEX
  5
321
330
320
100
AcDbEntity
  8
Layer 3_laser
100
AcDbVertex
100
AcDb2dVertex
 10
11.86820611502135
 20
35.0162220220413
 30
0.0
  0
VERTEX
  5
322
330
320
100
AcDbEntity
  8
Layer 3_laser
100
AcDbVertex
100
AcDb2dVertex
 10
13.11239121030431
 20
36.26040711732428
 30
0.0
  0
SEQEND
  5
323
330
320
100
AcDbEntity
  8
Layer 3_laser
  0
POLYLINE
  5
324
330
1F
100
AcDbEntity
  8
Layer 3_laser
100
AcDb2dPolyline
 66
     1
 10
0.0
 20
0.0
 30
0.0
  0
VERTEX
  5
325
330
324
100
AcDbEntity
  8
Layer 3_laser
100
AcDbVertex
100
AcDb2dVertex
 10
14.95086884138933
 20
38.0988847484093
 30
0.0
  0
VERTEX
  5
326
330
324
100
AcDbEntity
  8
Layer 3_laser
100
AcDbVertex
100
AcDb2dVertex
 10
16.19505393667228
 20
39.34306984369226
 30
0.0
  0
SEQEND
  5
327
330
324
100
AcDbEntity
  8
Layer 3_laser
  0
POLYLINE
  5
328
330
1F
100
AcDbEntity
  8
Layer 3_laser
100
AcDb2dPolyline
 66
     1
 10
0.0
 20
0.0
 30
0.0
  0
VERTEX
  5
329
330
328
100
AcDbEntity
  8
Layer 3_laser
100
AcDbVertex
100
AcDb2dVertex
 10
16.19505393667228
 20
39.34306984369226
 30
0.0
  0
VERTEX
  5
32A
330
328
100
AcDbEntity
  8
Layer 3_laser
100
AcDbVertex
100
AcDb2dVertex
 10
17.89464238383876
 20
39.79847319557579
 30
0.0
  0
SEQEND
  5
32B
330
328
100
AcDbEntity
  8
Layer 3_laser
  0
POLYLINE
  5
32C
330
1F
100
AcDbEntity
  8
Layer 3_laser
100
AcDb2dPolyline
 66
     1
 10
0.0
 20
0.0
 30
0.0
  0
VERTEX
  5
32D
330
32C
100
AcDbEntity
  8
Layer 3_laser
100
AcDbVertex
100
AcDb2dVertex
 10
20.40604953219034
 20
40.47140271284234
 30
0.0
  0
VERTEX
  5
32E
330
32C
100
AcDbEntity
  8
Layer 3_laser
100
AcDbVertex
100
AcDb2dVertex
 10
22.10563797935681
 20
40.92680606472587
 30
0.0
  0
SEQEND
  5
32F
330
32C
100
AcDbEntity
  8
Layer 3_laser
  0
LINE
  5
330
330
1F
100
AcDbEntity
  8
Layer 3_laser
100
AcDbLine
 10
2.990000000000006
 20
17.0
 30
0.0
 11
-1.363638661364212
 21
21.42683259663836
 31
0.0
  0
LINE
  5
331
330
1F
100
AcDbEntity
  8
Layer 3_laser
100
AcDbLine
 10
-1.363638661364212
 20
21.42683259663836
 30
0.0
 11
-2.920584042684527
 21
15.4162637789664
 31
0.0
  0
LINE
  5
332
330
1F
100
AcDbEntity
  8
Layer 3_laser
100
AcDbLine
 10
-2.920584042684527
 20
15.4162637789664
 30
0.0
 11
-8.904362020643195
 21
17.07319393527413
 31
0.0
  0
LINE
  5
333
330
1F
100
AcDbEntity
  8
Layer 3_laser
100
AcDbLine
 10
-8.904362020643195
 20
17.07319393527413
 30
0.0
 11
-7.24743186433546
 21
11.08941595731547
 31
0.0
  0
LINE
  5
334
330
1F
100
AcDbEntity
  8
Layer 3_laser
100
AcDbLine
 10
-7.24743186433546
 20
11.08941595731547
 30
0.0
 11
-13.25800068200741
 21
9.532470575995154
 31
0.0
  0
LINE
  5
335
330
1F
100
AcDbEntity
  8
Layer 3_laser
100
AcDbLine
 10
-13.25800068200741
 20
9.532470575995154
 30
0.0
 11
-8.831168085369061
 21
5.178831914630933
 31
0.0
  0
LINE
  5
336
330
1F
100
AcDbEntity
  8
Layer 3_laser
100
AcDbLine
 10
-8.831168085369061
 20
5.178831914630933
 30
0.0
 11
-13.25800068200742
 21
0.8251932532667148
 31
0.0
  0
LINE
  5
337
330
1F
100
AcDbEntity
  8
Layer 3_laser
100
AcDbLine
 10
-13.25800068200742
 20
0.8251932532667148
 30
0.0
 11
-7.247431864335463
 21
-0.7317521280535999
 31
0.0
  0
LINE
  5
338
330
1F
100
AcDbEntity
  8
Layer 3_laser
100
AcDbLine
 10
-7.247431864335463
 20
-0.7317521280535999
 30
0.0
 11
-8.904362020643195
 21
-6.715530106012269
 31
0.0
  0
LINE
  5
339
330
1F
100
AcDbEntity
  8
Layer 3_laser
100
AcDbLine
 10
-8.904362020643195
 20
-6.715530106012269
 30
0.0
 11
-2.920584042684531
 21
-5.058599949704533
 31
0.0
  0
LINE
  5
33A
330
1F
100
AcDbEntity
  8
Layer 3_laser
100
AcDbLine
 10
-2.920584042684531
 20
-5.058599949704533
 30
0.0
 11
-1.363638661364218
 21
-11.06916876737649
 31
0.0
  0
LINE
  5
33B
330
1F
100
AcDbEntity
  8
Layer 3_laser
100
AcDbLine
 10
-1.363638661364218
 20
-11.06916876737649
 30
0.0
 11
2.990000000000005
 21
-6.642336170738137
 31
0.0
  0
LINE
  5
33C
330
1F
100
AcDbEntity
  8
Layer 3_laser
100
AcDbLine
 10
2.990000000000005
 20
-6.642336170738137
 30
0.0
 11
7.343638661364219
 21
-11.06916876737649
 31
0.0
  0
LINE
  5
33D
330
1F
100
AcDbEntity
  8
Layer 3_laser
100
AcDbLine
 10
7.343638661364219
 20
-11.06916876737649
 30
0.0
 11
8.900584042684539
 21
-5.058599949704538
 31
0.0
  0
LINE
  5
33E
330
1F
100
AcDbEntity
  8
Layer 3_laser
100
AcDbLine
 10
8.900584042684539
 20
-5.058599949704538
 30
0.0
 11
14.8843620206432
 21
-6.715530106012276
 31
0.0
  0
LINE
  5
33F
330
1F
100
AcDbEntity
  8
Layer 3_laser
100
AcDbLine
 10
14.8843620206432
 20
-6.715530106012276
 30
0.0
 11
13.22743186433547
 21
-0.7317521280536079
 31
0.0
  0
LINE
  5
340
330
1F
100
AcDbEntity
  8
Layer 3_laser
100
AcDbLine
 10
13.22743186433547
 20
-0.7317521280536079
 30
0.0
 11
19.23800068200742
 21
0.8251932532667006
 31
0.0
  0
LINE
  5
341
330
1F
100
AcDbEntity
  8
Layer 3_laser
100
AcDbLine
 10
19.23800068200742
 20
0.8251932532667006
 30
0.0
 11
14.81116808536908
 21
5.17883191463093
 31
0.0
  0
LINE
  5
342
330
1F
100
AcDbEntity
  8
Layer 3_laser
100
AcDbLine
 10
14.81116808536908
 20
5.17883191463093
 30
0.0
 11
19.23800068200743
 21
9.532470575995143
 31
0.0
  0
LINE
  5
343
330
1F
100
AcDbEntity
  8
Layer 3_laser
100
AcDbLine
 10
19.23800068200743
 20
9.532470575995143
 30
0.0
 11
13.22743186433548
 21
11.08941595731546
 31
0.0
  0
LINE
  5
344
330
1F
100
AcDbEntity
  8
Layer 3_laser
100
AcDbLine
 10
13.22743186433548
 20
11.08941595731546
 30
0.0
 11
14.88436202064321
 21
17.07319393527413
 31
0.0
  0
LINE
  5
345
330
1F
100
AcDbEntity
  8
Layer 3_laser
100
AcDbLine
 10
14.88436202064321
 20
17.07319393527413
 30
0.0
 11
8.900584042684546
 21
15.4162637789664
 31
0.0
  0
LINE
  5
346
330
1F
100
AcDbEntity
  8
Layer 3_laser
100
AcDbLine
 10
8.900584042684546
 20
15.4162637789664
 30
0.0
 11
7.343638661364238
 21
21.42683259663835
 31
0.0
  0
LINE
  5
347
330
1F
100
AcDbEntity
  8
Layer 3_laser
100
AcDbLine
 10
7.343638661364238
 20
21.42683259663835
 30
0.0
 11
2.990000000000006
 21
17.0
 31
0.0
  0
POLYLINE
  5
348
330
1F
100
AcDbEntity
  8
Layer 3_laser
100
AcDb2dPolyline
 66
     1
 10
0.0
 20
0.0
 30
0.0
  0
VERTEX
  5
349
330
348
100
AcDbEntity
  8
Layer 3_laser
100
AcDbVertex
100
AcDb2dVertex
 10
2.990000000000006
 20
17.0
 30
0.0
  0
VERTEX
  5
34A
330
348
100
AcDbEntity
  8
Layer 3_laser
100
AcDbVertex
100
AcDb2dVertex
 10
4.689588447166496
 20
16.54459664811647
 30
0.0
  0
SEQEND
  5
34B
330
348
100
AcDbEntity
  8
Layer 3_laser
  0
POLYLINE
  5
34C
330
1F
100
AcDbEntity
  8
Layer 3_laser
100
AcDb2dPolyline
 66
     1
 10
0.0
 20
0.0
 30
0.0
  0
VERTEX
  5
34D
330
34C
100
AcDbEntity
  8
Layer 3_laser
100
AcDbVertex
100
AcDb2dVertex
 10
7.200995595518071
 20
15.87166713084992
 30
0.0
  0
VERTEX
  5
34E
330
34C
100
AcDbEntity
  8
Layer 3_laser
100
AcDbVertex
100
AcDb2dVertex
 10
8.900584042684546
 20
15.4162637789664
 30
0.0
  0
SEQEND
  5
34F
330
34C
100
AcDbEntity
  8
Layer 3_laser
  0
POLYLINE
  5
350
330
1F
100
AcDbEntity
  8
Layer 3_laser
100
AcDb2dPolyline
 66
     1
 10
0.0
 20
0.0
 30
0.0
  0
VERTEX
  5
351
330
350
100
AcDbEntity
  8
Layer 3_laser
100
AcDbVertex
100
AcDb2dVertex
 10
8.900584042684539
 20
15.4162637789664
 30
0.0
  0
VERTEX
  5
352
330
350
100
AcDbEntity
  8
Layer 3_laser
100
AcDbVertex
100
AcDb2dVertex
 10
10.1447691379675
 20
14.17207868368344
 30
0.0
  0
SEQEND
  5
353
330
350
100
AcDbEntity
  8
Layer 3_laser
  0
POLYLINE
  5
354
330
1F
100
AcDbEntity
  8
Layer 3_laser
100
AcDb2dPolyline
 66
     1
 10
0.0
 20
0.0
 30
0.0
  0
VERTEX
  5
355
330
354
100
AcDbEntity
  8
Layer 3_laser
100
AcDbVertex
100
AcDb2dVertex
 10
11.98324676905252
 20
12.33360105259841
 30
0.0
  0
VERTEX
  5
356
330
354
100
AcDbEntity
  8
Layer 3_laser
100
AcDbVertex
100
AcDb2dVertex
 10
13.22743186433547
 20
11.08941595731546
 30
0.0
  0
SEQEND
  5
357
330
354
100
AcDbEntity
  8
Layer 3_laser
  0
POLYLINE
  5
358
330
1F
100
AcDbEntity
  8
Layer 3_laser
100
AcDb2dPolyline
 66
     1
 10
0.0
 20
0.0
 30
0.0
  0
VERTEX
  5
359
330
358
100
AcDbEntity
  8
Layer 3_laser
100
AcDbVertex
100
AcDb2dVertex
 10
13.22743186433546
 20
11.08941595731548
 30
0.0
  0
VERTEX
  5
35A
330
358
100
AcDbEntity
  8
Layer 3_laser
100
AcDbVertex
100
AcDb2dVertex
 10
13.68283521621899
 20
9.389827510148987
 30
0.0
  0
SEQEND
  5
35B
330
358
100
AcDbEntity
  8
Layer 3_laser
  0
POLYLINE
  5
35C
330
1F
100
AcDbEntity
  8
Layer 3_laser
100
AcDb2dPolyline
 66
     1
 10
0.0
 20
0.0
 30
0.0
  0
VERTEX
  5
35D
330
35C
100
AcDbEntity
  8
Layer 3_laser
100
AcDbVertex
100
AcDb2dVertex
 10
14.35576473348553
 20
6.878420361797408
 30
0.0
  0
VERTEX
  5
35E
330
35C
100
AcDbEntity
  8
Layer 3_laser
100
AcDbVertex
100
AcDb2dVertex
 10
14.81116808536905
 20
5.178831914630933
 30
0.0
  0
SEQEND
  5
35F
330
35C
100
AcDbEntity
  8
Layer 3_laser
  0
POLYLINE
  5
360
330
1F
100
AcDbEntity
  8
Layer 3_laser
100
AcDb2dPolyline
 66
     1
 10
0.0
 20
0.0
 30
0.0
  0
VERTEX
  5
361
330
360
100
AcDbEntity
  8
Layer 3_laser
100
AcDbVertex
100
AcDb2dVertex
 10
14.81116808536905
 20
5.178831914630979
 30
0.0
  0
VERTEX
  5
362
330
360
100
AcDbEntity
  8
Layer 3_laser
100
AcDbVertex
100
AcDb2dVertex
 10
14.35576473348553
 20
3.479243467464489
 30
0.0
  0
SEQEND
  5
363
330
360
100
AcDbEntity
  8
Layer 3_laser
  0
POLYLINE
  5
364
330
1F
100
AcDbEntity
  8
Layer 3_laser
100
AcDb2dPolyline
 66
     1
 10
0.0
 20
0.0
 30
0.0
  0
VERTEX
  5
365
330
364
100
AcDbEntity
  8
Layer 3_laser
100
AcDbVertex
100
AcDb2dVertex
 10
13.68283521621897
 20
0.967836319112914
 30
0.0
  0
VERTEX
  5
366
330
364
100
AcDbEntity
  8
Layer 3_laser
100
AcDbVertex
100
AcDb2dVertex
 10
13.22743186433545
 20
-0.7317521280535608
 30
0.0
  0
SEQEND
  5
367
330
364
100
AcDbEntity
  8
Layer 3_laser
  0
POLYLINE
  5
368
330
1F
100
AcDbEntity
  8
Layer 3_laser
100
AcDb2dPolyline
 66
     1
 10
0.0
 20
0.0
 30
0.0
  0
VERTEX
  5
369
330
368
100
AcDbEntity
  8
Layer 3_laser
100
AcDbVertex
100
AcDb2dVertex
 10
13.22743186433546
 20
-0.7317521280535448
 30
0.0
  0
VERTEX
  5
36A
330
368
100
AcDbEntity
  8
Layer 3_laser
100
AcDbVertex
100
AcDb2dVertex
 10
11.9832467690525
 20
-1.97593722333651
 30
0.0
  0
SEQEND
  5
36B
330
368
100
AcDbEntity
  8
Layer 3_laser
  0
POLYLINE
  5
36C
330
1F
100
AcDbEntity
  8
Layer 3_laser
100
AcDb2dPolyline
 66
     1
 10
0.0
 20
0.0
 30
0.0
  0
VERTEX
  5
36D
330
36C
100
AcDbEntity
  8
Layer 3_laser
100
AcDbVertex
100
AcDb2dVertex
 10
10.14476913796747
 20
-3.814414854421528
 30
0.0
  0
VERTEX
  5
36E
330
36C
100
AcDbEntity
  8
Layer 3_laser
100
AcDbVertex
100
AcDb2dVertex
 10
8.900584042684521
 20
-5.058599949704481
 30
0.0
  0
SEQEND
  5
36F
330
36C
100
AcDbEntity
  8
Layer 3_laser
  0
POLYLINE
  5
370
330
1F
100
AcDbEntity
  8
Layer 3_laser
100
AcDb2dPolyline
 66
     1
 10
0.0
 20
0.0
 30
0.0
  0
VERTEX
  5
371
330
370
100
AcDbEntity
  8
Layer 3_laser
100
AcDbVertex
100
AcDb2dVertex
 10
8.900584042684553
 20
-5.058599949704465
 30
0.0
  0
VERTEX
  5
372
330
370
100
AcDbEntity
  8
Layer 3_laser
100
AcDbVertex
100
AcDb2dVertex
 10
7.200995595518065
 20
-5.514003301587991
 30
0.0
  0
SEQEND
  5
373
330
370
100
AcDbEntity
  8
Layer 3_laser
  0
POLYLINE
  5
374
330
1F
100
AcDbEntity
  8
Layer 3_laser
100
AcDb2dPolyline
 66
     1
 10
0.0
 20
0.0
 30
0.0
  0
VERTEX
  5
375
330
374
100
AcDbEntity
  8
Layer 3_laser
100
AcDbVertex
100
AcDb2dVertex
 10
4.689588447166488
 20
-6.186932818854544
 30
0.0
  0
VERTEX
  5
376
330
374
100
AcDbEntity
  8
Layer 3_laser
100
AcDbVertex
100
AcDb2dVertex
 10
2.990000000000014
 20
-6.642336170738069
 30
0.0
  0
SEQEND
  5
377
330
374
100
AcDbEntity
  8
Layer 3_laser
  0
POLYLINE
  5
378
330
1F
100
AcDbEntity
  8
Layer 3_laser
100
AcDb2dPolyline
 66
     1
 10
0.0
 20
0.0
 30
0.0
  0
VERTEX
  5
379
330
378
100
AcDbEntity
  8
Layer 3_laser
100
AcDbVertex
100
AcDb2dVertex
 10
2.990000000000035
 20
-6.642336170738069
 30
0.0
  0
VERTEX
  5
37A
330
378
100
AcDbEntity
  8
Layer 3_laser
100
AcDbVertex
100
AcDb2dVertex
 10
1.290411552833545
 20
-6.186932818854544
 30
0.0
  0
SEQEND
  5
37B
330
378
100
AcDbEntity
  8
Layer 3_laser
  0
POLYLINE
  5
37C
330
1F
100
AcDbEntity
  8
Layer 3_laser
100
AcDb2dPolyline
 66
     1
 10
0.0
 20
0.0
 30
0.0
  0
VERTEX
  5
37D
330
37C
100
AcDbEntity
  8
Layer 3_laser
100
AcDbVertex
100
AcDb2dVertex
 10
-1.22099559551803
 20
-5.514003301587987
 30
0.0
  0
VERTEX
  5
37E
330
37C
100
AcDbEntity
  8
Layer 3_laser
100
AcDbVertex
100
AcDb2dVertex
 10
-2.920584042684505
 20
-5.058599949704465
 30
0.0
  0
SEQEND
  5
37F
330
37C
100
AcDbEntity
  8
Layer 3_laser
  0
POLYLINE
  5
380
330
1F
100
AcDbEntity
  8
Layer 3_laser
100
AcDb2dPolyline
 66
     1
 10
0.0
 20
0.0
 30
0.0
  0
VERTEX
  5
381
330
380
100
AcDbEntity
  8
Layer 3_laser
100
AcDbVertex
100
AcDb2dVertex
 10
-2.920584042684458
 20
-5.058599949704494
 30
0.0
  0
VERTEX
  5
382
330
380
100
AcDbEntity
  8
Layer 3_laser
100
AcDbVertex
100
AcDb2dVertex
 10
-4.164769137967426
 20
-3.814414854421537
 30
0.0
  0
SEQEND
  5
383
330
380
100
AcDbEntity
  8
Layer 3_laser
  0
POLYLINE
  5
384
330
1F
100
AcDbEntity
  8
Layer 3_laser
100
AcDb2dPolyline
 66
     1
 10
0.0
 20
0.0
 30
0.0
  0
VERTEX
  5
385
330
384
100
AcDbEntity
  8
Layer 3_laser
100
AcDbVertex
100
AcDb2dVertex
 10
-6.003246769052449
 20
-1.975937223336516
 30
0.0
  0
VERTEX
  5
386
330
384
100
AcDbEntity
  8
Layer 3_laser
100
AcDbVertex
100
AcDb2dVertex
 10
-7.247431864335406
 20
-0.7317521280535679
 30
0.0
  0
SEQEND
  5
387
330
384
100
AcDbEntity
  8
Layer 3_laser
  0
POLYLINE
  5
388
330
1F
100
AcDbEntity
  8
Layer 3_laser
100
AcDb2dPolyline
 66
     1
 10
0.0
 20
0.0
 30
0.0
  0
VERTEX
  5
389
330
388
100
AcDbEntity
  8
Layer 3_laser
100
AcDbVertex
100
AcDb2dVertex
 10
-7.247431864335393
 20
-0.7317521280535981
 30
0.0
  0
VERTEX
  5
38A
330
388
100
AcDbEntity
  8
Layer 3_laser
100
AcDbVertex
100
AcDb2dVertex
 10
-7.702835216218926
 20
0.96783631911289
 30
0.0
  0
SEQEND
  5
38B
330
388
100
AcDbEntity
  8
Layer 3_laser
  0
POLYLINE
  5
38C
330
1F
100
AcDbEntity
  8
Layer 3_laser
100
AcDb2dPolyline
 66
     1
 10
0.0
 20
0.0
 30
0.0
  0
VERTEX
  5
38D
330
38C
100
AcDbEntity
  8
Layer 3_laser
100
AcDbVertex
100
AcDb2dVertex
 10
-8.375764733485482
 20
3.479243467464465
 30
0.0
  0
VERTEX
  5
38E
330
38C
100
AcDbEntity
  8
Layer 3_laser
100
AcDbVertex
100
AcDb2dVertex
 10
-8.831168085369015
 20
5.178831914630938
 30
0.0
  0
SEQEND
  5
38F
330
38C
100
AcDbEntity
  8
Layer 3_laser
  0
POLYLINE
  5
390
330
1F
100
AcDbEntity
  8
Layer 3_laser
100
AcDb2dPolyline
 66
     1
 10
0.0
 20
0.0
 30
0.0
  0
VERTEX
  5
391
330
390
100
AcDbEntity
  8
Layer 3_laser
100
AcDbVertex
100
AcDb2dVertex
 10
-8.831168085369015
 20
5.178831914630951
 30
0.0
  0
VERTEX
  5
392
330
390
100
AcDbEntity
  8
Layer 3_laser
100
AcDbVertex
100
AcDb2dVertex
 10
-8.37576473348549
 20
6.878420361797441
 30
0.0
  0
SEQEND
  5
393
330
390
100
AcDbEntity
  8
Layer 3_laser
  0
POLYLINE
  5
394
330
1F
100
AcDbEntity
  8
Layer 3_laser
100
AcDb2dPolyline
 66
     1
 10
0.0
 20
0.0
 30
0.0
  0
VERTEX
  5
395
330
394
100
AcDbEntity
  8
Layer 3_laser
100
AcDbVertex
100
AcDb2dVertex
 10
-7.702835216218933
 20
9.389827510149015
 30
0.0
  0
VERTEX
  5
396
330
394
100
AcDbEntity
  8
Layer 3_laser
100
AcDbVertex
100
AcDb2dVertex
 10
-7.247431864335411
 20
11.08941595731549
 30
0.0
  0
SEQEND
  5
397
330
394
100
AcDbEntity
  8
Layer 3_laser
  0
POLYLINE
  5
398
330
1F
100
AcDbEntity
  8
Layer 3_laser
100
AcDb2dPolyline
 66
     1
 10
0.0
 20
0.0
 30
0.0
  0
VERTEX
  5
399
330
398
100
AcDbEntity
  8
Layer 3_laser
100
AcDbVertex
100
AcDb2dVertex
 10
-7.247431864335439
 20
11.08941595731544
 30
0.0
  0
VERTEX
  5
39A
330
398
100
AcDbEntity
  8
Layer 3_laser
100
AcDbVertex
100
AcDb2dVertex
 10
-6.003246769052481
 20
12.33360105259841
 30
0.0
  0
SEQEND
  5
39B
330
398
100
AcDbEntity
  8
Layer 3_laser
  0
POLYLINE
  5
39C
330
1F
100
AcDbEntity
  8
Layer 3_laser
100
AcDb2dPolyline
 66
     1
 10
0.0
 20
0.0
 30
0.0
  0
VERTEX
  5
39D
330
39C
100
AcDbEntity
  8
Layer 3_laser
100
AcDbVertex
100
AcDb2dVertex
 10
-4.164769137967461
 20
14.17207868368343
 30
0.0
  0
VERTEX
  5
39E
330
39C
100
AcDbEntity
  8
Layer 3_laser
100
AcDbVertex
100
AcDb2dVertex
 10
-2.920584042684514
 20
15.41626377896639
 30
0.0
  0
SEQEND
  5
39F
330
39C
100
AcDbEntity
  8
Layer 3_laser
  0
POLYLINE
  5
3A0
330
1F
100
AcDbEntity
  8
Layer 3_laser
100
AcDb2dPolyline
 66
     1
 10
0.0
 20
0.0
 30
0.0
  0
VERTEX
  5
3A1
330
3A0
100
AcDbEntity
  8
Layer 3_laser
100
AcDbVertex
100
AcDb2dVertex
 10
-2.920584042684514
 20
15.41626377896639
 30
0.0
  0
VERTEX
  5
3A2
330
3A0
100
AcDbEntity
  8
Layer 3_laser
100
AcDbVertex
100
AcDb2dVertex
 10
-1.220995595518025
 20
15.87166713084992
 30
0.0
  0
SEQEND
  5
3A3
330
3A0
100
AcDbEntity
  8
Layer 3_laser
  0
POLYLINE
  5
3A4
330
1F
100
AcDbEntity
  8
Layer 3_laser
100
AcDb2dPolyline
 66
     1
 10
0.0
 20
0.0
 30
0.0
  0
VERTEX
  5
3A5
330
3A4
100
AcDbEntity
  8
Layer 3_laser
100
AcDbVertex
100
AcDb2dVertex
 10
1.290411552833551
 20
16.54459664811647
 30
0.0
  0
VERTEX
  5
3A6
330
3A4
100
AcDbEntity
  8
Layer 3_laser
100
AcDbVertex
100
AcDb2dVertex
 10
2.990000000000025
 20
17.0
 30
0.0
  0
SEQEND
  5
3A7
330
3A4
100
AcDbEntity
  8
Layer 3_laser
  0
ENDSEC
  0
SECTION
  2
OBJECTS
  0
DICTIONARY
  5
C
330
0
100
AcDbDictionary
281
     1
  3
ACAD_DETAILVIEWSTYLE
350
3E3
  3
ACAD_GROUP
350
D
  3
ACAD_LAYOUT
350
1A
  3
ACAD_MATERIAL
350
43
  3
ACAD_MLEADERSTYLE
350
5B
  3
ACAD_MLINESTYLE
350
17
  3
ACAD_PLOTSETTINGS
350
19
  3
ACAD_PLOTSTYLENAME
350
E
  3
ACAD_SCALELIST
350
47
  3
ACAD_SECTIONVIEWSTYLE
350
3E4
  3
ACAD_TABLESTYLE
350
59
  3
ACAD_VISUALSTYLE
350
2A
  3
AcDbVariableDictionary
350
3A8
  3
ACDB_RECOMPOSE_DATA
350
3E0
  0
SUN
  5
5D
330
29
100
AcDbSun
 90
        1
290
     0
 63
     7
421
 16777215
 40
1.0
291
     1
 91
  2455826
 92
 54000000
292
     0
 70
     2
 71
   256
280
     1
  0
DICTIONARY
  5
3E3
102
{ACAD_REACTORS
330
C
102
}
330
C
100
AcDbDictionary
281
     1
  0
DICTIONARY
  5
D
102
{ACAD_REACTORS
330
C
102
}
330
C
100
AcDbDictionary
281
     1
  0
DICTIONARY
  5
1A
102
{ACAD_REACTORS
330
C
102
}
330
C
100
AcDbDictionary
281
     1
  3
Layout1
350
1E
  3
Layout2
350
26
  3
Model
350
22
  0
DICTIONARY
  5
43
102
{ACAD_REACTORS
330
C
102
}
330
C
100
AcDbDictionary
281
     1
  3
ByBlock
350
45
  3
ByLayer
350
44
  3
Global
350
46
  0
DICTIONARY
  5
5B
102
{ACAD_REACTORS
330
C
102
}
330
C
100
AcDbDictionary
281
     1
  3
Standard
350
5C
  0
DICTIONARY
  5
17
102
{ACAD_REACTORS
330
C
102
}
330
C
100
AcDbDictionary
281
     1
  3
Standard
350
18
  0
DICTIONARY
  5
19
102
{ACAD_REACTORS
330
C
102
}
330
C
100
AcDbDictionary
281
     1
  0
ACDBDICTIONARYWDFLT
  5
E
102
{ACAD_REACTORS
330
C
102
}
330
C
100
AcDbDictionary
281
     1
  3
Normal
350
F
100
AcDbDictionaryWithDefault
340
F
  0
DICTIONARY
  5
47
102
{ACAD_REACTORS
330
C
102
}
330
C
100
AcDbDictionary
281
     1
  3
A0
350
48
  3
A1
350
49
  3
A2
350
4A
  3
A3
350
4B
  3
A4
350
4C
  3
A5
350
4D
  3
A6
350
4E
  3
A7
350
4F
  3
A8
350
50
  3
A9
350
51
  3
B1
350
52
  3
B2
350
53
  3
B3
350
54
  3
B4
350
55
  3
B5
350
56
  3
B6
350
57
  3
B7
350
58
  0
DICTIONARY
  5
3E4
102
{ACAD_REACTORS
330
C
102
}
330
C
100
AcDbDictionary
281
     1
  0
DICTIONARY
  5
59
102
{ACAD_REACTORS
330
C
102
}
330
C
100
AcDbDictionary
281
     1
  3
Standard
350
5A
  0
DICTIONARY
  5
2A
102
{ACAD_REACTORS
330
C
102
}
330
C
100
AcDbDictionary
281
     1
  3
2dWireframe
350
2F
  3
Basic
350
32
  3
Brighten
350
36
  3
ColorChange
350
3A
  3
Conceptual
350
34
  3
Dim
350
35
  3
EdgeColorOff
350
3D
  3
Facepattern
350
39
  3
Flat
350
2B
  3
FlatWithEdges
350
2C
  3
Gouraud
350
2D
  3
GouraudWithEdges
350
2E
  3
Hidden
350
31
  3
JitterOff
350
3B
  3
Linepattern
350
38
  3
OverhangOff
350
3C
  3
Realistic
350
33
  3
Shaded
350
42
  3
Shaded with edges
350
41
  3
Shades of Gray
350
3E
  3
Sketchy
350
3F
  3
Thicken
350
37
  3
Wireframe
350
30
  3
X-Ray
350
40
  0
DICTIONARY
  5
3A8
102
{ACAD_REACTORS
330
C
102
}
330
C
100
AcDbDictionary
281
     1
  3
CANNOSCALE
350
3A9
  3
CMLEADERSTYLE
350
3E2
  3
CTABLESTYLE
350
3E1
  3
XCLIPFRAME
350
3AA
  0
XRECORD
  5
3E0
102
{ACAD_REACTORS
330
C
102
}
330
C
100
AcDbXrecord
280
     1
 90
        1
330
5A
  0
LAYOUT
  5
1E
102
{ACAD_REACTORS
330
1A
102
}
330
1A
100
AcDbPlotSettings
  1

  2
none_device
  4

  6

 40
0.0
 41
0.0
 42
0.0
 43
0.0
 44
0.0
 45
0.0
 46
0.0
 47
0.0
 48
0.0
 49
0.0
140
0.0
141
0.0
142
1.0
143
1.0
 70
   688
 72
     0
 73
     0
 74
     5
  7

 75
    16
 76
     0
 77
     2
 78
   300
147
1.0
148
0.0
149
0.0
100
AcDbLayout
  1
Layout1
 70
     1
 71
     1
 10
0.0
 20
0.0
 11
12.0
 21
9.0
 12
0.0
 22
0.0
 32
0.0
 14
1.000000000000000E+20
 24
1.000000000000000E+20
 34
1.000000000000000E+20
 15
-1.000000000000000E+20
 25
-1.000000000000000E+20
 35
-1.000000000000000E+20
146
0.0
 13
0.0
 23
0.0
 33
0.0
 16
1.0
 26
0.0
 36
0.0
 17
0.0
 27
1.0
 37
0.0
 76
     0
330
1B
  0
LAYOUT
  5
26
102
{ACAD_REACTORS
330
1A
102
}
330
1A
100
AcDbPlotSettings
  1

  2
none_device
  4

  6

 40
0.0
 41
0.0
 42
0.0
 43
0.0
 44
0.0
 45
0.0
 46
0.0
 47
0.0
 48
0.0
 49
0.0
140
0.0
141
0.0
142
1.0
143
1.0
 70
   688
 72
     0
 73
     0
 74
     5
  7

 75
    16
 76
     0
 77
     2
 78
   300
147
1.0
148
0.0
149
0.0
100
AcDbLayout
  1
Layout2
 70
     1
 71
     2
 10
0.0
 20
0.0
 11
0.0
 21
0.0
 12
0.0
 22
0.0
 32
0.0
 14
0.0
 24
0.0
 34
0.0
 15
0.0
 25
0.0
 35
0.0
146
0.0
 13
0.0
 23
0.0
 33
0.0
 16
1.0
 26
0.0
 36
0.0
 17
0.0
 27
1.0
 37
0.0
 76
     0
330
23
  0
LAYOUT
  5
22
102
{ACAD_REACTORS
330
1A
102
}
330
1A
100
AcDbPlotSettings
  1

  2
none_device
  4
Letter_(8.50_x_11.00_Inches)
  6

 40
6.35
 41
6.35
 42
6.35000508
 43
6.35000508
 44
215.9
 45
279.4
 46
0.0
 47
0.0
 48
0.0
 49
0.0
140
0.0
141
0.0
142
1.0
143
1.0
 70
  1712
 72
     0
 73
     0
 74
     0
  7

 75
     0
 76
     0
 77
     2
 78
   300
147
1.0
148
0.0
149
0.0
100
AcDbLayout
  1
Model
 70
     1
 71
     0
 10
0.0
 20
0.0
 11
12.0
 21
9.0
 12
0.0
 22
0.0
 32
0.0
 14
-43.14236270265063
 24
-40.14236270265062
 34
0.0
 15
50.35363866136422
 25
50.35363866136422
 35
0.0
146
0.0
 13
0.0
 23
0.0
 33
0.0
 16
1.0
 26
0.0
 36
0.0
 17
0.0
 27
1.0
 37
0.0
 76
     0
330
1F
331
29
  0
MATERIAL
  5
45
102
{ACAD_REACTORS
330
43
102
}
330
43
100
AcDbMaterial
  1
ByBlock
 72
     1
 94
      127
  0
MATERIAL
  5
44
102
{ACAD_REACTORS
330
43
102
}
330
43
100
AcDbMaterial
  1
ByLayer
 72
     1
 94
      127
  0
MATERIAL
  5
46
102
{ACAD_REACTORS
330
43
102
}
330
43
100
AcDbMaterial
  1
Global
 72
     1
 94
      127
  0
MLEADERSTYLE
  5
5C
102
{ACAD_REACTORS
330
5B
102
}
102
{ACAD_XDICTIONARY
360
3DE
102
}
330
5B
100
AcDbMLeaderStyle
170
     2
171
     1
172
     0
 90
        2
 40
0.0
 41
0.0
173
     1
 91
-1056964608
340
14
 92
       -2
290
     1
 42
0.09
291
     1
 43
0.36
  3
Standard
341
0
 44
0.18
300

342
11
174
     1
178
     6
175
     1
176
     0
 93
-1056964608
 45
0.18
292
     0
297
     0
 46
0.18
343
0
 94
-1056964608
 47
1.0
 49
1.0
140
1.0
293
     1
141
0.0
294
     1
177
     0
142
1.0
295
     0
296
     0
143
0.125
1001
ACAD_MLEADERVER
1070
     2
  0
MLINESTYLE
  5
18
102
{ACAD_REACTORS
330
17
102
}
330
17
100
AcDbMlineStyle
  2
Standard
 70
     0
  3

 62
   256
 51
90.0
 52
90.0
 71
     2
 49
0.5
 62
   256
  6
BYLAYER
 49
-0.5
 62
   256
  6
BYLAYER
  0
ACDBPLACEHOLDER
  5
F
102
{ACAD_REACTORS
330
E
102
}
330
E
  0
SCALE
  5
48
102
{ACAD_REACTORS
330
47
102
}
330
47
100
AcDbScale
 70
     0
300
1:1
140
1.0
141
1.0
290
     1
  0
SCALE
  5
49
102
{ACAD_REACTORS
330
47
102
}
330
47
100
AcDbScale
 70
     0
300
1/128" = 1'-0"
140
0.0078125
141
12.0
290
     0
  0
SCALE
  5
4A
102
{ACAD_REACTORS
330
47
102
}
330
47
100
AcDbScale
 70
     0
300
1/64" = 1'-0"
140
0.015625
141
12.0
290
     0
  0
SCALE
  5
4B
102
{ACAD_REACTORS
330
47
102
}
330
47
100
AcDbScale
 70
     0
300
1/32" = 1'-0"
140
0.03125
141
12.0
290
     0
  0
SCALE
  5
4C
102
{ACAD_REACTORS
330
47
102
}
330
47
100
AcDbScale
 70
     0
300
1/16" = 1'-0"
140
0.0625
141
12.0
290
     0
  0
SCALE
  5
4D
102
{ACAD_REACTORS
330
47
102
}
330
47
100
AcDbScale
 70
     0
300
3/32" = 1'-0"
140
0.09375
141
12.0
290
     0
  0
SCALE
  5
4E
102
{ACAD_REACTORS
330
47
102
}
330
47
100
AcDbScale
 70
     0
300
1/8" = 1'-0"
140
0.125
141
12.0
290
     0
  0
SCALE
  5
4F
102
{ACAD_REACTORS
330
47
102
}
330
47
100
AcDbScale
 70
     0
300
3/16" = 1'-0"
140
0.1875
141
12.0
290
     0
  0
SCALE
  5
50
102
{ACAD_REACTORS
330
47
102
}
330
47
100
AcDbScale
 70
     0
300
1/4" = 1'-0"
140
0.25
141
12.0
290
     0
  0
SCALE
  5
51
102
{ACAD_REACTORS
330
47
102
}
330
47
100
AcDbScale
 70
     0
300
3/8" = 1'-0"
140
0.375
141
12.0
290
     0
  0
SCALE
  5
52
102
{ACAD_REACTORS
330
47
102
}
330
47
100
AcDbScale
 70
     0
300
1/2" = 1'-0"
140
0.5
141
12.0
290
     0
  0
SCALE
  5
53
102
{ACAD_REACTORS
330
47
102
}
330
47
100
AcDbScale
 70
     0
300
3/4" = 1'-0"
140
0.75
141
12.0
290
     0
  0
SCALE
  5
54
102
{ACAD_REACTORS
330
47
102
}
330
47
100
AcDbScale
 70
     0
300
1" = 1'-0"
140
1.0
141
12.0
290
     0
  0
SCALE
  5
55
102
{ACAD_REACTORS
330
47
102
}
330
47
100
AcDbScale
 70
     0
300
1-1/2" = 1'-0"
140
1.5
141
12.0
290
     0
  0
SCALE
  5
56
102
{ACAD_REACTORS
330
47
102
}
330
47
100
AcDbScale
 70
     0
300
3" = 1'-0"
140
3.0
141
12.0
290
     0
  0
SCALE
  5
57
102
{ACAD_REACTORS
330
47
102
}
330
47
100
AcDbScale
 70
     0
300
6" = 1'-0"
140
6.0
141
12.0
290
     0
  0
SCALE
  5
58
102
{ACAD_REACTORS
330
47
102
}
330
47
100
AcDbScale
 70
     0
300
1'-0" = 1'-0"
140
12.0
141
12.0
290
     0
  0
TABLESTYLE
  5
5A
102
{ACAD_REACTORS
330
59
102
}
102
{ACAD_XDICTIONARY
360
3DB
102
}
330
59
100
AcDbTableStyle
  3
Standard
 70
     0
 71
     0
 40
0.06
 41
0.06
280
     0
281
     0
  7
Standard
140
0.18
170
     2
 62
     0
 63
   257
283
     0
 90
        4
 91
        0
  1

274
    -2
284
     1
 64
     0
275
    -2
285
     1
 65
     0
276
    -2
286
     1
 66
     0
277
    -2
287
     1
 67
     0
278
    -2
288
     1
 68
     0
279
    -2
289
     1
 69
     0
  7
Standard
140
0.25
170
     5
 62
     0
 63
   257
283
     0
 90
        4
 91
        0
  1

274
    -2
284
     1
 64
     0
275
    -2
285
     1
 65
     0
276
    -2
286
     1
 66
     0
277
    -2
287
     1
 67
     0
278
    -2
288
     1
 68
     0
279
    -2
289
     1
 69
     0
  7
Standard
140
0.18
170
     5
 62
     0
 63
   257
283
     0
 90
        4
 91
        0
  1

274
    -2
284
     1
 64
     0
275
    -2
285
     1
 65
     0
276
    -2
286
     1
 66
     0
277
    -2
287
     1
 67
     0
278
    -2
288
     1
 68
     0
279
    -2
289
     1
 69
     0
  0
VISUALSTYLE
  5
2F
102
{ACAD_REACTORS
330
2A
102
}
102
{ACAD_XDICTIONARY
360
3B3
102
}
330
2A
100
AcDbVisualStyle
  2
2dWireframe
 70
     4
 71
     0
 72
     2
 73
     0
 90
        0
 40
0.6
 41
30.0
 62
     5
 63
     7
421
 16777215
 74
     1
 91
        4
 64
     7
 65
   257
 75
     1
175
     1
 42
1.0
 92
        0
 66
   257
 43
1.0
 76
     1
 77
     6
 78
     2
 67
     7
 79
     5
170
     0
171
     0
290
     0
174
     0
 93
        1
 44
0.0
173
     0
291
     0
 45
0.0
  0
VISUALSTYLE
  5
32
102
{ACAD_REACTORS
330
2A
102
}
102
{ACAD_XDICTIONARY
360
3B9
102
}
330
2A
100
AcDbVisualStyle
  2
Basic
 70
     7
 71
     1
 72
     0
 73
     1
 90
        0
 40
0.6
 41
30.0
 62
     5
 63
     7
421
 16777215
 74
     0
 91
        4
 64
     7
 65
   257
 75
     1
175
     1
 42
1.0
 92
        8
 66
     7
 43
1.0
 76
     1
 77
     6
 78
     2
 67
     7
 79
     5
170
     0
171
     0
290
     0
174
     0
 93
        1
 44
0.0
173
     0
291
     1
 45
0.0
  0
VISUALSTYLE
  5
36
102
{ACAD_REACTORS
330
2A
102
}
102
{ACAD_XDICTIONARY
360
3C1
102
}
330
2A
100
AcDbVisualStyle
  2
Brighten
 70
    12
 71
     2
 72
     2
 73
     0
 90
        0
 40
0.6
 41
30.0
 62
     5
 63
     7
421
 16777215
 74
     1
 91
        4
 64
     7
 65
   257
 75
     1
175
     1
 42
1.0
 92
        8
 66
     7
 43
1.0
 76
     1
 77
     6
 78
     2
 67
     7
 79
     5
170
     0
171
     0
290
     0
174
     0
 93
        1
 44
50.0
173
     0
291
     1
 45
0.0
  0
VISUALSTYLE
  5
3A
102
{ACAD_REACTORS
330
2A
102
}
102
{ACAD_XDICTIONARY
360
3C9
102
}
330
2A
100
AcDbVisualStyle
  2
ColorChange
 70
    16
 71
     2
 72
     2
 73
     3
 90
        0
 40
0.6
 41
30.0
 62
     5
 63
     8
421
  8421504
 74
     1
 91
        4
 64
     7
 65
   257
 75
     1
175
     1
 42
1.0
 92
        8
 66
     8
424
  8421504
 43
1.0
 76
     1
 77
     6
 78
     2
 67
     7
 79
     5
170
     0
171
     0
290
     0
174
     0
 93
        1
 44
0.0
173
     0
291
     1
 45
0.0
  0
VISUALSTYLE
  5
34
102
{ACAD_REACTORS
330
2A
102
}
102
{ACAD_XDICTIONARY
360
3BD
102
}
330
2A
100
AcDbVisualStyle
  2
Conceptual
 70
     9
 71
     3
 72
     2
 73
     0
 90
        0
 40
0.6
 41
30.0
 62
     5
 63
     7
421
 16777215
 74
     2
 91
        2
 64
     7
 65
   257
 75
     1
175
     1
 42
179.0
 92
        8
 66
     7
 43
1.0
 76
     1
 77
     6
 78
     2
 67
     7
 79
     3
170
     0
171
     0
290
     0
174
     0
 93
        1
 44
0.0
173
     0
291
     0
 45
0.0
  0
VISUALSTYLE
  5
35
102
{ACAD_REACTORS
330
2A
102
}
102
{ACAD_XDICTIONARY
360
3BF
102
}
330
2A
100
AcDbVisualStyle
  2
Dim
 70
    11
 71
     2
 72
     2
 73
     0
 90
        0
 40
0.6
 41
30.0
 62
     5
 63
     7
421
 16777215
 74
     1
 91
        4
 64
     7
 65
   257
 75
     1
175
     1
 42
1.0
 92
        8
 66
     7
 43
1.0
 76
     1
 77
     6
 78
     2
 67
     7
 79
     5
170
     0
171
     0
290
     0
174
     0
 93
        1
 44
-50.0
173
     0
291
     1
 45
0.0
  0
VISUALSTYLE
  5
3D
102
{ACAD_REACTORS
330
2A
102
}
102
{ACAD_XDICTIONARY
360
3CF
102
}
330
2A
100
AcDbVisualStyle
  2
EdgeColorOff
 70
    22
 71
     2
 72
     2
 73
     0
 90
        0
 40
0.6
 41
30.0
 62
     5
 63
     7
421
 16777215
 74
     1
 91
        4
 64
     7
 65
   257
 75
     1
175
     1
 42
1.0
 92
        8
 66
     7
 43
1.0
 76
     1
 77
     6
 78
     2
 67
     7
 79
     5
170
     0
171
     0
290
     0
174
     0
 93
        1
 44
0.0
173
     0
291
     1
 45
0.0
  0
VISUALSTYLE
  5
39
102
{ACAD_REACTORS
330
2A
102
}
102
{ACAD_XDICTIONARY
360
3C7
102
}
330
2A
100
AcDbVisualStyle
  2
Facepattern
 70
    15
 71
     2
 72
     2
 73
     0
 90
        0
 40
0.6
 41
30.0
 62
     5
 63
     7
421
 16777215
 74
     1
 91
        4
 64
     7
 65
   257
 75
     1
175
     1
 42
1.0
 92
        8
 66
     7
 43
1.0
 76
     1
 77
     6
 78
     2
 67
     7
 79
     5
170
     0
171
     0
290
     0
174
     0
 93
        1
 44
0.0
173
     0
291
     1
 45
0.0
  0
VISUALSTYLE
  5
2B
102
{ACAD_REACTORS
330
2A
102
}
102
{ACAD_XDICTIONARY
360
3AB
102
}
330
2A
100
AcDbVisualStyle
  2
Flat
 70
     0
 71
     2
 72
     1
 73
     1
 90
        2
 40
0.6
 41
30.0
 62
     5
 63
     7
421
 16777215
 74
     0
 91
        0
 64
     7
 65
   257
 75
     1
175
     1
 42
1.0
 92
        8
 66
     7
 43
1.0
 76
     1
 77
     6
 78
     2
 67
     7
 79
     5
170
     0
171
     0
290
     0
174
     0
 93
       13
 44
0.0
173
     0
291
     1
 45
0.0
  0
VISUALSTYLE
  5
2C
102
{ACAD_REACTORS
330
2A
102
}
102
{ACAD_XDICTIONARY
360
3AD
102
}
330
2A
100
AcDbVisualStyle
  2
FlatWithEdges
 70
     1
 71
     2
 72
     1
 73
     1
 90
        2
 40
0.6
 41
30.0
 62
     5
 63
     7
421
 16777215
 74
     1
 91
        0
 64
     7
 65
   257
 75
     1
175
     1
 42
1.0
 92
        0
 66
   257
 43
1.0
 76
     1
 77
     6
 78
     2
 67
     7
 79
     5
170
     0
171
     0
290
     0
174
     0
 93
       13
 44
0.0
173
     0
291
     1
 45
0.0
  0
VISUALSTYLE
  5
2D
102
{ACAD_REACTORS
330
2A
102
}
102
{ACAD_XDICTIONARY
360
3AF
102
}
330
2A
100
AcDbVisualStyle
  2
Gouraud
 70
     2
 71
     2
 72
     2
 73
     1
 90
        2
 40
0.6
 41
30.0
 62
     5
 63
     7
421
 16777215
 74
     0
 91
        0
 64
     7
 65
   257
 75
     1
175
     1
 42
1.0
 92
        0
 66
     7
 43
1.0
 76
     1
 77
     6
 78
     2
 67
     7
 79
     5
170
     0
171
     0
290
     0
174
     0
 93
       13
 44
0.0
173
     0
291
     1
 45
0.0
  0
VISUALSTYLE
  5
2E
102
{ACAD_REACTORS
330
2A
102
}
102
{ACAD_XDICTIONARY
360
3B1
102
}
330
2A
100
AcDbVisualStyle
  2
GouraudWithEdges
 70
     3
 71
     2
 72
     2
 73
     1
 90
        2
 40
0.6
 41
30.0
 62
     5
 63
     7
421
 16777215
 74
     1
 91
        0
 64
     7
 65
   257
 75
     1
175
     1
 42
1.0
 92
        0
 66
   257
 43
1.0
 76
     1
 77
     6
 78
     2
 67
     7
 79
     5
170
     0
171
     0
290
     0
174
     0
 93
       13
 44
0.0
173
     0
291
     1
 45
0.0
  0
VISUALSTYLE
  5
31
102
{ACAD_REACTORS
330
2A
102
}
102
{ACAD_XDICTIONARY
360
3B7
102
}
330
2A
100
AcDbVisualStyle
  2
Hidden
 70
     6
 71
     1
 72
     2
 73
     2
 90
        0
 40
0.6
 41
30.0
 62
     5
 63
     7
421
 16777215
 74
     2
 91
        2
 64
     7
 65
   257
 75
     2
175
     1
 42
40.0
 92
        0
 66
   257
 43
1.0
 76
     1
 77
     6
 78
     2
 67
     7
 79
     3
170
     0
171
     0
290
     0
174
     0
 93
        1
 44
0.0
173
     0
291
     0
 45
0.0
  0
VISUALSTYLE
  5
3B
102
{ACAD_REACTORS
330
2A
102
}
102
{ACAD_XDICTIONARY
360
3CB
102
}
330
2A
100
AcDbVisualStyle
  2
JitterOff
 70
    20
 71
     2
 72
     2
 73
     0
 90
        0
 40
0.6
 41
30.0
 62
     5
 63
     7
421
 16777215
 74
     1
 91
        4
 64
     7
 65
   257
 75
     1
175
     1
 42
1.0
 92
       10
 66
     7
 43
1.0
 76
     1
 77
     6
 78
     2
 67
     7
 79
     5
170
     0
171
     0
290
     0
174
     0
 93
        1
 44
0.0
173
     0
291
     1
 45
0.0
  0
VISUALSTYLE
  5
38
102
{ACAD_REACTORS
330
2A
102
}
102
{ACAD_XDICTIONARY
360
3C5
102
}
330
2A
100
AcDbVisualStyle
  2
Linepattern
 70
    14
 71
     2
 72
     2
 73
     0
 90
        0
 40
0.6
 41
30.0
 62
     5
 63
     7
421
 16777215
 74
     1
 91
        4
 64
     7
 65
   257
 75
     7
175
     7
 42
1.0
 92
        8
 66
     7
 43
1.0
 76
     1
 77
     6
 78
     2
 67
     7
 79
     5
170
     0
171
     0
290
     0
174
     0
 93
        1
 44
0.0
173
     0
291
     1
 45
0.0
  0
VISUALSTYLE
  5
3C
102
{ACAD_REACTORS
330
2A
102
}
102
{ACAD_XDICTIONARY
360
3CD
102
}
330
2A
100
AcDbVisualStyle
  2
OverhangOff
 70
    21
 71
     2
 72
     2
 73
     0
 90
        0
 40
0.6
 41
30.0
 62
     5
 63
     7
421
 16777215
 74
     1
 91
        4
 64
     7
 65
   257
 75
     1
175
     1
 42
1.0
 92
        9
 66
     7
 43
1.0
 76
     1
 77
     6
 78
     2
 67
     7
 79
     5
170
     0
171
     0
290
     0
174
     0
 93
        1
 44
0.0
173
     0
291
     1
 45
0.0
  0
VISUALSTYLE
  5
33
102
{ACAD_REACTORS
330
2A
102
}
102
{ACAD_XDICTIONARY
360
3BB
102
}
330
2A
100
AcDbVisualStyle
  2
Realistic
 70
     8
 71
     2
 72
     3
 73
     0
 90
        2
 40
0.6
 41
30.0
 62
     5
 63
     7
421
 16777215
 74
     0
 91
        0
 64
     7
 65
   257
 75
     1
175
     1
 42
1.0
 92
        8
 66
   257
 43
1.0
 76
     1
 77
     6
 78
     2
 67
     7
 79
     3
170
     0
171
     0
290
     0
174
     0
 93
       13
 44
0.0
173
     0
291
     0
 45
0.0
  0
VISUALSTYLE
  5
42
102
{ACAD_REACTORS
330
2A
102
}
102
{ACAD_XDICTIONARY
360
3D9
102
}
330
2A
100
AcDbVisualStyle
  2
Shaded
 70
    27
 71
     2
 72
     2
 73
     1
 90
        2
 40
0.6
 41
30.0
 62
     5
 63
     7
421
 16777215
 74
     0
 91
        4
 64
     7
 65
   257
 75
     1
175
     1
 42
1.0
 92
        8
 66
   257
 43
1.0
 76
     1
 77
     6
 78
     2
 67
     8
425
  7895160
 79
     3
170
     0
171
     0
290
     0
174
     0
 93
        5
 44
0.0
173
     0
291
     0
 45
0.0
  0
VISUALSTYLE
  5
41
102
{ACAD_REACTORS
330
2A
102
}
102
{ACAD_XDICTIONARY
360
3D7
102
}
330
2A
100
AcDbVisualStyle
  2
Shaded with edges
 70
    26
 71
     2
 72
     2
 73
     1
 90
        2
 40
0.6
 41
30.0
 62
     5
 63
     7
421
 16777215
 74
     1
 91
       10
 64
     7
 65
   257
 75
     2
175
     1
 42
1.0
 92
        8
 66
   257
 43
1.0
 76
     1
 77
     6
 78
     2
 67
     7
 79
     3
170
     0
171
     0
290
     0
174
     0
 93
        5
 44
0.0
173
     0
291
     0
 45
0.0
  0
VISUALSTYLE
  5
3E
102
{ACAD_REACTORS
330
2A
102
}
102
{ACAD_XDICTIONARY
360
3D1
102
}
330
2A
100
AcDbVisualStyle
  2
Shades of Gray
 70
    23
 71
     2
 72
     2
 73
     3
 90
        0
 40
0.6
 41
30.0
 62
     5
 63
     7
421
 16777215
 74
     2
 91
        2
 64
     7
 65
     7
 75
     1
175
     1
 42
40.0
 92
        8
 66
     7
 43
1.0
 76
     1
 77
     6
 78
     2
 67
     7
 79
     3
170
     0
171
     0
290
     0
174
     0
 93
        1
 44
0.0
173
     0
291
     0
 45
0.0
  0
VISUALSTYLE
  5
3F
102
{ACAD_REACTORS
330
2A
102
}
102
{ACAD_XDICTIONARY
360
3D3
102
}
330
2A
100
AcDbVisualStyle
  2
Sketchy
 70
    24
 71
     1
 72
     2
 73
     2
 90
        0
 40
0.6
 41
30.0
 62
     5
 63
     7
421
 16777215
 74
     2
 91
        2
 64
     7
 65
     7
 75
     1
175
     1
 42
40.0
 92
       11
 66
     7
 43
1.0
 76
     1
 77
     6
 78
     2
 67
     7
 79
     6
170
     0
171
     0
290
     0
174
     0
 93
        1
 44
0.0
173
     0
291
     0
 45
0.0
  0
VISUALSTYLE
  5
37
102
{ACAD_REACTORS
330
2A
102
}
102
{ACAD_XDICTIONARY
360
3C3
102
}
330
2A
100
AcDbVisualStyle
  2
Thicken
 70
    13
 71
     2
 72
     2
 73
     0
 90
        0
 40
0.6
 41
30.0
 62
     5
 63
     7
421
 16777215
 74
     1
 91
        4
 64
     7
 65
   257
 75
     1
175
     1
 42
1.0
 92
       12
 66
     7
 43
1.0
 76
     1
 77
     6
 78
     2
 67
     7
 79
     5
170
     0
171
     0
290
     0
174
     0
 93
        1
 44
0.0
173
     0
291
     1
 45
0.0
  0
VISUALSTYLE
  5
30
102
{ACAD_REACTORS
330
2A
102
}
102
{ACAD_XDICTIONARY
360
3B5
102
}
330
2A
100
AcDbVisualStyle
  2
Wireframe
 70
     5
 71
     0
 72
     2
 73
     0
 90
        0
 40
0.6
 41
30.0
 62
     5
 63
     7
421
 16777215
 74
     1
 91
        4
 64
     7
 65
   257
 75
     1
175
     1
 42
1.0
 92
        0
 66
   257
 43
1.0
 76
     1
 77
     6
 78
     2
 67
     7
 79
     3
170
     0
171
     0
290
     0
174
     0
 93
        1
 44
0.0
173
     0
291
     0
 45
0.0
  0
VISUALSTYLE
  5
40
102
{ACAD_REACTORS
330
2A
102
}
102
{ACAD_XDICTIONARY
360
3D5
102
}
330
2A
100
AcDbVisualStyle
  2
X-Ray
 70
    25
 71
     2
 72
     2
 73
     1
 90
        1
 40
0.5
 41
30.0
 62
     5
 63
     7
421
 16777215
 74
     1
 91
        0
 64
     7
 65
   257
 75
     1
175
     1
 42
1.0
 92
        8
 66
     7
 43
1.0
 76
     1
 77
     6
 78
     2
 67
     7
 79
     3
170
     0
171
     0
290
     0
174
     0
 93
       13
 44
0.0
173
     0
291
     0
 45
0.0
  0
DICTIONARYVAR
  5
3A9
102
{ACAD_REACTORS
330
3A8
102
}
330
3A8
100
DictionaryVariables
280
     0
  1
1:1
  0
DICTIONARYVAR
  5
3E2
102
{ACAD_REACTORS
330
3A8
102
}
330
3A8
100
DictionaryVariables
280
     0
  1
Standard
  0
DICTIONARYVAR
  5
3E1
102
{ACAD_REACTORS
330
3A8
102
}
330
3A8
100
DictionaryVariables
280
     0
  1
Standard
  0
DICTIONARYVAR
  5
3AA
102
{ACAD_REACTORS
330
3A8
102
}
330
3A8
100
DictionaryVariables
280
     0
  1
2
  0
DICTIONARY
  5
3DE
330
5C
100
AcDbDictionary
280
     1
281
     1
  3
ACAD_XREC_ROUNDTRIP
360
3DF
  0
DICTIONARY
  5
3DB
330
5A
100
AcDbDictionary
280
     1
281
     1
  3
ACAD_ROUNDTRIP_2008_TABLESTYLE_CELLSTYLEMAP
360
3DC
  0
DICTIONARY
  5
3B3
330
2F
100
AcDbDictionary
280
     1
281
     1
  3
ACAD_XREC_ROUNDTRIP
360
3B4
  0
DICTIONARY
  5
3B9
330
32
100
AcDbDictionary
280
     1
281
     1
  3
ACAD_XREC_ROUNDTRIP
360
3BA
  0
DICTIONARY
  5
3C1
330
36
100
AcDbDictionary
280
     1
281
     1
  3
ACAD_XREC_ROUNDTRIP
360
3C2
  0
DICTIONARY
  5
3C9
330
3A
100
AcDbDictionary
280
     1
281
     1
  3
ACAD_XREC_ROUNDTRIP
360
3CA
  0
DICTIONARY
  5
3BD
330
34
100
AcDbDictionary
280
     1
281
     1
  3
ACAD_XREC_ROUNDTRIP
360
3BE
  0
DICTIONARY
  5
3BF
330
35
100
AcDbDictionary
280
     1
281
     1
  3
ACAD_XREC_ROUNDTRIP
360
3C0
  0
DICTIONARY
  5
3CF
330
3D
100
AcDbDictionary
280
     1
281
     1
  3
ACAD_XREC_ROUNDTRIP
360
3D0
  0
DICTIONARY
  5
3C7
330
39
100
AcDbDictionary
280
     1
281
     1
  3
ACAD_XREC_ROUNDTRIP
360
3C8
  0
DICTIONARY
  5
3AB
330
2B
100
AcDbDictionary
280
     1
281
     1
  3
ACAD_XREC_ROUNDTRIP
360
3AC
  0
DICTIONARY
  5
3AD
330
2C
100
AcDbDictionary
280
     1
281
     1
  3
ACAD_XREC_ROUNDTRIP
360
3AE
  0
DICTIONARY
  5
3AF
330
2D
100
AcDbDictionary
280
     1
281
     1
  3
ACAD_XREC_ROUNDTRIP
360
3B0
  0
DICTIONARY
  5
3B1
330
2E
100
AcDbDictionary
280
     1
281
     1
  3
ACAD_XREC_ROUNDTRIP
360
3B2
  0
DICTIONARY
  5
3B7
330
31
100
AcDbDictionary
280
     1
281
     1
  3
ACAD_XREC_ROUNDTRIP
360
3B8
  0
DICTIONARY
  5
3CB
330
3B
100
AcDbDictionary
280
     1
281
     1
  3
ACAD_XREC_ROUNDTRIP
360
3CC
  0
DICTIONARY
  5
3C5
330
38
100
AcDbDictionary
280
     1
281
     1
  3
ACAD_XREC_ROUNDTRIP
360
3C6
  0
DICTIONARY
  5
3CD
330
3C
100
AcDbDictionary
280
     1
281
     1
  3
ACAD_XREC_ROUNDTRIP
360
3CE
  0
DICTIONARY
  5
3BB
330
33
100
AcDbDictionary
280
     1
281
     1
  3
ACAD_XREC_ROUNDTRIP
360
3BC
  0
DICTIONARY
  5
3D9
330
42
100
AcDbDictionary
280
     1
281
     1
  3
ACAD_XREC_ROUNDTRIP
360
3DA
  0
DICTIONARY
  5
3D7
330
41
100
AcDbDictionary
280
     1
281
     1
  3
ACAD_XREC_ROUNDTRIP
360
3D8
  0
DICTIONARY
  5
3D1
330
3E
100
AcDbDictionary
280
     1
281
     1
  3
ACAD_XREC_ROUNDTRIP
360
3D2
  0
DICTIONARY
  5
3D3
330
3F
100
AcDbDictionary
280
     1
281
     1
  3
ACAD_XREC_ROUNDTRIP
360
3D4
  0
DICTIONARY
  5
3C3
330
37
100
AcDbDictionary
280
     1
281
     1
  3
ACAD_XREC_ROUNDTRIP
360
3C4
  0
DICTIONARY
  5
3B5
330
30
100
AcDbDictionary
280
     1
281
     1
  3
ACAD_XREC_ROUNDTRIP
360
3B6
  0
DICTIONARY
  5
3D5
330
40
100
AcDbDictionary
280
     1
281
     1
  3
ACAD_XREC_ROUNDTRIP
360
3D6
  0
XRECORD
  5
3DF
102
{ACAD_REACTORS
330
3DE
102
}
330
3DE
100
AcDbXrecord
280
     1
102
ACAD_ROUNDTRIP_2010_MLEADER_STYLE
  0
CELLSTYLEMAP
  5
3DC
102
{ACAD_REACTORS
330
3DB
102
}
330
3DB
100
AcDbCellStyleMap
 90
        3
300
CELLSTYLE
  1
TABLEFORMAT_BEGIN
 90
        5
170
     1
 91
        0
 92
    32768
 62
   257
 93
        1
300
CONTENTFORMAT
  1
CONTENTFORMAT_BEGIN
 90
        0
 91
        0
 92
        4
 93
        0
300

 40
0.0
140
1.0
 94
        5
 62
     0
340
11
144
0.25
309
CONTENTFORMAT_END
171
     1
301
MARGIN
  1
CELLMARGIN_BEGIN
 40
0.06
 40
0.06
 40
0.06
 40
0.06
 40
0.06
 40
0.06
309
CELLMARGIN_END
 94
        6
 95
        1
302
GRIDFORMAT
  1
GRIDFORMAT_BEGIN
 90
        0
 91
        1
 62
     0
 92
       -2
340
14
 93
        0
 40
0.045
309
GRIDFORMAT_END
 95
        2
302
GRIDFORMAT
  1
GRIDFORMAT_BEGIN
 90
        0
 91
        1
 62
     0
 92
       -2
340
14
 93
        0
 40
0.045
309
GRIDFORMAT_END
 95
        4
302
GRIDFORMAT
  1
GRIDFORMAT_BEGIN
 90
        0
 91
        1
 62
     0
 92
       -2
340
14
 93
        0
 40
0.045
309
GRIDFORMAT_END
 95
        8
302
GRIDFORMAT
  1
GRIDFORMAT_BEGIN
 90
        0
 91
        1
 62
     0
 92
       -2
340
14
 93
        0
 40
0.045
309
GRIDFORMAT_END
 95
       16
302
GRIDFORMAT
  1
GRIDFORMAT_BEGIN
 90
        0
 91
        1
 62
     0
 92
       -2
340
14
 93
        0
 40
0.045
309
GRIDFORMAT_END
 95
       32
302
GRIDFORMAT
  1
GRIDFORMAT_BEGIN
 90
        0
 91
        1
 62
     0
 92
       -2
340
14
 93
        0
 40
0.045
309
GRIDFORMAT_END
309
TABLEFORMAT_END
  1
CELLSTYLE_BEGIN
 90
        1
 91
        1
300
_TITLE
309
CELLSTYLE_END
300
CELLSTYLE
  1
TABLEFORMAT_BEGIN
 90
        5
170
     1
 91
        0
 92
        0
 62
   257
 93
        1
300
CONTENTFORMAT
  1
CONTENTFORMAT_BEGIN
 90
        0
 91
        0
 92
        4
 93
        0
300

 40
0.0
140
1.0
 94
        5
 62
     0
340
11
144
0.18
309
CONTENTFORMAT_END
171
     1
301
MARGIN
  1
CELLMARGIN_BEGIN
 40
0.06
 40
0.06
 40
0.06
 40
0.06
 40
0.06
 40
0.06
309
CELLMARGIN_END
 94
        6
 95
        1
302
GRIDFORMAT
  1
GRIDFORMAT_BEGIN
 90
        0
 91
        1
 62
     0
 92
       -2
340
14
 93
        0
 40
0.045
309
GRIDFORMAT_END
 95
        2
302
GRIDFORMAT
  1
GRIDFORMAT_BEGIN
 90
        0
 91
        1
 62
     0
 92
       -2
340
14
 93
        0
 40
0.045
309
GRIDFORMAT_END
 95
        4
302
GRIDFORMAT
  1
GRIDFORMAT_BEGIN
 90
        0
 91
        1
 62
     0
 92
       -2
340
14
 93
        0
 40
0.045
309
GRIDFORMAT_END
 95
        8
302
GRIDFORMAT
  1
GRIDFORMAT_BEGIN
 90
        0
 91
        1
 62
     0
 92
       -2
340
14
 93
        0
 40
0.045
309
GRIDFORMAT_END
 95
       16
302
GRIDFORMAT
  1
GRIDFORMAT_BEGIN
 90
        0
 91
        1
 62
     0
 92
       -2
340
14
 93
        0
 40
0.045
309
GRIDFORMAT_END
 95
       32
302
GRIDFORMAT
  1
GRIDFORMAT_BEGIN
 90
        0
 91
        1
 62
     0
 92
       -2
340
14
 93
        0
 40
0.045
309
GRIDFORMAT_END
309
TABLEFORMAT_END
  1
CELLSTYLE_BEGIN
 90
        2
 91
        1
300
_HEADER
309
CELLSTYLE_END
300
CELLSTYLE
  1
TABLEFORMAT_BEGIN
 90
        5
170
     1
 91
        0
 92
        0
 62
   257
 93
        1
300
CONTENTFORMAT
  1
CONTENTFORMAT_BEGIN
 90
        0
 91
        0
 92
        4
 93
        0
300

 40
0.0
140
1.0
 94
        2
 62
     0
340
11
144
0.18
309
CONTENTFORMAT_END
171
     1
301
MARGIN
  1
CELLMARGIN_BEGIN
 40
0.06
 40
0.06
 40
0.06
 40
0.06
 40
0.06
 40
0.06
309
CELLMARGIN_END
 94
        6
 95
        1
302
GRIDFORMAT
  1
GRIDFORMAT_BEGIN
 90
        0
 91
        1
 62
     0
 92
       -2
340
14
 93
        0
 40
0.045
309
GRIDFORMAT_END
 95
        2
302
GRIDFORMAT
  1
GRIDFORMAT_BEGIN
 90
        0
 91
        1
 62
     0
 92
       -2
340
14
 93
        0
 40
0.045
309
GRIDFORMAT_END
 95
        4
302
GRIDFORMAT
  1
GRIDFORMAT_BEGIN
 90
        0
 91
        1
 62
     0
 92
       -2
340
14
 93
        0
 40
0.045
309
GRIDFORMAT_END
 95
        8
302
GRIDFORMAT
  1
GRIDFORMAT_BEGIN
 90
        0
 91
        1
 62
     0
 92
       -2
340
14
 93
        0
 40
0.045
309
GRIDFORMAT_END
 95
       16
302
GRIDFORMAT
  1
GRIDFORMAT_BEGIN
 90
        0
 91
        1
 62
     0
 92
       -2
340
14
 93
        0
 40
0.045
309
GRIDFORMAT_END
 95
       32
302
GRIDFORMAT
  1
GRIDFORMAT_BEGIN
 90
        0
 91
        1
 62
     0
 92
       -2
340
14
 93
        0
 40
0.045
309
GRIDFORMAT_END
309
TABLEFORMAT_END
  1
CELLSTYLE_BEGIN
 90
        3
 91
        2
300
_DATA
309
CELLSTYLE_END
  0
XRECORD
  5
3B4
102
{ACAD_REACTORS
330
3B3
102
}
330
3B3
100
AcDbXrecord
280
     1
102
RTVSPropertyOp0
 70
     1
102
RTVSPropertyOp1
 70
     1
102
RTVSPropertyOp2
 70
     1
102
RTVSPropertyOp3
 70
     1
102
RTVSPropertyOp4
 70
     1
102
RTVSPropertyOp5
 70
     1
102
RTVSPropertyOp6
 70
     1
102
RTVSPropertyOp7
 70
     1
102
RTVSPropertyOp8
 70
     1
102
RTVSPropertyOp9
 70
     1
102
RTVSPropertyOp10
 70
     1
102
RTVSPropertyOp11
 70
     1
102
RTVSPropertyOp12
 70
     1
102
RTVSPropertyOp13
 70
     1
102
RTVSPropertyOp14
 70
     1
102
RTVSPropertyOp15
 70
     1
102
RTVSPropertyOp16
 70
     1
102
RTVSPropertyOp17
 70
     1
102
RTVSPropertyOp18
 70
     1
102
RTVSPropertyOp19
 70
     1
102
RTVSPropertyOp20
 70
     1
102
RTVSPropertyOp21
 70
     1
102
RTVSPropertyOp22
 70
     1
102
RTVSPropertyOp23
 70
     1
102
RTVSPropertyOp24
 70
     1
102
RTVSPropertyOp25
 70
     1
102
RTVSPropertyOp26
 70
     1
102
RTVSPropertyOp27
 70
     1
102
RTVSPropertyOp28
 70
     1
102
RTVSPropertyOp29
 70
     1
102
RTVSPropertyOp30
 70
     1
102
RTVSPropertyOp31
 70
     1
102
RTVSPropertyOp32
 70
     1
102
RTVSPropertyOp33
 70
     1
102
RTVSPropertyOp34
 70
     1
102
RTVSPropertyOp35
 70
     1
102
RTVSPropertyOp36
 70
     1
102
RTVSPropertyOp37
 70
     1
102
RTVSPropertyOp38
 70
     1
102
RTVSPropertyOp39
 70
     1
102
RTVSPropertyOp40
 70
     1
102
RTVSPropertyOp41
 70
     1
102
RTVSPropertyOp42
 70
     1
102
RTVSPropertyOp43
 70
     1
102
RTVSPropertyOp44
 70
     1
102
RTVSPropertyOp45
 70
     1
102
RTVSPropertyOp46
 70
     1
102
RTVSPropertyOp47
 70
     1
102
RTVSPropertyOp48
 70
     1
102
RTVSPropertyOp49
 70
     1
102
RTVSPropertyOp50
 70
     1
102
RTVSPropertyOp51
 70
     0
102
RTVSPropertyOp52
 70
     0
102
RTVSPropertyOp53
 70
     1
102
RTVSPropertyOp54
 70
     1
102
RTVSPropertyOp55
 70
     1
102
RTVSPropertyOp56
 70
     1
102
RTVSPropertyOp57
 70
     1
102
RTVSPost2010Prop28
280
     1
102
RTVSPost2010PropOp28
 70
     1
102
RTVSPost2010Prop29
280
     1
102
RTVSPost2010PropOp29
 70
     1
102
RTVSPost2010Prop30
280
     0
102
RTVSPost2010PropOp30
 70
     1
102
RTVSPost2010Prop31
280
     0
102
RTVSPost2010PropOp31
 70
     1
102
RTVSPost2010Prop32
280
     0
102
RTVSPost2010PropOp32
 70
     1
102
RTVSPost2010Prop33
280
     0
102
RTVSPost2010PropOp33
 70
     1
102
RTVSPost2010Prop34
280
     0
102
RTVSPost2010PropOp34
 70
     1
102
RTVSPost2010Prop35
280
     0
102
RTVSPost2010PropOp35
 70
     1
102
RTVSPost2010Prop36
280
     0
102
RTVSPost2010PropOp36
 70
     1
102
RTVSPost2010Prop37
 90
       50
102
RTVSPost2010PropOp37
 70
     1
102
RTVSPost2010Prop38
140
0.0
102
RTVSPost2010PropOp38
 70
     1
102
RTVSPost2010Prop39
140
1.0
102
RTVSPost2010PropOp39
 70
     1
102
RTVSPost2010Prop40
 90
        0
102
RTVSPost2010PropOp40
 70
     1
102
RTVSPost2010Prop41ColorIndex
 90
       18
102
RTVSPost2010Prop41ColorRGB
 90
        0
102
RTVSPost2010PropOp41
 70
     1
102
RTVSPost2010Prop42
 90
       50
102
RTVSPost2010PropOp42
 70
     1
102
RTVSPost2010Prop43
 90
        3
102
RTVSPost2010PropOp43
 70
     1
102
RTVSPost2010Prop44ColorIndex
 90
        5
102
RTVSPost2010Prop44ColorRGB
 90
      255
102
RTVSPost2010PropOp44
 70
     1
102
RTVSPost2010Prop45
280
     0
102
RTVSPost2010PropOp45
 70
     1
102
RTVSPost2010Prop46
 90
       50
102
RTVSPost2010PropOp46
 70
     1
102
RTVSPost2010Prop47
 90
       50
102
RTVSPost2010PropOp47
 70
     1
102
RTVSPost2010Prop48
 90
       50
102
RTVSPost2010PropOp48
 70
     1
102
RTVSPost2010Prop49
280
     0
102
RTVSPost2010PropOp49
 70
     1
102
RTVSPost2010Prop50
 90
       50
102
RTVSPost2010PropOp50
 70
     1
102
RTVSPost2010Prop51ColorIndex
 90
      256
102
RTVSPost2010Prop51ColorRGB
 90
-16777216
102
RTVSPost2010PropOp51
 70
     0
102
RTVSPost2010Prop52
140
1.0
102
RTVSPost2010PropOp52
 70
     0
102
RTVSPost2010Prop53
 90
        2
102
RTVSPost2010PropOp53
 70
     1
102
RTVSPost2010Prop54
  1
strokes_ogs.tif
102
RTVSPost2010PropOp54
 70
     1
102
RTVSPost2010Prop55
280
     0
102
RTVSPost2010PropOp55
 70
     1
102
RTVSPost2010Prop56
140
1.0
102
RTVSPost2010PropOp56
 70
     1
102
RTVSPost2010Prop57
140
1.0
102
RTVSPost2010PropOp57
 70
     1
  0
XRECORD
  5
3BA
102
{ACAD_REACTORS
330
3B9
102
}
330
3B9
100
AcDbXrecord
280
     1
102
RTVSPropertyOp0
 70
     1
102
RTVSPropertyOp1
 70
     1
102
RTVSPropertyOp2
 70
     1
102
RTVSPropertyOp3
 70
     1
102
RTVSPropertyOp4
 70
     1
102
RTVSPropertyOp5
 70
     1
102
RTVSPropertyOp6
 70
     1
102
RTVSPropertyOp7
 70
     1
102
RTVSPropertyOp8
 70
     1
102
RTVSPropertyOp9
 70
     1
102
RTVSPropertyOp10
 70
     1
102
RTVSPropertyOp11
 70
     1
102
RTVSPropertyOp12
 70
     1
102
RTVSPropertyOp13
 70
     1
102
RTVSPropertyOp14
 70
     1
102
RTVSPropertyOp15
 70
     1
102
RTVSPropertyOp16
 70
     1
102
RTVSPropertyOp17
 70
     1
102
RTVSPropertyOp18
 70
     1
102
RTVSPropertyOp19
 70
     1
102
RTVSPropertyOp20
 70
     1
102
RTVSPropertyOp21
 70
     1
102
RTVSPropertyOp22
 70
     1
102
RTVSPropertyOp23
 70
     1
102
RTVSPropertyOp24
 70
     1
102
RTVSPropertyOp25
 70
     1
102
RTVSPropertyOp26
 70
     1
102
RTVSPropertyOp27
 70
     1
102
RTVSPropertyOp28
 70
     1
102
RTVSPropertyOp29
 70
     1
102
RTVSPropertyOp30
 70
     1
102
RTVSPropertyOp31
 70
     1
102
RTVSPropertyOp32
 70
     1
102
RTVSPropertyOp33
 70
     1
102
RTVSPropertyOp34
 70
     1
102
RTVSPropertyOp35
 70
     1
102
RTVSPropertyOp36
 70
     1
102
RTVSPropertyOp37
 70
     1
102
RTVSPropertyOp38
 70
     1
102
RTVSPropertyOp39
 70
     1
102
RTVSPropertyOp40
 70
     1
102
RTVSPropertyOp41
 70
     1
102
RTVSPropertyOp42
 70
     1
102
RTVSPropertyOp43
 70
     1
102
RTVSPropertyOp44
 70
     1
102
RTVSPropertyOp45
 70
     1
102
RTVSPropertyOp46
 70
     1
102
RTVSPropertyOp47
 70
     1
102
RTVSPropertyOp48
 70
     1
102
RTVSPropertyOp49
 70
     1
102
RTVSPropertyOp50
 70
     1
102
RTVSPropertyOp51
 70
     0
102
RTVSPropertyOp52
 70
     0
102
RTVSPropertyOp53
 70
     1
102
RTVSPropertyOp54
 70
     1
102
RTVSPropertyOp55
 70
     1
102
RTVSPropertyOp56
 70
     1
102
RTVSPropertyOp57
 70
     1
102
RTVSPost2010Prop28
280
     0
102
RTVSPost2010PropOp28
 70
     1
102
RTVSPost2010Prop29
280
     1
102
RTVSPost2010PropOp29
 70
     1
102
RTVSPost2010Prop30
280
     1
102
RTVSPost2010PropOp30
 70
     1
102
RTVSPost2010Prop31
280
     0
102
RTVSPost2010PropOp31
 70
     1
102
RTVSPost2010Prop32
280
     0
102
RTVSPost2010PropOp32
 70
     1
102
RTVSPost2010Prop33
280
     0
102
RTVSPost2010PropOp33
 70
     1
102
RTVSPost2010Prop34
280
     0
102
RTVSPost2010PropOp34
 70
     1
102
RTVSPost2010Prop35
280
     0
102
RTVSPost2010PropOp35
 70
     1
102
RTVSPost2010Prop36
280
     0
102
RTVSPost2010PropOp36
 70
     1
102
RTVSPost2010Prop37
 90
       50
102
RTVSPost2010PropOp37
 70
     1
102
RTVSPost2010Prop38
140
0.0
102
RTVSPost2010PropOp38
 70
     1
102
RTVSPost2010Prop39
140
1.0
102
RTVSPost2010PropOp39
 70
     1
102
RTVSPost2010Prop40
 90
        0
102
RTVSPost2010PropOp40
 70
     1
102
RTVSPost2010Prop41ColorIndex
 90
       18
102
RTVSPost2010Prop41ColorRGB
 90
        0
102
RTVSPost2010PropOp41
 70
     1
102
RTVSPost2010Prop42
 90
       50
102
RTVSPost2010PropOp42
 70
     1
102
RTVSPost2010Prop43
 90
        3
102
RTVSPost2010PropOp43
 70
     1
102
RTVSPost2010Prop44ColorIndex
 90
        5
102
RTVSPost2010Prop44ColorRGB
 90
      255
102
RTVSPost2010PropOp44
 70
     1
102
RTVSPost2010Prop45
280
     0
102
RTVSPost2010PropOp45
 70
     1
102
RTVSPost2010Prop46
 90
       50
102
RTVSPost2010PropOp46
 70
     1
102
RTVSPost2010Prop47
 90
       50
102
RTVSPost2010PropOp47
 70
     1
102
RTVSPost2010Prop48
 90
       50
102
RTVSPost2010PropOp48
 70
     1
102
RTVSPost2010Prop49
280
     0
102
RTVSPost2010PropOp49
 70
     1
102
RTVSPost2010Prop50
 90
       50
102
RTVSPost2010PropOp50
 70
     1
102
RTVSPost2010Prop51ColorIndex
 90
      256
102
RTVSPost2010Prop51ColorRGB
 90
-16777216
102
RTVSPost2010PropOp51
 70
     0
102
RTVSPost2010Prop52
140
1.0
102
RTVSPost2010PropOp52
 70
     0
102
RTVSPost2010Prop53
 90
        2
102
RTVSPost2010PropOp53
 70
     1
102
RTVSPost2010Prop54
  1
strokes_ogs.tif
102
RTVSPost2010PropOp54
 70
     1
102
RTVSPost2010Prop55
280
     0
102
RTVSPost2010PropOp55
 70
     1
102
RTVSPost2010Prop56
140
1.0
102
RTVSPost2010PropOp56
 70
     1
102
RTVSPost2010Prop57
140
1.0
102
RTVSPost2010PropOp57
 70
     1
  0
XRECORD
  5
3C2
102
{ACAD_REACTORS
330
3C1
102
}
330
3C1
100
AcDbXrecord
280
     1
102
RTVSPropertyOp0
 70
     1
102
RTVSPropertyOp1
 70
     1
102
RTVSPropertyOp2
 70
     1
102
RTVSPropertyOp3
 70
     1
102
RTVSPropertyOp4
 70
     1
102
RTVSPropertyOp5
 70
     1
102
RTVSPropertyOp6
 70
     1
102
RTVSPropertyOp7
 70
     1
102
RTVSPropertyOp8
 70
     1
102
RTVSPropertyOp9
 70
     1
102
RTVSPropertyOp10
 70
     1
102
RTVSPropertyOp11
 70
     1
102
RTVSPropertyOp12
 70
     1
102
RTVSPropertyOp13
 70
     1
102
RTVSPropertyOp14
 70
     1
102
RTVSPropertyOp15
 70
     1
102
RTVSPropertyOp16
 70
     1
102
RTVSPropertyOp17
 70
     1
102
RTVSPropertyOp18
 70
     1
102
RTVSPropertyOp19
 70
     1
102
RTVSPropertyOp20
 70
     1
102
RTVSPropertyOp21
 70
     1
102
RTVSPropertyOp22
 70
     1
102
RTVSPropertyOp23
 70
     1
102
RTVSPropertyOp24
 70
     1
102
RTVSPropertyOp25
 70
     1
102
RTVSPropertyOp26
 70
     1
102
RTVSPropertyOp27
 70
     1
102
RTVSPropertyOp28
 70
     1
102
RTVSPropertyOp29
 70
     1
102
RTVSPropertyOp30
 70
     1
102
RTVSPropertyOp31
 70
     1
102
RTVSPropertyOp32
 70
     1
102
RTVSPropertyOp33
 70
     1
102
RTVSPropertyOp34
 70
     1
102
RTVSPropertyOp35
 70
     1
102
RTVSPropertyOp36
 70
     1
102
RTVSPropertyOp37
 70
     1
102
RTVSPropertyOp38
 70
     1
102
RTVSPropertyOp39
 70
     1
102
RTVSPropertyOp40
 70
     1
102
RTVSPropertyOp41
 70
     1
102
RTVSPropertyOp42
 70
     1
102
RTVSPropertyOp43
 70
     1
102
RTVSPropertyOp44
 70
     1
102
RTVSPropertyOp45
 70
     1
102
RTVSPropertyOp46
 70
     1
102
RTVSPropertyOp47
 70
     1
102
RTVSPropertyOp48
 70
     1
102
RTVSPropertyOp49
 70
     1
102
RTVSPropertyOp50
 70
     1
102
RTVSPropertyOp51
 70
     0
102
RTVSPropertyOp52
 70
     0
102
RTVSPropertyOp53
 70
     1
102
RTVSPropertyOp54
 70
     1
102
RTVSPropertyOp55
 70
     1
102
RTVSPropertyOp56
 70
     1
102
RTVSPropertyOp57
 70
     1
102
RTVSPost2010Prop28
280
     0
102
RTVSPost2010PropOp28
 70
     1
102
RTVSPost2010Prop29
280
     1
102
RTVSPost2010PropOp29
 70
     1
102
RTVSPost2010Prop30
280
     1
102
RTVSPost2010PropOp30
 70
     1
102
RTVSPost2010Prop31
280
     0
102
RTVSPost2010PropOp31
 70
     1
102
RTVSPost2010Prop32
280
     0
102
RTVSPost2010PropOp32
 70
     1
102
RTVSPost2010Prop33
280
     0
102
RTVSPost2010PropOp33
 70
     1
102
RTVSPost2010Prop34
280
     0
102
RTVSPost2010PropOp34
 70
     1
102
RTVSPost2010Prop35
280
     0
102
RTVSPost2010PropOp35
 70
     1
102
RTVSPost2010Prop36
280
     0
102
RTVSPost2010PropOp36
 70
     1
102
RTVSPost2010Prop37
 90
       50
102
RTVSPost2010PropOp37
 70
     1
102
RTVSPost2010Prop38
140
0.0
102
RTVSPost2010PropOp38
 70
     1
102
RTVSPost2010Prop39
140
1.0
102
RTVSPost2010PropOp39
 70
     1
102
RTVSPost2010Prop40
 90
        0
102
RTVSPost2010PropOp40
 70
     1
102
RTVSPost2010Prop41ColorIndex
 90
       18
102
RTVSPost2010Prop41ColorRGB
 90
        0
102
RTVSPost2010PropOp41
 70
     1
102
RTVSPost2010Prop42
 90
       50
102
RTVSPost2010PropOp42
 70
     1
102
RTVSPost2010Prop43
 90
        3
102
RTVSPost2010PropOp43
 70
     1
102
RTVSPost2010Prop44ColorIndex
 90
        5
102
RTVSPost2010Prop44ColorRGB
 90
      255
102
RTVSPost2010PropOp44
 70
     1
102
RTVSPost2010Prop45
280
     0
102
RTVSPost2010PropOp45
 70
     1
102
RTVSPost2010Prop46
 90
       50
102
RTVSPost2010PropOp46
 70
     1
102
RTVSPost2010Prop47
 90
       50
102
RTVSPost2010PropOp47
 70
     1
102
RTVSPost2010Prop48
 90
       50
102
RTVSPost2010PropOp48
 70
     1
102
RTVSPost2010Prop49
280
     0
102
RTVSPost2010PropOp49
 70
     1
102
RTVSPost2010Prop50
 90
       50
102
RTVSPost2010PropOp50
 70
     1
102
RTVSPost2010Prop51ColorIndex
 90
      256
102
RTVSPost2010Prop51ColorRGB
 90
-16777216
102
RTVSPost2010PropOp51
 70
     0
102
RTVSPost2010Prop52
140
1.0
102
RTVSPost2010PropOp52
 70
     0
102
RTVSPost2010Prop53
 90
        2
102
RTVSPost2010PropOp53
 70
     1
102
RTVSPost2010Prop54
  1
strokes_ogs.tif
102
RTVSPost2010PropOp54
 70
     1
102
RTVSPost2010Prop55
280
     0
102
RTVSPost2010PropOp55
 70
     1
102
RTVSPost2010Prop56
140
1.0
102
RTVSPost2010PropOp56
 70
     1
102
RTVSPost2010Prop57
140
1.0
102
RTVSPost2010PropOp57
 70
     1
  0
XRECORD
  5
3CA
102
{ACAD_REACTORS
330
3C9
102
}
330
3C9
100
AcDbXrecord
280
     1
102
RTVSPropertyOp0
 70
     1
102
RTVSPropertyOp1
 70
     1
102
RTVSPropertyOp2
 70
     1
102
RTVSPropertyOp3
 70
     1
102
RTVSPropertyOp4
 70
     1
102
RTVSPropertyOp5
 70
     1
102
RTVSPropertyOp6
 70
     1
102
RTVSPropertyOp7
 70
     1
102
RTVSPropertyOp8
 70
     1
102
RTVSPropertyOp9
 70
     1
102
RTVSPropertyOp10
 70
     1
102
RTVSPropertyOp11
 70
     1
102
RTVSPropertyOp12
 70
     1
102
RTVSPropertyOp13
 70
     1
102
RTVSPropertyOp14
 70
     1
102
RTVSPropertyOp15
 70
     1
102
RTVSPropertyOp16
 70
     1
102
RTVSPropertyOp17
 70
     1
102
RTVSPropertyOp18
 70
     1
102
RTVSPropertyOp19
 70
     1
102
RTVSPropertyOp20
 70
     1
102
RTVSPropertyOp21
 70
     1
102
RTVSPropertyOp22
 70
     1
102
RTVSPropertyOp23
 70
     1
102
RTVSPropertyOp24
 70
     1
102
RTVSPropertyOp25
 70
     1
102
RTVSPropertyOp26
 70
     1
102
RTVSPropertyOp27
 70
     1
102
RTVSPropertyOp28
 70
     1
102
RTVSPropertyOp29
 70
     1
102
RTVSPropertyOp30
 70
     1
102
RTVSPropertyOp31
 70
     1
102
RTVSPropertyOp32
 70
     1
102
RTVSPropertyOp33
 70
     1
102
RTVSPropertyOp34
 70
     1
102
RTVSPropertyOp35
 70
     1
102
RTVSPropertyOp36
 70
     1
102
RTVSPropertyOp37
 70
     1
102
RTVSPropertyOp38
 70
     1
102
RTVSPropertyOp39
 70
     1
102
RTVSPropertyOp40
 70
     1
102
RTVSPropertyOp41
 70
     1
102
RTVSPropertyOp42
 70
     1
102
RTVSPropertyOp43
 70
     1
102
RTVSPropertyOp44
 70
     1
102
RTVSPropertyOp45
 70
     1
102
RTVSPropertyOp46
 70
     1
102
RTVSPropertyOp47
 70
     1
102
RTVSPropertyOp48
 70
     1
102
RTVSPropertyOp49
 70
     1
102
RTVSPropertyOp50
 70
     1
102
RTVSPropertyOp51
 70
     0
102
RTVSPropertyOp52
 70
     0
102
RTVSPropertyOp53
 70
     1
102
RTVSPropertyOp54
 70
     1
102
RTVSPropertyOp55
 70
     1
102
RTVSPropertyOp56
 70
     1
102
RTVSPropertyOp57
 70
     1
102
RTVSPost2010Prop28
280
     0
102
RTVSPost2010PropOp28
 70
     1
102
RTVSPost2010Prop29
280
     1
102
RTVSPost2010PropOp29
 70
     1
102
RTVSPost2010Prop30
280
     1
102
RTVSPost2010PropOp30
 70
     1
102
RTVSPost2010Prop31
280
     0
102
RTVSPost2010PropOp31
 70
     1
102
RTVSPost2010Prop32
280
     0
102
RTVSPost2010PropOp32
 70
     1
102
RTVSPost2010Prop33
280
     0
102
RTVSPost2010PropOp33
 70
     1
102
RTVSPost2010Prop34
280
     0
102
RTVSPost2010PropOp34
 70
     1
102
RTVSPost2010Prop35
280
     0
102
RTVSPost2010PropOp35
 70
     1
102
RTVSPost2010Prop36
280
     0
102
RTVSPost2010PropOp36
 70
     1
102
RTVSPost2010Prop37
 90
       50
102
RTVSPost2010PropOp37
 70
     1
102
RTVSPost2010Prop38
140
0.0
102
RTVSPost2010PropOp38
 70
     1
102
RTVSPost2010Prop39
140
1.0
102
RTVSPost2010PropOp39
 70
     1
102
RTVSPost2010Prop40
 90
        0
102
RTVSPost2010PropOp40
 70
     1
102
RTVSPost2010Prop41ColorIndex
 90
       18
102
RTVSPost2010Prop41ColorRGB
 90
        0
102
RTVSPost2010PropOp41
 70
     1
102
RTVSPost2010Prop42
 90
       50
102
RTVSPost2010PropOp42
 70
     1
102
RTVSPost2010Prop43
 90
        3
102
RTVSPost2010PropOp43
 70
     1
102
RTVSPost2010Prop44ColorIndex
 90
        5
102
RTVSPost2010Prop44ColorRGB
 90
      255
102
RTVSPost2010PropOp44
 70
     1
102
RTVSPost2010Prop45
280
     0
102
RTVSPost2010PropOp45
 70
     1
102
RTVSPost2010Prop46
 90
       50
102
RTVSPost2010PropOp46
 70
     1
102
RTVSPost2010Prop47
 90
       50
102
RTVSPost2010PropOp47
 70
     1
102
RTVSPost2010Prop48
 90
       50
102
RTVSPost2010PropOp48
 70
     1
102
RTVSPost2010Prop49
280
     0
102
RTVSPost2010PropOp49
 70
     1
102
RTVSPost2010Prop50
 90
       50
102
RTVSPost2010PropOp50
 70
     1
102
RTVSPost2010Prop51ColorIndex
 90
      256
102
RTVSPost2010Prop51ColorRGB
 90
-16777216
102
RTVSPost2010PropOp51
 70
     0
102
RTVSPost2010Prop52
140
1.0
102
RTVSPost2010PropOp52
 70
     0
102
RTVSPost2010Prop53
 90
        2
102
RTVSPost2010PropOp53
 70
     1
102
RTVSPost2010Prop54
  1
strokes_ogs.tif
102
RTVSPost2010PropOp54
 70
     1
102
RTVSPost2010Prop55
280
     0
102
RTVSPost2010PropOp55
 70
     1
102
RTVSPost2010Prop56
140
1.0
102
RTVSPost2010PropOp56
 70
     1
102
RTVSPost2010Prop57
140
1.0
102
RTVSPost2010PropOp57
 70
     1
  0
XRECORD
  5
3BE
102
{ACAD_REACTORS
330
3BD
102
}
330
3BD
100
AcDbXrecord
280
     1
102
RTVSPropertyOp0
 70
     1
102
RTVSPropertyOp1
 70
     1
102
RTVSPropertyOp2
 70
     1
102
RTVSPropertyOp3
 70
     1
102
RTVSPropertyOp4
 70
     1
102
RTVSPropertyOp5
 70
     1
102
RTVSPropertyOp6
 70
     1
102
RTVSPropertyOp7
 70
     1
102
RTVSPropertyOp8
 70
     1
102
RTVSPropertyOp9
 70
     1
102
RTVSPropertyOp10
 70
     1
102
RTVSPropertyOp11
 70
     1
102
RTVSPropertyOp12
 70
     1
102
RTVSPropertyOp13
 70
     1
102
RTVSPropertyOp14
 70
     1
102
RTVSPropertyOp15
 70
     1
102
RTVSPropertyOp16
 70
     1
102
RTVSPropertyOp17
 70
     1
102
RTVSPropertyOp18
 70
     1
102
RTVSPropertyOp19
 70
     1
102
RTVSPropertyOp20
 70
     1
102
RTVSPropertyOp21
 70
     1
102
RTVSPropertyOp22
 70
     1
102
RTVSPropertyOp23
 70
     1
102
RTVSPropertyOp24
 70
     1
102
RTVSPropertyOp25
 70
     1
102
RTVSPropertyOp26
 70
     1
102
RTVSPropertyOp27
 70
     1
102
RTVSPropertyOp28
 70
     1
102
RTVSPropertyOp29
 70
     1
102
RTVSPropertyOp30
 70
     1
102
RTVSPropertyOp31
 70
     1
102
RTVSPropertyOp32
 70
     1
102
RTVSPropertyOp33
 70
     1
102
RTVSPropertyOp34
 70
     1
102
RTVSPropertyOp35
 70
     1
102
RTVSPropertyOp36
 70
     1
102
RTVSPropertyOp37
 70
     1
102
RTVSPropertyOp38
 70
     1
102
RTVSPropertyOp39
 70
     1
102
RTVSPropertyOp40
 70
     1
102
RTVSPropertyOp41
 70
     1
102
RTVSPropertyOp42
 70
     1
102
RTVSPropertyOp43
 70
     1
102
RTVSPropertyOp44
 70
     1
102
RTVSPropertyOp45
 70
     1
102
RTVSPropertyOp46
 70
     1
102
RTVSPropertyOp47
 70
     1
102
RTVSPropertyOp48
 70
     1
102
RTVSPropertyOp49
 70
     1
102
RTVSPropertyOp50
 70
     1
102
RTVSPropertyOp51
 70
     0
102
RTVSPropertyOp52
 70
     0
102
RTVSPropertyOp53
 70
     1
102
RTVSPropertyOp54
 70
     1
102
RTVSPropertyOp55
 70
     1
102
RTVSPropertyOp56
 70
     1
102
RTVSPropertyOp57
 70
     1
102
RTVSPost2010Prop28
280
     0
102
RTVSPost2010PropOp28
 70
     1
102
RTVSPost2010Prop29
280
     1
102
RTVSPost2010PropOp29
 70
     1
102
RTVSPost2010Prop30
280
     1
102
RTVSPost2010PropOp30
 70
     1
102
RTVSPost2010Prop31
280
     0
102
RTVSPost2010PropOp31
 70
     1
102
RTVSPost2010Prop32
280
     0
102
RTVSPost2010PropOp32
 70
     1
102
RTVSPost2010Prop33
280
     0
102
RTVSPost2010PropOp33
 70
     1
102
RTVSPost2010Prop34
280
     0
102
RTVSPost2010PropOp34
 70
     1
102
RTVSPost2010Prop35
280
     0
102
RTVSPost2010PropOp35
 70
     1
102
RTVSPost2010Prop36
280
     0
102
RTVSPost2010PropOp36
 70
     1
102
RTVSPost2010Prop37
 90
       50
102
RTVSPost2010PropOp37
 70
     1
102
RTVSPost2010Prop38
140
0.0
102
RTVSPost2010PropOp38
 70
     1
102
RTVSPost2010Prop39
140
1.0
102
RTVSPost2010PropOp39
 70
     1
102
RTVSPost2010Prop40
 90
        0
102
RTVSPost2010PropOp40
 70
     1
102
RTVSPost2010Prop41ColorIndex
 90
       18
102
RTVSPost2010Prop41ColorRGB
 90
        0
102
RTVSPost2010PropOp41
 70
     1
102
RTVSPost2010Prop42
 90
       50
102
RTVSPost2010PropOp42
 70
     1
102
RTVSPost2010Prop43
 90
        3
102
RTVSPost2010PropOp43
 70
     1
102
RTVSPost2010Prop44ColorIndex
 90
        5
102
RTVSPost2010Prop44ColorRGB
 90
      255
102
RTVSPost2010PropOp44
 70
     1
102
RTVSPost2010Prop45
280
     0
102
RTVSPost2010PropOp45
 70
     1
102
RTVSPost2010Prop46
 90
       50
102
RTVSPost2010PropOp46
 70
     1
102
RTVSPost2010Prop47
 90
       50
102
RTVSPost2010PropOp47
 70
     1
102
RTVSPost2010Prop48
 90
       50
102
RTVSPost2010PropOp48
 70
     1
102
RTVSPost2010Prop49
280
     0
102
RTVSPost2010PropOp49
 70
     1
102
RTVSPost2010Prop50
 90
       50
102
RTVSPost2010PropOp50
 70
     1
102
RTVSPost2010Prop51ColorIndex
 90
      256
102
RTVSPost2010Prop51ColorRGB
 90
-16777216
102
RTVSPost2010PropOp51
 70
     0
102
RTVSPost2010Prop52
140
1.0
102
RTVSPost2010PropOp52
 70
     0
102
RTVSPost2010Prop53
 90
        2
102
RTVSPost2010PropOp53
 70
     1
102
RTVSPost2010Prop54
  1
strokes_ogs.tif
102
RTVSPost2010PropOp54
 70
     1
102
RTVSPost2010Prop55
280
     0
102
RTVSPost2010PropOp55
 70
     1
102
RTVSPost2010Prop56
140
1.0
102
RTVSPost2010PropOp56
 70
     1
102
RTVSPost2010Prop57
140
1.0
102
RTVSPost2010PropOp57
 70
     1
  0
XRECORD
  5
3C0
102
{ACAD_REACTORS
330
3BF
102
}
330
3BF
100
AcDbXrecord
280
     1
102
RTVSPropertyOp0
 70
     1
102
RTVSPropertyOp1
 70
     1
102
RTVSPropertyOp2
 70
     1
102
RTVSPropertyOp3
 70
     1
102
RTVSPropertyOp4
 70
     1
102
RTVSPropertyOp5
 70
     1
102
RTVSPropertyOp6
 70
     1
102
RTVSPropertyOp7
 70
     1
102
RTVSPropertyOp8
 70
     1
102
RTVSPropertyOp9
 70
     1
102
RTVSPropertyOp10
 70
     1
102
RTVSPropertyOp11
 70
     1
102
RTVSPropertyOp12
 70
     1
102
RTVSPropertyOp13
 70
     1
102
RTVSPropertyOp14
 70
     1
102
RTVSPropertyOp15
 70
     1
102
RTVSPropertyOp16
 70
     1
102
RTVSPropertyOp17
 70
     1
102
RTVSPropertyOp18
 70
     1
102
RTVSPropertyOp19
 70
     1
102
RTVSPropertyOp20
 70
     1
102
RTVSPropertyOp21
 70
     1
102
RTVSPropertyOp22
 70
     1
102
RTVSPropertyOp23
 70
     1
102
RTVSPropertyOp24
 70
     1
102
RTVSPropertyOp25
 70
     1
102
RTVSPropertyOp26
 70
     1
102
RTVSPropertyOp27
 70
     1
102
RTVSPropertyOp28
 70
     1
102
RTVSPropertyOp29
 70
     1
102
RTVSPropertyOp30
 70
     1
102
RTVSPropertyOp31
 70
     1
102
RTVSPropertyOp32
 70
     1
102
RTVSPropertyOp33
 70
     1
102
RTVSPropertyOp34
 70
     1
102
RTVSPropertyOp35
 70
     1
102
RTVSPropertyOp36
 70
     1
102
RTVSPropertyOp37
 70
     1
102
RTVSPropertyOp38
 70
     1
102
RTVSPropertyOp39
 70
     1
102
RTVSPropertyOp40
 70
     1
102
RTVSPropertyOp41
 70
     1
102
RTVSPropertyOp42
 70
     1
102
RTVSPropertyOp43
 70
     1
102
RTVSPropertyOp44
 70
     1
102
RTVSPropertyOp45
 70
     1
102
RTVSPropertyOp46
 70
     1
102
RTVSPropertyOp47
 70
     1
102
RTVSPropertyOp48
 70
     1
102
RTVSPropertyOp49
 70
     1
102
RTVSPropertyOp50
 70
     1
102
RTVSPropertyOp51
 70
     0
102
RTVSPropertyOp52
 70
     0
102
RTVSPropertyOp53
 70
     1
102
RTVSPropertyOp54
 70
     1
102
RTVSPropertyOp55
 70
     1
102
RTVSPropertyOp56
 70
     1
102
RTVSPropertyOp57
 70
     1
102
RTVSPost2010Prop28
280
     0
102
RTVSPost2010PropOp28
 70
     1
102
RTVSPost2010Prop29
280
     1
102
RTVSPost2010PropOp29
 70
     1
102
RTVSPost2010Prop30
280
     1
102
RTVSPost2010PropOp30
 70
     1
102
RTVSPost2010Prop31
280
     0
102
RTVSPost2010PropOp31
 70
     1
102
RTVSPost2010Prop32
280
     0
102
RTVSPost2010PropOp32
 70
     1
102
RTVSPost2010Prop33
280
     0
102
RTVSPost2010PropOp33
 70
     1
102
RTVSPost2010Prop34
280
     0
102
RTVSPost2010PropOp34
 70
     1
102
RTVSPost2010Prop35
280
     0
102
RTVSPost2010PropOp35
 70
     1
102
RTVSPost2010Prop36
280
     0
102
RTVSPost2010PropOp36
 70
     1
102
RTVSPost2010Prop37
 90
       50
102
RTVSPost2010PropOp37
 70
     1
102
RTVSPost2010Prop38
140
0.0
102
RTVSPost2010PropOp38
 70
     1
102
RTVSPost2010Prop39
140
1.0
102
RTVSPost2010PropOp39
 70
     1
102
RTVSPost2010Prop40
 90
        0
102
RTVSPost2010PropOp40
 70
     1
102
RTVSPost2010Prop41ColorIndex
 90
       18
102
RTVSPost2010Prop41ColorRGB
 90
        0
102
RTVSPost2010PropOp41
 70
     1
102
RTVSPost2010Prop42
 90
       50
102
RTVSPost2010PropOp42
 70
     1
102
RTVSPost2010Prop43
 90
        3
102
RTVSPost2010PropOp43
 70
     1
102
RTVSPost2010Prop44ColorIndex
 90
        5
102
RTVSPost2010Prop44ColorRGB
 90
      255
102
RTVSPost2010PropOp44
 70
     1
102
RTVSPost2010Prop45
280
     0
102
RTVSPost2010PropOp45
 70
     1
102
RTVSPost2010Prop46
 90
       50
102
RTVSPost2010PropOp46
 70
     1
102
RTVSPost2010Prop47
 90
       50
102
RTVSPost2010PropOp47
 70
     1
102
RTVSPost2010Prop48
 90
       50
102
RTVSPost2010PropOp48
 70
     1
102
RTVSPost2010Prop49
280
     0
102
RTVSPost2010PropOp49
 70
     1
102
RTVSPost2010Prop50
 90
       50
102
RTVSPost2010PropOp50
 70
     1
102
RTVSPost2010Prop51ColorIndex
 90
      256
102
RTVSPost2010Prop51ColorRGB
 90
-16777216
102
RTVSPost2010PropOp51
 70
     0
102
RTVSPost2010Prop52
140
1.0
102
RTVSPost2010PropOp52
 70
     0
102
RTVSPost2010Prop53
 90
        2
102
RTVSPost2010PropOp53
 70
     1
102
RTVSPost2010Prop54
  1
strokes_ogs.tif
102
RTVSPost2010PropOp54
 70
     1
102
RTVSPost2010Prop55
280
     0
102
RTVSPost2010PropOp55
 70
     1
102
RTVSPost2010Prop56
140
1.0
102
RTVSPost2010PropOp56
 70
     1
102
RTVSPost2010Prop57
140
1.0
102
RTVSPost2010PropOp57
 70
     1
  0
XRECORD
  5
3D0
102
{ACAD_REACTORS
330
3CF
102
}
330
3CF
100
AcDbXrecord
280
     1
102
RTVSPropertyOp0
 70
     0
102
RTVSPropertyOp1
 70
     0
102
RTVSPropertyOp2
 70
     0
102
RTVSPropertyOp3
 70
     0
102
RTVSPropertyOp4
 70
     0
102
RTVSPropertyOp5
 70
     0
102
RTVSPropertyOp6
 70
     0
102
RTVSPropertyOp7
 70
     0
102
RTVSPropertyOp8
 70
     0
102
RTVSPropertyOp9
 70
     0
102
RTVSPropertyOp10
 70
     0
102
RTVSPropertyOp11
 70
     0
102
RTVSPropertyOp12
 70
     0
102
RTVSPropertyOp13
 70
     0
102
RTVSPropertyOp14
 70
     2
102
RTVSPropertyOp15
 70
     0
102
RTVSPropertyOp16
 70
     0
102
RTVSPropertyOp17
 70
     0
102
RTVSPropertyOp18
 70
     0
102
RTVSPropertyOp19
 70
     0
102
RTVSPropertyOp20
 70
     0
102
RTVSPropertyOp21
 70
     0
102
RTVSPropertyOp22
 70
     0
102
RTVSPropertyOp23
 70
     0
102
RTVSPropertyOp24
 70
     0
102
RTVSPropertyOp25
 70
     0
102
RTVSPropertyOp26
 70
     0
102
RTVSPropertyOp27
 70
     0
102
RTVSPropertyOp28
 70
     0
102
RTVSPropertyOp29
 70
     0
102
RTVSPropertyOp30
 70
     0
102
RTVSPropertyOp31
 70
     0
102
RTVSPropertyOp32
 70
     0
102
RTVSPropertyOp33
 70
     0
102
RTVSPropertyOp34
 70
     0
102
RTVSPropertyOp35
 70
     0
102
RTVSPropertyOp36
 70
     0
102
RTVSPropertyOp37
 70
     0
102
RTVSPropertyOp38
 70
     0
102
RTVSPropertyOp39
 70
     0
102
RTVSPropertyOp40
 70
     0
102
RTVSPropertyOp41
 70
     0
102
RTVSPropertyOp42
 70
     0
102
RTVSPropertyOp43
 70
     0
102
RTVSPropertyOp44
 70
     0
102
RTVSPropertyOp45
 70
     0
102
RTVSPropertyOp46
 70
     0
102
RTVSPropertyOp47
 70
     0
102
RTVSPropertyOp48
 70
     0
102
RTVSPropertyOp49
 70
     0
102
RTVSPropertyOp50
 70
     0
102
RTVSPropertyOp51
 70
     0
102
RTVSPropertyOp52
 70
     0
102
RTVSPropertyOp53
 70
     0
102
RTVSPropertyOp54
 70
     0
102
RTVSPropertyOp55
 70
     0
102
RTVSPropertyOp56
 70
     0
102
RTVSPropertyOp57
 70
     0
102
RTVSPost2010Prop28
280
     0
102
RTVSPost2010PropOp28
 70
     0
102
RTVSPost2010Prop29
280
     1
102
RTVSPost2010PropOp29
 70
     0
102
RTVSPost2010Prop30
280
     1
102
RTVSPost2010PropOp30
 70
     0
102
RTVSPost2010Prop31
280
     0
102
RTVSPost2010PropOp31
 70
     0
102
RTVSPost2010Prop32
280
     0
102
RTVSPost2010PropOp32
 70
     0
102
RTVSPost2010Prop33
280
     0
102
RTVSPost2010PropOp33
 70
     0
102
RTVSPost2010Prop34
280
     0
102
RTVSPost2010PropOp34
 70
     0
102
RTVSPost2010Prop35
280
     0
102
RTVSPost2010PropOp35
 70
     0
102
RTVSPost2010Prop36
280
     0
102
RTVSPost2010PropOp36
 70
     0
102
RTVSPost2010Prop37
 90
       50
102
RTVSPost2010PropOp37
 70
     0
102
RTVSPost2010Prop38
140
0.0
102
RTVSPost2010PropOp38
 70
     0
102
RTVSPost2010Prop39
140
1.0
102
RTVSPost2010PropOp39
 70
     0
102
RTVSPost2010Prop40
 90
        0
102
RTVSPost2010PropOp40
 70
     0
102
RTVSPost2010Prop41ColorIndex
 90
       18
102
RTVSPost2010Prop41ColorRGB
 90
        0
102
RTVSPost2010PropOp41
 70
     0
102
RTVSPost2010Prop42
 90
       50
102
RTVSPost2010PropOp42
 70
     0
102
RTVSPost2010Prop43
 90
        3
102
RTVSPost2010PropOp43
 70
     0
102
RTVSPost2010Prop44ColorIndex
 90
        5
102
RTVSPost2010Prop44ColorRGB
 90
      255
102
RTVSPost2010PropOp44
 70
     0
102
RTVSPost2010Prop45
280
     0
102
RTVSPost2010PropOp45
 70
     0
102
RTVSPost2010Prop46
 90
       50
102
RTVSPost2010PropOp46
 70
     0
102
RTVSPost2010Prop47
 90
       50
102
RTVSPost2010PropOp47
 70
     0
102
RTVSPost2010Prop48
 90
       50
102
RTVSPost2010PropOp48
 70
     0
102
RTVSPost2010Prop49
280
     0
102
RTVSPost2010PropOp49
 70
     0
102
RTVSPost2010Prop50
 90
       50
102
RTVSPost2010PropOp50
 70
     0
102
RTVSPost2010Prop51ColorIndex
 90
      256
102
RTVSPost2010Prop51ColorRGB
 90
-16777216
102
RTVSPost2010PropOp51
 70
     0
102
RTVSPost2010Prop52
140
1.0
102
RTVSPost2010PropOp52
 70
     0
102
RTVSPost2010Prop53
 90
        2
102
RTVSPost2010PropOp53
 70
     0
102
RTVSPost2010Prop54
  1
strokes_ogs.tif
102
RTVSPost2010PropOp54
 70
     0
102
RTVSPost2010Prop55
280
     0
102
RTVSPost2010PropOp55
 70
     0
102
RTVSPost2010Prop56
140
1.0
102
RTVSPost2010PropOp56
 70
     0
102
RTVSPost2010Prop57
140
1.0
102
RTVSPost2010PropOp57
 70
     0
  0
XRECORD
  5
3C8
102
{ACAD_REACTORS
330
3C7
102
}
330
3C7
100
AcDbXrecord
280
     1
102
RTVSPropertyOp0
 70
     1
102
RTVSPropertyOp1
 70
     1
102
RTVSPropertyOp2
 70
     1
102
RTVSPropertyOp3
 70
     1
102
RTVSPropertyOp4
 70
     1
102
RTVSPropertyOp5
 70
     1
102
RTVSPropertyOp6
 70
     1
102
RTVSPropertyOp7
 70
     1
102
RTVSPropertyOp8
 70
     1
102
RTVSPropertyOp9
 70
     1
102
RTVSPropertyOp10
 70
     1
102
RTVSPropertyOp11
 70
     1
102
RTVSPropertyOp12
 70
     1
102
RTVSPropertyOp13
 70
     1
102
RTVSPropertyOp14
 70
     1
102
RTVSPropertyOp15
 70
     1
102
RTVSPropertyOp16
 70
     1
102
RTVSPropertyOp17
 70
     1
102
RTVSPropertyOp18
 70
     1
102
RTVSPropertyOp19
 70
     1
102
RTVSPropertyOp20
 70
     1
102
RTVSPropertyOp21
 70
     1
102
RTVSPropertyOp22
 70
     1
102
RTVSPropertyOp23
 70
     1
102
RTVSPropertyOp24
 70
     1
102
RTVSPropertyOp25
 70
     1
102
RTVSPropertyOp26
 70
     1
102
RTVSPropertyOp27
 70
     1
102
RTVSPropertyOp28
 70
     1
102
RTVSPropertyOp29
 70
     1
102
RTVSPropertyOp30
 70
     1
102
RTVSPropertyOp31
 70
     1
102
RTVSPropertyOp32
 70
     1
102
RTVSPropertyOp33
 70
     1
102
RTVSPropertyOp34
 70
     1
102
RTVSPropertyOp35
 70
     1
102
RTVSPropertyOp36
 70
     1
102
RTVSPropertyOp37
 70
     1
102
RTVSPropertyOp38
 70
     1
102
RTVSPropertyOp39
 70
     1
102
RTVSPropertyOp40
 70
     1
102
RTVSPropertyOp41
 70
     1
102
RTVSPropertyOp42
 70
     1
102
RTVSPropertyOp43
 70
     1
102
RTVSPropertyOp44
 70
     1
102
RTVSPropertyOp45
 70
     1
102
RTVSPropertyOp46
 70
     1
102
RTVSPropertyOp47
 70
     1
102
RTVSPropertyOp48
 70
     1
102
RTVSPropertyOp49
 70
     1
102
RTVSPropertyOp50
 70
     1
102
RTVSPropertyOp51
 70
     0
102
RTVSPropertyOp52
 70
     0
102
RTVSPropertyOp53
 70
     1
102
RTVSPropertyOp54
 70
     1
102
RTVSPropertyOp55
 70
     1
102
RTVSPropertyOp56
 70
     1
102
RTVSPropertyOp57
 70
     1
102
RTVSPost2010Prop28
280
     0
102
RTVSPost2010PropOp28
 70
     1
102
RTVSPost2010Prop29
280
     1
102
RTVSPost2010PropOp29
 70
     1
102
RTVSPost2010Prop30
280
     1
102
RTVSPost2010PropOp30
 70
     1
102
RTVSPost2010Prop31
280
     0
102
RTVSPost2010PropOp31
 70
     1
102
RTVSPost2010Prop32
280
     0
102
RTVSPost2010PropOp32
 70
     1
102
RTVSPost2010Prop33
280
     0
102
RTVSPost2010PropOp33
 70
     1
102
RTVSPost2010Prop34
280
     0
102
RTVSPost2010PropOp34
 70
     1
102
RTVSPost2010Prop35
280
     0
102
RTVSPost2010PropOp35
 70
     1
102
RTVSPost2010Prop36
280
     0
102
RTVSPost2010PropOp36
 70
     1
102
RTVSPost2010Prop37
 90
       50
102
RTVSPost2010PropOp37
 70
     1
102
RTVSPost2010Prop38
140
0.0
102
RTVSPost2010PropOp38
 70
     1
102
RTVSPost2010Prop39
140
1.0
102
RTVSPost2010PropOp39
 70
     1
102
RTVSPost2010Prop40
 90
        0
102
RTVSPost2010PropOp40
 70
     1
102
RTVSPost2010Prop41ColorIndex
 90
       18
102
RTVSPost2010Prop41ColorRGB
 90
        0
102
RTVSPost2010PropOp41
 70
     1
102
RTVSPost2010Prop42
 90
       50
102
RTVSPost2010PropOp42
 70
     1
102
RTVSPost2010Prop43
 90
        3
102
RTVSPost2010PropOp43
 70
     1
102
RTVSPost2010Prop44ColorIndex
 90
        5
102
RTVSPost2010Prop44ColorRGB
 90
      255
102
RTVSPost2010PropOp44
 70
     1
102
RTVSPost2010Prop45
280
     0
102
RTVSPost2010PropOp45
 70
     1
102
RTVSPost2010Prop46
 90
       50
102
RTVSPost2010PropOp46
 70
     1
102
RTVSPost2010Prop47
 90
       50
102
RTVSPost2010PropOp47
 70
     1
102
RTVSPost2010Prop48
 90
       50
102
RTVSPost2010PropOp48
 70
     1
102
RTVSPost2010Prop49
280
     0
102
RTVSPost2010PropOp49
 70
     1
102
RTVSPost2010Prop50
 90
       50
102
RTVSPost2010PropOp50
 70
     1
102
RTVSPost2010Prop51ColorIndex
 90
      256
102
RTVSPost2010Prop51ColorRGB
 90
-16777216
102
RTVSPost2010PropOp51
 70
     0
102
RTVSPost2010Prop52
140
1.0
102
RTVSPost2010PropOp52
 70
     0
102
RTVSPost2010Prop53
 90
        2
102
RTVSPost2010PropOp53
 70
     1
102
RTVSPost2010Prop54
  1
strokes_ogs.tif
102
RTVSPost2010PropOp54
 70
     1
102
RTVSPost2010Prop55
280
     0
102
RTVSPost2010PropOp55
 70
     1
102
RTVSPost2010Prop56
140
1.0
102
RTVSPost2010PropOp56
 70
     1
102
RTVSPost2010Prop57
140
1.0
102
RTVSPost2010PropOp57
 70
     1
  0
XRECORD
  5
3AC
102
{ACAD_REACTORS
330
3AB
102
}
330
3AB
100
AcDbXrecord
280
     1
102
RTVSPropertyOp0
 70
     1
102
RTVSPropertyOp1
 70
     1
102
RTVSPropertyOp2
 70
     1
102
RTVSPropertyOp3
 70
     1
102
RTVSPropertyOp4
 70
     1
102
RTVSPropertyOp5
 70
     1
102
RTVSPropertyOp6
 70
     1
102
RTVSPropertyOp7
 70
     1
102
RTVSPropertyOp8
 70
     1
102
RTVSPropertyOp9
 70
     1
102
RTVSPropertyOp10
 70
     1
102
RTVSPropertyOp11
 70
     1
102
RTVSPropertyOp12
 70
     1
102
RTVSPropertyOp13
 70
     1
102
RTVSPropertyOp14
 70
     1
102
RTVSPropertyOp15
 70
     1
102
RTVSPropertyOp16
 70
     1
102
RTVSPropertyOp17
 70
     1
102
RTVSPropertyOp18
 70
     1
102
RTVSPropertyOp19
 70
     1
102
RTVSPropertyOp20
 70
     1
102
RTVSPropertyOp21
 70
     1
102
RTVSPropertyOp22
 70
     1
102
RTVSPropertyOp23
 70
     1
102
RTVSPropertyOp24
 70
     1
102
RTVSPropertyOp25
 70
     1
102
RTVSPropertyOp26
 70
     1
102
RTVSPropertyOp27
 70
     1
102
RTVSPropertyOp28
 70
     1
102
RTVSPropertyOp29
 70
     1
102
RTVSPropertyOp30
 70
     1
102
RTVSPropertyOp31
 70
     1
102
RTVSPropertyOp32
 70
     1
102
RTVSPropertyOp33
 70
     1
102
RTVSPropertyOp34
 70
     1
102
RTVSPropertyOp35
 70
     1
102
RTVSPropertyOp36
 70
     1
102
RTVSPropertyOp37
 70
     1
102
RTVSPropertyOp38
 70
     1
102
RTVSPropertyOp39
 70
     1
102
RTVSPropertyOp40
 70
     1
102
RTVSPropertyOp41
 70
     1
102
RTVSPropertyOp42
 70
     1
102
RTVSPropertyOp43
 70
     1
102
RTVSPropertyOp44
 70
     1
102
RTVSPropertyOp45
 70
     1
102
RTVSPropertyOp46
 70
     1
102
RTVSPropertyOp47
 70
     1
102
RTVSPropertyOp48
 70
     1
102
RTVSPropertyOp49
 70
     1
102
RTVSPropertyOp50
 70
     1
102
RTVSPropertyOp51
 70
     0
102
RTVSPropertyOp52
 70
     0
102
RTVSPropertyOp53
 70
     1
102
RTVSPropertyOp54
 70
     1
102
RTVSPropertyOp55
 70
     1
102
RTVSPropertyOp56
 70
     1
102
RTVSPropertyOp57
 70
     1
102
RTVSPost2010Prop28
280
     0
102
RTVSPost2010PropOp28
 70
     1
102
RTVSPost2010Prop29
280
     1
102
RTVSPost2010PropOp29
 70
     1
102
RTVSPost2010Prop30
280
     1
102
RTVSPost2010PropOp30
 70
     1
102
RTVSPost2010Prop31
280
     0
102
RTVSPost2010PropOp31
 70
     1
102
RTVSPost2010Prop32
280
     0
102
RTVSPost2010PropOp32
 70
     1
102
RTVSPost2010Prop33
280
     0
102
RTVSPost2010PropOp33
 70
     1
102
RTVSPost2010Prop34
280
     0
102
RTVSPost2010PropOp34
 70
     1
102
RTVSPost2010Prop35
280
     0
102
RTVSPost2010PropOp35
 70
     1
102
RTVSPost2010Prop36
280
     0
102
RTVSPost2010PropOp36
 70
     1
102
RTVSPost2010Prop37
 90
       50
102
RTVSPost2010PropOp37
 70
     1
102
RTVSPost2010Prop38
140
0.0
102
RTVSPost2010PropOp38
 70
     1
102
RTVSPost2010Prop39
140
1.0
102
RTVSPost2010PropOp39
 70
     1
102
RTVSPost2010Prop40
 90
        0
102
RTVSPost2010PropOp40
 70
     1
102
RTVSPost2010Prop41ColorIndex
 90
       18
102
RTVSPost2010Prop41ColorRGB
 90
        0
102
RTVSPost2010PropOp41
 70
     1
102
RTVSPost2010Prop42
 90
       50
102
RTVSPost2010PropOp42
 70
     1
102
RTVSPost2010Prop43
 90
        3
102
RTVSPost2010PropOp43
 70
     1
102
RTVSPost2010Prop44ColorIndex
 90
        5
102
RTVSPost2010Prop44ColorRGB
 90
      255
102
RTVSPost2010PropOp44
 70
     1
102
RTVSPost2010Prop45
280
     0
102
RTVSPost2010PropOp45
 70
     1
102
RTVSPost2010Prop46
 90
       50
102
RTVSPost2010PropOp46
 70
     1
102
RTVSPost2010Prop47
 90
       50
102
RTVSPost2010PropOp47
 70
     1
102
RTVSPost2010Prop48
 90
       50
102
RTVSPost2010PropOp48
 70
     1
102
RTVSPost2010Prop49
280
     0
102
RTVSPost2010PropOp49
 70
     1
102
RTVSPost2010Prop50
 90
       50
102
RTVSPost2010PropOp50
 70
     1
102
RTVSPost2010Prop51ColorIndex
 90
      256
102
RTVSPost2010Prop51ColorRGB
 90
-16777216
102
RTVSPost2010PropOp51
 70
     0
102
RTVSPost2010Prop52
140
1.0
102
RTVSPost2010PropOp52
 70
     0
102
RTVSPost2010Prop53
 90
        2
102
RTVSPost2010PropOp53
 70
     1
102
RTVSPost2010Prop54
  1
strokes_ogs.tif
102
RTVSPost2010PropOp54
 70
     1
102
RTVSPost2010Prop55
280
     0
102
RTVSPost2010PropOp55
 70
     1
102
RTVSPost2010Prop56
140
1.0
102
RTVSPost2010PropOp56
 70
     1
102
RTVSPost2010Prop57
140
1.0
102
RTVSPost2010PropOp57
 70
     1
  0
XRECORD
  5
3AE
102
{ACAD_REACTORS
330
3AD
102
}
330
3AD
100
AcDbXrecord
280
     1
102
RTVSPropertyOp0
 70
     1
102
RTVSPropertyOp1
 70
     1
102
RTVSPropertyOp2
 70
     1
102
RTVSPropertyOp3
 70
     1
102
RTVSPropertyOp4
 70
     1
102
RTVSPropertyOp5
 70
     1
102
RTVSPropertyOp6
 70
     1
102
RTVSPropertyOp7
 70
     1
102
RTVSPropertyOp8
 70
     1
102
RTVSPropertyOp9
 70
     1
102
RTVSPropertyOp10
 70
     1
102
RTVSPropertyOp11
 70
     1
102
RTVSPropertyOp12
 70
     1
102
RTVSPropertyOp13
 70
     1
102
RTVSPropertyOp14
 70
     1
102
RTVSPropertyOp15
 70
     1
102
RTVSPropertyOp16
 70
     1
102
RTVSPropertyOp17
 70
     1
102
RTVSPropertyOp18
 70
     1
102
RTVSPropertyOp19
 70
     1
102
RTVSPropertyOp20
 70
     1
102
RTVSPropertyOp21
 70
     1
102
RTVSPropertyOp22
 70
     1
102
RTVSPropertyOp23
 70
     1
102
RTVSPropertyOp24
 70
     1
102
RTVSPropertyOp25
 70
     1
102
RTVSPropertyOp26
 70
     1
102
RTVSPropertyOp27
 70
     1
102
RTVSPropertyOp28
 70
     1
102
RTVSPropertyOp29
 70
     1
102
RTVSPropertyOp30
 70
     1
102
RTVSPropertyOp31
 70
     1
102
RTVSPropertyOp32
 70
     1
102
RTVSPropertyOp33
 70
     1
102
RTVSPropertyOp34
 70
     1
102
RTVSPropertyOp35
 70
     1
102
RTVSPropertyOp36
 70
     1
102
RTVSPropertyOp37
 70
     1
102
RTVSPropertyOp38
 70
     1
102
RTVSPropertyOp39
 70
     1
102
RTVSPropertyOp40
 70
     1
102
RTVSPropertyOp41
 70
     1
102
RTVSPropertyOp42
 70
     1
102
RTVSPropertyOp43
 70
     1
102
RTVSPropertyOp44
 70
     1
102
RTVSPropertyOp45
 70
     1
102
RTVSPropertyOp46
 70
     1
102
RTVSPropertyOp47
 70
     1
102
RTVSPropertyOp48
 70
     1
102
RTVSPropertyOp49
 70
     1
102
RTVSPropertyOp50
 70
     1
102
RTVSPropertyOp51
 70
     0
102
RTVSPropertyOp52
 70
     0
102
RTVSPropertyOp53
 70
     1
102
RTVSPropertyOp54
 70
     1
102
RTVSPropertyOp55
 70
     1
102
RTVSPropertyOp56
 70
     1
102
RTVSPropertyOp57
 70
     1
102
RTVSPost2010Prop28
280
     0
102
RTVSPost2010PropOp28
 70
     1
102
RTVSPost2010Prop29
280
     1
102
RTVSPost2010PropOp29
 70
     1
102
RTVSPost2010Prop30
280
     1
102
RTVSPost2010PropOp30
 70
     1
102
RTVSPost2010Prop31
280
     0
102
RTVSPost2010PropOp31
 70
     1
102
RTVSPost2010Prop32
280
     0
102
RTVSPost2010PropOp32
 70
     1
102
RTVSPost2010Prop33
280
     0
102
RTVSPost2010PropOp33
 70
     1
102
RTVSPost2010Prop34
280
     0
102
RTVSPost2010PropOp34
 70
     1
102
RTVSPost2010Prop35
280
     0
102
RTVSPost2010PropOp35
 70
     1
102
RTVSPost2010Prop36
280
     0
102
RTVSPost2010PropOp36
 70
     1
102
RTVSPost2010Prop37
 90
       50
102
RTVSPost2010PropOp37
 70
     1
102
RTVSPost2010Prop38
140
0.0
102
RTVSPost2010PropOp38
 70
     1
102
RTVSPost2010Prop39
140
1.0
102
RTVSPost2010PropOp39
 70
     1
102
RTVSPost2010Prop40
 90
        0
102
RTVSPost2010PropOp40
 70
     1
102
RTVSPost2010Prop41ColorIndex
 90
       18
102
RTVSPost2010Prop41ColorRGB
 90
        0
102
RTVSPost2010PropOp41
 70
     1
102
RTVSPost2010Prop42
 90
       50
102
RTVSPost2010PropOp42
 70
     1
102
RTVSPost2010Prop43
 90
        3
102
RTVSPost2010PropOp43
 70
     1
102
RTVSPost2010Prop44ColorIndex
 90
        5
102
RTVSPost2010Prop44ColorRGB
 90
      255
102
RTVSPost2010PropOp44
 70
     1
102
RTVSPost2010Prop45
280
     0
102
RTVSPost2010PropOp45
 70
     1
102
RTVSPost2010Prop46
 90
       50
102
RTVSPost2010PropOp46
 70
     1
102
RTVSPost2010Prop47
 90
       50
102
RTVSPost2010PropOp47
 70
     1
102
RTVSPost2010Prop48
 90
       50
102
RTVSPost2010PropOp48
 70
     1
102
RTVSPost2010Prop49
280
     0
102
RTVSPost2010PropOp49
 70
     1
102
RTVSPost2010Prop50
 90
       50
102
RTVSPost2010PropOp50
 70
     1
102
RTVSPost2010Prop51ColorIndex
 90
      256
102
RTVSPost2010Prop51ColorRGB
 90
-16777216
102
RTVSPost2010PropOp51
 70
     0
102
RTVSPost2010Prop52
140
1.0
102
RTVSPost2010PropOp52
 70
     0
102
RTVSPost2010Prop53
 90
        2
102
RTVSPost2010PropOp53
 70
     1
102
RTVSPost2010Prop54
  1
strokes_ogs.tif
102
RTVSPost2010PropOp54
 70
     1
102
RTVSPost2010Prop55
280
     0
102
RTVSPost2010PropOp55
 70
     1
102
RTVSPost2010Prop56
140
1.0
102
RTVSPost2010PropOp56
 70
     1
102
RTVSPost2010Prop57
140
1.0
102
RTVSPost2010PropOp57
 70
     1
  0
XRECORD
  5
3B0
102
{ACAD_REACTORS
330
3AF
102
}
330
3AF
100
AcDbXrecord
280
     1
102
RTVSPropertyOp0
 70
     1
102
RTVSPropertyOp1
 70
     1
102
RTVSPropertyOp2
 70
     1
102
RTVSPropertyOp3
 70
     1
102
RTVSPropertyOp4
 70
     1
102
RTVSPropertyOp5
 70
     1
102
RTVSPropertyOp6
 70
     1
102
RTVSPropertyOp7
 70
     1
102
RTVSPropertyOp8
 70
     1
102
RTVSPropertyOp9
 70
     1
102
RTVSPropertyOp10
 70
     1
102
RTVSPropertyOp11
 70
     1
102
RTVSPropertyOp12
 70
     1
102
RTVSPropertyOp13
 70
     1
102
RTVSPropertyOp14
 70
     1
102
RTVSPropertyOp15
 70
     1
102
RTVSPropertyOp16
 70
     1
102
RTVSPropertyOp17
 70
     1
102
RTVSPropertyOp18
 70
     1
102
RTVSPropertyOp19
 70
     1
102
RTVSPropertyOp20
 70
     1
102
RTVSPropertyOp21
 70
     1
102
RTVSPropertyOp22
 70
     1
102
RTVSPropertyOp23
 70
     1
102
RTVSPropertyOp24
 70
     1
102
RTVSPropertyOp25
 70
     1
102
RTVSPropertyOp26
 70
     1
102
RTVSPropertyOp27
 70
     1
102
RTVSPropertyOp28
 70
     1
102
RTVSPropertyOp29
 70
     1
102
RTVSPropertyOp30
 70
     1
102
RTVSPropertyOp31
 70
     1
102
RTVSPropertyOp32
 70
     1
102
RTVSPropertyOp33
 70
     1
102
RTVSPropertyOp34
 70
     1
102
RTVSPropertyOp35
 70
     1
102
RTVSPropertyOp36
 70
     1
102
RTVSPropertyOp37
 70
     1
102
RTVSPropertyOp38
 70
     1
102
RTVSPropertyOp39
 70
     1
102
RTVSPropertyOp40
 70
     1
102
RTVSPropertyOp41
 70
     1
102
RTVSPropertyOp42
 70
     1
102
RTVSPropertyOp43
 70
     1
102
RTVSPropertyOp44
 70
     1
102
RTVSPropertyOp45
 70
     1
102
RTVSPropertyOp46
 70
     1
102
RTVSPropertyOp47
 70
     1
102
RTVSPropertyOp48
 70
     1
102
RTVSPropertyOp49
 70
     1
102
RTVSPropertyOp50
 70
     1
102
RTVSPropertyOp51
 70
     0
102
RTVSPropertyOp52
 70
     0
102
RTVSPropertyOp53
 70
     1
102
RTVSPropertyOp54
 70
     1
102
RTVSPropertyOp55
 70
     1
102
RTVSPropertyOp56
 70
     1
102
RTVSPropertyOp57
 70
     1
102
RTVSPost2010Prop28
280
     0
102
RTVSPost2010PropOp28
 70
     1
102
RTVSPost2010Prop29
280
     1
102
RTVSPost2010PropOp29
 70
     1
102
RTVSPost2010Prop30
280
     1
102
RTVSPost2010PropOp30
 70
     1
102
RTVSPost2010Prop31
280
     0
102
RTVSPost2010PropOp31
 70
     1
102
RTVSPost2010Prop32
280
     0
102
RTVSPost2010PropOp32
 70
     1
102
RTVSPost2010Prop33
280
     0
102
RTVSPost2010PropOp33
 70
     1
102
RTVSPost2010Prop34
280
     0
102
RTVSPost2010PropOp34
 70
     1
102
RTVSPost2010Prop35
280
     0
102
RTVSPost2010PropOp35
 70
     1
102
RTVSPost2010Prop36
280
     0
102
RTVSPost2010PropOp36
 70
     1
102
RTVSPost2010Prop37
 90
       50
102
RTVSPost2010PropOp37
 70
     1
102
RTVSPost2010Prop38
140
0.0
102
RTVSPost2010PropOp38
 70
     1
102
RTVSPost2010Prop39
140
1.0
102
RTVSPost2010PropOp39
 70
     1
102
RTVSPost2010Prop40
 90
        0
102
RTVSPost2010PropOp40
 70
     1
102
RTVSPost2010Prop41ColorIndex
 90
       18
102
RTVSPost2010Prop41ColorRGB
 90
        0
102
RTVSPost2010PropOp41
 70
     1
102
RTVSPost2010Prop42
 90
       50
102
RTVSPost2010PropOp42
 70
     1
102
RTVSPost2010Prop43
 90
        3
102
RTVSPost2010PropOp43
 70
     1
102
RTVSPost2010Prop44ColorIndex
 90
        5
102
RTVSPost2010Prop44ColorRGB
 90
      255
102
RTVSPost2010PropOp44
 70
     1
102
RTVSPost2010Prop45
280
     0
102
RTVSPost2010PropOp45
 70
     1
102
RTVSPost2010Prop46
 90
       50
102
RTVSPost2010PropOp46
 70
     1
102
RTVSPost2010Prop47
 90
       50
102
RTVSPost2010PropOp47
 70
     1
102
RTVSPost2010Prop48
 90
       50
102
RTVSPost2010PropOp48
 70
     1
102
RTVSPost2010Prop49
280
     0
102
RTVSPost2010PropOp49
 70
     1
102
RTVSPost2010Prop50
 90
       50
102
RTVSPost2010PropOp50
 70
     1
102
RTVSPost2010Prop51ColorIndex
 90
      256
102
RTVSPost2010Prop51ColorRGB
 90
-16777216
102
RTVSPost2010PropOp51
 70
     0
102
RTVSPost2010Prop52
140
1.0
102
RTVSPost2010PropOp52
 70
     0
102
RTVSPost2010Prop53
 90
        2
102
RTVSPost2010PropOp53
 70
     1
102
RTVSPost2010Prop54
  1
strokes_ogs.tif
102
RTVSPost2010PropOp54
 70
     1
102
RTVSPost2010Prop55
280
     0
102
RTVSPost2010PropOp55
 70
     1
102
RTVSPost2010Prop56
140
1.0
102
RTVSPost2010PropOp56
 70
     1
102
RTVSPost2010Prop57
140
1.0
102
RTVSPost2010PropOp57
 70
     1
  0
XRECORD
  5
3B2
102
{ACAD_REACTORS
330
3B1
102
}
330
3B1
100
AcDbXrecord
280
     1
102
RTVSPropertyOp0
 70
     1
102
RTVSPropertyOp1
 70
     1
102
RTVSPropertyOp2
 70
     1
102
RTVSPropertyOp3
 70
     1
102
RTVSPropertyOp4
 70
     1
102
RTVSPropertyOp5
 70
     1
102
RTVSPropertyOp6
 70
     1
102
RTVSPropertyOp7
 70
     1
102
RTVSPropertyOp8
 70
     1
102
RTVSPropertyOp9
 70
     1
102
RTVSPropertyOp10
 70
     1
102
RTVSPropertyOp11
 70
     1
102
RTVSPropertyOp12
 70
     1
102
RTVSPropertyOp13
 70
     1
102
RTVSPropertyOp14
 70
     1
102
RTVSPropertyOp15
 70
     1
102
RTVSPropertyOp16
 70
     1
102
RTVSPropertyOp17
 70
     1
102
RTVSPropertyOp18
 70
     1
102
RTVSPropertyOp19
 70
     1
102
RTVSPropertyOp20
 70
     1
102
RTVSPropertyOp21
 70
     1
102
RTVSPropertyOp22
 70
     1
102
RTVSPropertyOp23
 70
     1
102
RTVSPropertyOp24
 70
     1
102
RTVSPropertyOp25
 70
     1
102
RTVSPropertyOp26
 70
     1
102
RTVSPropertyOp27
 70
     1
102
RTVSPropertyOp28
 70
     1
102
RTVSPropertyOp29
 70
     1
102
RTVSPropertyOp30
 70
     1
102
RTVSPropertyOp31
 70
     1
102
RTVSPropertyOp32
 70
     1
102
RTVSPropertyOp33
 70
     1
102
RTVSPropertyOp34
 70
     1
102
RTVSPropertyOp35
 70
     1
102
RTVSPropertyOp36
 70
     1
102
RTVSPropertyOp37
 70
     1
102
RTVSPropertyOp38
 70
     1
102
RTVSPropertyOp39
 70
     1
102
RTVSPropertyOp40
 70
     1
102
RTVSPropertyOp41
 70
     1
102
RTVSPropertyOp42
 70
     1
102
RTVSPropertyOp43
 70
     1
102
RTVSPropertyOp44
 70
     1
102
RTVSPropertyOp45
 70
     1
102
RTVSPropertyOp46
 70
     1
102
RTVSPropertyOp47
 70
     1
102
RTVSPropertyOp48
 70
     1
102
RTVSPropertyOp49
 70
     1
102
RTVSPropertyOp50
 70
     1
102
RTVSPropertyOp51
 70
     0
102
RTVSPropertyOp52
 70
     0
102
RTVSPropertyOp53
 70
     1
102
RTVSPropertyOp54
 70
     1
102
RTVSPropertyOp55
 70
     1
102
RTVSPropertyOp56
 70
     1
102
RTVSPropertyOp57
 70
     1
102
RTVSPost2010Prop28
280
     0
102
RTVSPost2010PropOp28
 70
     1
102
RTVSPost2010Prop29
280
     1
102
RTVSPost2010PropOp29
 70
     1
102
RTVSPost2010Prop30
280
     1
102
RTVSPost2010PropOp30
 70
     1
102
RTVSPost2010Prop31
280
     0
102
RTVSPost2010PropOp31
 70
     1
102
RTVSPost2010Prop32
280
     0
102
RTVSPost2010PropOp32
 70
     1
102
RTVSPost2010Prop33
280
     0
102
RTVSPost2010PropOp33
 70
     1
102
RTVSPost2010Prop34
280
     0
102
RTVSPost2010PropOp34
 70
     1
102
RTVSPost2010Prop35
280
     0
102
RTVSPost2010PropOp35
 70
     1
102
RTVSPost2010Prop36
280
     0
102
RTVSPost2010PropOp36
 70
     1
102
RTVSPost2010Prop37
 90
       50
102
RTVSPost2010PropOp37
 70
     1
102
RTVSPost2010Prop38
140
0.0
102
RTVSPost2010PropOp38
 70
     1
102
RTVSPost2010Prop39
140
1.0
102
RTVSPost2010PropOp39
 70
     1
102
RTVSPost2010Prop40
 90
        0
102
RTVSPost2010PropOp40
 70
     1
102
RTVSPost2010Prop41ColorIndex
 90
       18
102
RTVSPost2010Prop41ColorRGB
 90
        0
102
RTVSPost2010PropOp41
 70
     1
102
RTVSPost2010Prop42
 90
       50
102
RTVSPost2010PropOp42
 70
     1
102
RTVSPost2010Prop43
 90
        3
102
RTVSPost2010PropOp43
 70
     1
102
RTVSPost2010Prop44ColorIndex
 90
        5
102
RTVSPost2010Prop44ColorRGB
 90
      255
102
RTVSPost2010PropOp44
 70
     1
102
RTVSPost2010Prop45
280
     0
102
RTVSPost2010PropOp45
 70
     1
102
RTVSPost2010Prop46
 90
       50
102
RTVSPost2010PropOp46
 70
     1
102
RTVSPost2010Prop47
 90
       50
102
RTVSPost2010PropOp47
 70
     1
102
RTVSPost2010Prop48
 90
       50
102
RTVSPost2010PropOp48
 70
     1
102
RTVSPost2010Prop49
280
     0
102
RTVSPost2010PropOp49
 70
     1
102
RTVSPost2010Prop50
 90
       50
102
RTVSPost2010PropOp50
 70
     1
102
RTVSPost2010Prop51ColorIndex
 90
      256
102
RTVSPost2010Prop51ColorRGB
 90
-16777216
102
RTVSPost2010PropOp51
 70
     0
102
RTVSPost2010Prop52
140
1.0
102
RTVSPost2010PropOp52
 70
     0
102
RTVSPost2010Prop53
 90
        2
102
RTVSPost2010PropOp53
 70
     1
102
RTVSPost2010Prop54
  1
strokes_ogs.tif
102
RTVSPost2010PropOp54
 70
     1
102
RTVSPost2010Prop55
280
     0
102
RTVSPost2010PropOp55
 70
     1
102
RTVSPost2010Prop56
140
1.0
102
RTVSPost2010PropOp56
 70
     1
102
RTVSPost2010Prop57
140
1.0
102
RTVSPost2010PropOp57
 70
     1
  0
XRECORD
  5
3B8
102
{ACAD_REACTORS
330
3B7
102
}
330
3B7
100
AcDbXrecord
280
     1
102
RTVSPropertyOp0
 70
     1
102
RTVSPropertyOp1
 70
     1
102
RTVSPropertyOp2
 70
     1
102
RTVSPropertyOp3
 70
     1
102
RTVSPropertyOp4
 70
     1
102
RTVSPropertyOp5
 70
     1
102
RTVSPropertyOp6
 70
     1
102
RTVSPropertyOp7
 70
     1
102
RTVSPropertyOp8
 70
     1
102
RTVSPropertyOp9
 70
     1
102
RTVSPropertyOp10
 70
     1
102
RTVSPropertyOp11
 70
     1
102
RTVSPropertyOp12
 70
     1
102
RTVSPropertyOp13
 70
     1
102
RTVSPropertyOp14
 70
     1
102
RTVSPropertyOp15
 70
     1
102
RTVSPropertyOp16
 70
     1
102
RTVSPropertyOp17
 70
     1
102
RTVSPropertyOp18
 70
     1
102
RTVSPropertyOp19
 70
     1
102
RTVSPropertyOp20
 70
     1
102
RTVSPropertyOp21
 70
     1
102
RTVSPropertyOp22
 70
     1
102
RTVSPropertyOp23
 70
     1
102
RTVSPropertyOp24
 70
     1
102
RTVSPropertyOp25
 70
     1
102
RTVSPropertyOp26
 70
     1
102
RTVSPropertyOp27
 70
     1
102
RTVSPropertyOp28
 70
     1
102
RTVSPropertyOp29
 70
     1
102
RTVSPropertyOp30
 70
     1
102
RTVSPropertyOp31
 70
     1
102
RTVSPropertyOp32
 70
     1
102
RTVSPropertyOp33
 70
     1
102
RTVSPropertyOp34
 70
     1
102
RTVSPropertyOp35
 70
     1
102
RTVSPropertyOp36
 70
     1
102
RTVSPropertyOp37
 70
     1
102
RTVSPropertyOp38
 70
     1
102
RTVSPropertyOp39
 70
     1
102
RTVSPropertyOp40
 70
     1
102
RTVSPropertyOp41
 70
     1
102
RTVSPropertyOp42
 70
     1
102
RTVSPropertyOp43
 70
     1
102
RTVSPropertyOp44
 70
     1
102
RTVSPropertyOp45
 70
     1
102
RTVSPropertyOp46
 70
     1
102
RTVSPropertyOp47
 70
     1
102
RTVSPropertyOp48
 70
     1
102
RTVSPropertyOp49
 70
     1
102
RTVSPropertyOp50
 70
     1
102
RTVSPropertyOp51
 70
     0
102
RTVSPropertyOp52
 70
     0
102
RTVSPropertyOp53
 70
     1
102
RTVSPropertyOp54
 70
     1
102
RTVSPropertyOp55
 70
     1
102
RTVSPropertyOp56
 70
     1
102
RTVSPropertyOp57
 70
     1
102
RTVSPost2010Prop28
280
     0
102
RTVSPost2010PropOp28
 70
     1
102
RTVSPost2010Prop29
280
     1
102
RTVSPost2010PropOp29
 70
     1
102
RTVSPost2010Prop30
280
     1
102
RTVSPost2010PropOp30
 70
     1
102
RTVSPost2010Prop31
280
     0
102
RTVSPost2010PropOp31
 70
     1
102
RTVSPost2010Prop32
280
     0
102
RTVSPost2010PropOp32
 70
     1
102
RTVSPost2010Prop33
280
     0
102
RTVSPost2010PropOp33
 70
     1
102
RTVSPost2010Prop34
280
     0
102
RTVSPost2010PropOp34
 70
     1
102
RTVSPost2010Prop35
280
     0
102
RTVSPost2010PropOp35
 70
     1
102
RTVSPost2010Prop36
280
     0
102
RTVSPost2010PropOp36
 70
     1
102
RTVSPost2010Prop37
 90
       50
102
RTVSPost2010PropOp37
 70
     1
102
RTVSPost2010Prop38
140
0.0
102
RTVSPost2010PropOp38
 70
     1
102
RTVSPost2010Prop39
140
1.0
102
RTVSPost2010PropOp39
 70
     1
102
RTVSPost2010Prop40
 90
        0
102
RTVSPost2010PropOp40
 70
     1
102
RTVSPost2010Prop41ColorIndex
 90
       18
102
RTVSPost2010Prop41ColorRGB
 90
        0
102
RTVSPost2010PropOp41
 70
     1
102
RTVSPost2010Prop42
 90
       50
102
RTVSPost2010PropOp42
 70
     1
102
RTVSPost2010Prop43
 90
        3
102
RTVSPost2010PropOp43
 70
     1
102
RTVSPost2010Prop44ColorIndex
 90
        5
102
RTVSPost2010Prop44ColorRGB
 90
      255
102
RTVSPost2010PropOp44
 70
     1
102
RTVSPost2010Prop45
280
     0
102
RTVSPost2010PropOp45
 70
     1
102
RTVSPost2010Prop46
 90
       50
102
RTVSPost2010PropOp46
 70
     1
102
RTVSPost2010Prop47
 90
       50
102
RTVSPost2010PropOp47
 70
     1
102
RTVSPost2010Prop48
 90
       50
102
RTVSPost2010PropOp48
 70
     1
102
RTVSPost2010Prop49
280
     0
102
RTVSPost2010PropOp49
 70
     1
102
RTVSPost2010Prop50
 90
       50
102
RTVSPost2010PropOp50
 70
     1
102
RTVSPost2010Prop51ColorIndex
 90
      256
102
RTVSPost2010Prop51ColorRGB
 90
-16777216
102
RTVSPost2010PropOp51
 70
     0
102
RTVSPost2010Prop52
140
1.0
102
RTVSPost2010PropOp52
 70
     0
102
RTVSPost2010Prop53
 90
        2
102
RTVSPost2010PropOp53
 70
     1
102
RTVSPost2010Prop54
  1
strokes_ogs.tif
102
RTVSPost2010PropOp54
 70
     1
102
RTVSPost2010Prop55
280
     0
102
RTVSPost2010PropOp55
 70
     1
102
RTVSPost2010Prop56
140
1.0
102
RTVSPost2010PropOp56
 70
     1
102
RTVSPost2010Prop57
140
1.0
102
RTVSPost2010PropOp57
 70
     1
  0
XRECORD
  5
3CC
102
{ACAD_REACTORS
330
3CB
102
}
330
3CB
100
AcDbXrecord
280
     1
102
RTVSPropertyOp0
 70
     0
102
RTVSPropertyOp1
 70
     0
102
RTVSPropertyOp2
 70
     0
102
RTVSPropertyOp3
 70
     0
102
RTVSPropertyOp4
 70
     0
102
RTVSPropertyOp5
 70
     0
102
RTVSPropertyOp6
 70
     0
102
RTVSPropertyOp7
 70
     0
102
RTVSPropertyOp8
 70
     0
102
RTVSPropertyOp9
 70
     0
102
RTVSPropertyOp10
 70
     0
102
RTVSPropertyOp11
 70
     0
102
RTVSPropertyOp12
 70
     0
102
RTVSPropertyOp13
 70
     0
102
RTVSPropertyOp14
 70
     2
102
RTVSPropertyOp15
 70
     0
102
RTVSPropertyOp16
 70
     0
102
RTVSPropertyOp17
 70
     0
102
RTVSPropertyOp18
 70
     0
102
RTVSPropertyOp19
 70
     0
102
RTVSPropertyOp20
 70
     0
102
RTVSPropertyOp21
 70
     0
102
RTVSPropertyOp22
 70
     0
102
RTVSPropertyOp23
 70
     0
102
RTVSPropertyOp24
 70
     0
102
RTVSPropertyOp25
 70
     0
102
RTVSPropertyOp26
 70
     0
102
RTVSPropertyOp27
 70
     0
102
RTVSPropertyOp28
 70
     0
102
RTVSPropertyOp29
 70
     0
102
RTVSPropertyOp30
 70
     0
102
RTVSPropertyOp31
 70
     0
102
RTVSPropertyOp32
 70
     0
102
RTVSPropertyOp33
 70
     0
102
RTVSPropertyOp34
 70
     0
102
RTVSPropertyOp35
 70
     0
102
RTVSPropertyOp36
 70
     0
102
RTVSPropertyOp37
 70
     0
102
RTVSPropertyOp38
 70
     0
102
RTVSPropertyOp39
 70
     0
102
RTVSPropertyOp40
 70
     0
102
RTVSPropertyOp41
 70
     0
102
RTVSPropertyOp42
 70
     0
102
RTVSPropertyOp43
 70
     0
102
RTVSPropertyOp44
 70
     0
102
RTVSPropertyOp45
 70
     0
102
RTVSPropertyOp46
 70
     0
102
RTVSPropertyOp47
 70
     0
102
RTVSPropertyOp48
 70
     0
102
RTVSPropertyOp49
 70
     0
102
RTVSPropertyOp50
 70
     0
102
RTVSPropertyOp51
 70
     0
102
RTVSPropertyOp52
 70
     0
102
RTVSPropertyOp53
 70
     0
102
RTVSPropertyOp54
 70
     0
102
RTVSPropertyOp55
 70
     0
102
RTVSPropertyOp56
 70
     0
102
RTVSPropertyOp57
 70
     0
102
RTVSPost2010Prop28
280
     0
102
RTVSPost2010PropOp28
 70
     0
102
RTVSPost2010Prop29
280
     1
102
RTVSPost2010PropOp29
 70
     0
102
RTVSPost2010Prop30
280
     1
102
RTVSPost2010PropOp30
 70
     0
102
RTVSPost2010Prop31
280
     0
102
RTVSPost2010PropOp31
 70
     0
102
RTVSPost2010Prop32
280
     0
102
RTVSPost2010PropOp32
 70
     0
102
RTVSPost2010Prop33
280
     0
102
RTVSPost2010PropOp33
 70
     0
102
RTVSPost2010Prop34
280
     0
102
RTVSPost2010PropOp34
 70
     0
102
RTVSPost2010Prop35
280
     0
102
RTVSPost2010PropOp35
 70
     0
102
RTVSPost2010Prop36
280
     0
102
RTVSPost2010PropOp36
 70
     0
102
RTVSPost2010Prop37
 90
       50
102
RTVSPost2010PropOp37
 70
     0
102
RTVSPost2010Prop38
140
0.0
102
RTVSPost2010PropOp38
 70
     0
102
RTVSPost2010Prop39
140
1.0
102
RTVSPost2010PropOp39
 70
     0
102
RTVSPost2010Prop40
 90
        0
102
RTVSPost2010PropOp40
 70
     0
102
RTVSPost2010Prop41ColorIndex
 90
       18
102
RTVSPost2010Prop41ColorRGB
 90
        0
102
RTVSPost2010PropOp41
 70
     0
102
RTVSPost2010Prop42
 90
       50
102
RTVSPost2010PropOp42
 70
     0
102
RTVSPost2010Prop43
 90
        3
102
RTVSPost2010PropOp43
 70
     0
102
RTVSPost2010Prop44ColorIndex
 90
        5
102
RTVSPost2010Prop44ColorRGB
 90
      255
102
RTVSPost2010PropOp44
 70
     0
102
RTVSPost2010Prop45
280
     0
102
RTVSPost2010PropOp45
 70
     0
102
RTVSPost2010Prop46
 90
       50
102
RTVSPost2010PropOp46
 70
     0
102
RTVSPost2010Prop47
 90
       50
102
RTVSPost2010PropOp47
 70
     0
102
RTVSPost2010Prop48
 90
       50
102
RTVSPost2010PropOp48
 70
     0
102
RTVSPost2010Prop49
280
     0
102
RTVSPost2010PropOp49
 70
     0
102
RTVSPost2010Prop50
 90
       50
102
RTVSPost2010PropOp50
 70
     0
102
RTVSPost2010Prop51ColorIndex
 90
      256
102
RTVSPost2010Prop51ColorRGB
 90
-16777216
102
RTVSPost2010PropOp51
 70
     0
102
RTVSPost2010Prop52
140
1.0
102
RTVSPost2010PropOp52
 70
     0
102
RTVSPost2010Prop53
 90
        2
102
RTVSPost2010PropOp53
 70
     0
102
RTVSPost2010Prop54
  1
strokes_ogs.tif
102
RTVSPost2010PropOp54
 70
     0
102
RTVSPost2010Prop55
280
     0
102
RTVSPost2010PropOp55
 70
     0
102
RTVSPost2010Prop56
140
1.0
102
RTVSPost2010PropOp56
 70
     0
102
RTVSPost2010Prop57
140
1.0
102
RTVSPost2010PropOp57
 70
     0
  0
XRECORD
  5
3C6
102
{ACAD_REACTORS
330
3C5
102
}
330
3C5
100
AcDbXrecord
280
     1
102
RTVSPropertyOp0
 70
     1
102
RTVSPropertyOp1
 70
     1
102
RTVSPropertyOp2
 70
     1
102
RTVSPropertyOp3
 70
     1
102
RTVSPropertyOp4
 70
     1
102
RTVSPropertyOp5
 70
     1
102
RTVSPropertyOp6
 70
     1
102
RTVSPropertyOp7
 70
     1
102
RTVSPropertyOp8
 70
     1
102
RTVSPropertyOp9
 70
     1
102
RTVSPropertyOp10
 70
     1
102
RTVSPropertyOp11
 70
     1
102
RTVSPropertyOp12
 70
     1
102
RTVSPropertyOp13
 70
     1
102
RTVSPropertyOp14
 70
     1
102
RTVSPropertyOp15
 70
     1
102
RTVSPropertyOp16
 70
     1
102
RTVSPropertyOp17
 70
     1
102
RTVSPropertyOp18
 70
     1
102
RTVSPropertyOp19
 70
     1
102
RTVSPropertyOp20
 70
     1
102
RTVSPropertyOp21
 70
     1
102
RTVSPropertyOp22
 70
     1
102
RTVSPropertyOp23
 70
     1
102
RTVSPropertyOp24
 70
     1
102
RTVSPropertyOp25
 70
     1
102
RTVSPropertyOp26
 70
     1
102
RTVSPropertyOp27
 70
     1
102
RTVSPropertyOp28
 70
     1
102
RTVSPropertyOp29
 70
     1
102
RTVSPropertyOp30
 70
     1
102
RTVSPropertyOp31
 70
     1
102
RTVSPropertyOp32
 70
     1
102
RTVSPropertyOp33
 70
     1
102
RTVSPropertyOp34
 70
     1
102
RTVSPropertyOp35
 70
     1
102
RTVSPropertyOp36
 70
     1
102
RTVSPropertyOp37
 70
     1
102
RTVSPropertyOp38
 70
     1
102
RTVSPropertyOp39
 70
     1
102
RTVSPropertyOp40
 70
     1
102
RTVSPropertyOp41
 70
     1
102
RTVSPropertyOp42
 70
     1
102
RTVSPropertyOp43
 70
     1
102
RTVSPropertyOp44
 70
     1
102
RTVSPropertyOp45
 70
     1
102
RTVSPropertyOp46
 70
     1
102
RTVSPropertyOp47
 70
     1
102
RTVSPropertyOp48
 70
     1
102
RTVSPropertyOp49
 70
     1
102
RTVSPropertyOp50
 70
     1
102
RTVSPropertyOp51
 70
     0
102
RTVSPropertyOp52
 70
     0
102
RTVSPropertyOp53
 70
     1
102
RTVSPropertyOp54
 70
     1
102
RTVSPropertyOp55
 70
     1
102
RTVSPropertyOp56
 70
     1
102
RTVSPropertyOp57
 70
     1
102
RTVSPost2010Prop28
280
     0
102
RTVSPost2010PropOp28
 70
     1
102
RTVSPost2010Prop29
280
     1
102
RTVSPost2010PropOp29
 70
     1
102
RTVSPost2010Prop30
280
     1
102
RTVSPost2010PropOp30
 70
     1
102
RTVSPost2010Prop31
280
     0
102
RTVSPost2010PropOp31
 70
     1
102
RTVSPost2010Prop32
280
     0
102
RTVSPost2010PropOp32
 70
     1
102
RTVSPost2010Prop33
280
     0
102
RTVSPost2010PropOp33
 70
     1
102
RTVSPost2010Prop34
280
     0
102
RTVSPost2010PropOp34
 70
     1
102
RTVSPost2010Prop35
280
     0
102
RTVSPost2010PropOp35
 70
     1
102
RTVSPost2010Prop36
280
     0
102
RTVSPost2010PropOp36
 70
     1
102
RTVSPost2010Prop37
 90
       50
102
RTVSPost2010PropOp37
 70
     1
102
RTVSPost2010Prop38
140
0.0
102
RTVSPost2010PropOp38
 70
     1
102
RTVSPost2010Prop39
140
1.0
102
RTVSPost2010PropOp39
 70
     1
102
RTVSPost2010Prop40
 90
        0
102
RTVSPost2010PropOp40
 70
     1
102
RTVSPost2010Prop41ColorIndex
 90
       18
102
RTVSPost2010Prop41ColorRGB
 90
        0
102
RTVSPost2010PropOp41
 70
     1
102
RTVSPost2010Prop42
 90
       50
102
RTVSPost2010PropOp42
 70
     1
102
RTVSPost2010Prop43
 90
        3
102
RTVSPost2010PropOp43
 70
     1
102
RTVSPost2010Prop44ColorIndex
 90
        5
102
RTVSPost2010Prop44ColorRGB
 90
      255
102
RTVSPost2010PropOp44
 70
     1
102
RTVSPost2010Prop45
280
     0
102
RTVSPost2010PropOp45
 70
     1
102
RTVSPost2010Prop46
 90
       50
102
RTVSPost2010PropOp46
 70
     1
102
RTVSPost2010Prop47
 90
       50
102
RTVSPost2010PropOp47
 70
     1
102
RTVSPost2010Prop48
 90
       50
102
RTVSPost2010PropOp48
 70
     1
102
RTVSPost2010Prop49
280
     0
102
RTVSPost2010PropOp49
 70
     1
102
RTVSPost2010Prop50
 90
       50
102
RTVSPost2010PropOp50
 70
     1
102
RTVSPost2010Prop51ColorIndex
 90
      256
102
RTVSPost2010Prop51ColorRGB
 90
-16777216
102
RTVSPost2010PropOp51
 70
     0
102
RTVSPost2010Prop52
140
1.0
102
RTVSPost2010PropOp52
 70
     0
102
RTVSPost2010Prop53
 90
        2
102
RTVSPost2010PropOp53
 70
     1
102
RTVSPost2010Prop54
  1
strokes_ogs.tif
102
RTVSPost2010PropOp54
 70
     1
102
RTVSPost2010Prop55
280
     0
102
RTVSPost2010PropOp55
 70
     1
102
RTVSPost2010Prop56
140
1.0
102
RTVSPost2010PropOp56
 70
     1
102
RTVSPost2010Prop57
140
1.0
102
RTVSPost2010PropOp57
 70
     1
  0
XRECORD
  5
3CE
102
{ACAD_REACTORS
330
3CD
102
}
330
3CD
100
AcDbXrecord
280
     1
102
RTVSPropertyOp0
 70
     0
102
RTVSPropertyOp1
 70
     0
102
RTVSPropertyOp2
 70
     0
102
RTVSPropertyOp3
 70
     0
102
RTVSPropertyOp4
 70
     0
102
RTVSPropertyOp5
 70
     0
102
RTVSPropertyOp6
 70
     0
102
RTVSPropertyOp7
 70
     0
102
RTVSPropertyOp8
 70
     0
102
RTVSPropertyOp9
 70
     0
102
RTVSPropertyOp10
 70
     0
102
RTVSPropertyOp11
 70
     0
102
RTVSPropertyOp12
 70
     0
102
RTVSPropertyOp13
 70
     0
102
RTVSPropertyOp14
 70
     2
102
RTVSPropertyOp15
 70
     0
102
RTVSPropertyOp16
 70
     0
102
RTVSPropertyOp17
 70
     0
102
RTVSPropertyOp18
 70
     0
102
RTVSPropertyOp19
 70
     0
102
RTVSPropertyOp20
 70
     0
102
RTVSPropertyOp21
 70
     0
102
RTVSPropertyOp22
 70
     0
102
RTVSPropertyOp23
 70
     0
102
RTVSPropertyOp24
 70
     0
102
RTVSPropertyOp25
 70
     0
102
RTVSPropertyOp26
 70
     0
102
RTVSPropertyOp27
 70
     0
102
RTVSPropertyOp28
 70
     0
102
RTVSPropertyOp29
 70
     0
102
RTVSPropertyOp30
 70
     0
102
RTVSPropertyOp31
 70
     0
102
RTVSPropertyOp32
 70
     0
102
RTVSPropertyOp33
 70
     0
102
RTVSPropertyOp34
 70
     0
102
RTVSPropertyOp35
 70
     0
102
RTVSPropertyOp36
 70
     0
102
RTVSPropertyOp37
 70
     0
102
RTVSPropertyOp38
 70
     0
102
RTVSPropertyOp39
 70
     0
102
RTVSPropertyOp40
 70
     0
102
RTVSPropertyOp41
 70
     0
102
RTVSPropertyOp42
 70
     0
102
RTVSPropertyOp43
 70
     0
102
RTVSPropertyOp44
 70
     0
102
RTVSPropertyOp45
 70
     0
102
RTVSPropertyOp46
 70
     0
102
RTVSPropertyOp47
 70
     0
102
RTVSPropertyOp48
 70
     0
102
RTVSPropertyOp49
 70
     0
102
RTVSPropertyOp50
 70
     0
102
RTVSPropertyOp51
 70
     0
102
RTVSPropertyOp52
 70
     0
102
RTVSPropertyOp53
 70
     0
102
RTVSPropertyOp54
 70
     0
102
RTVSPropertyOp55
 70
     0
102
RTVSPropertyOp56
 70
     0
102
RTVSPropertyOp57
 70
     0
102
RTVSPost2010Prop28
280
     0
102
RTVSPost2010PropOp28
 70
     0
102
RTVSPost2010Prop29
280
     1
102
RTVSPost2010PropOp29
 70
     0
102
RTVSPost2010Prop30
280
     1
102
RTVSPost2010PropOp30
 70
     0
102
RTVSPost2010Prop31
280
     0
102
RTVSPost2010PropOp31
 70
     0
102
RTVSPost2010Prop32
280
     0
102
RTVSPost2010PropOp32
 70
     0
102
RTVSPost2010Prop33
280
     0
102
RTVSPost2010PropOp33
 70
     0
102
RTVSPost2010Prop34
280
     0
102
RTVSPost2010PropOp34
 70
     0
102
RTVSPost2010Prop35
280
     0
102
RTVSPost2010PropOp35
 70
     0
102
RTVSPost2010Prop36
280
     0
102
RTVSPost2010PropOp36
 70
     0
102
RTVSPost2010Prop37
 90
       50
102
RTVSPost2010PropOp37
 70
     0
102
RTVSPost2010Prop38
140
0.0
102
RTVSPost2010PropOp38
 70
     0
102
RTVSPost2010Prop39
140
1.0
102
RTVSPost2010PropOp39
 70
     0
102
RTVSPost2010Prop40
 90
        0
102
RTVSPost2010PropOp40
 70
     0
102
RTVSPost2010Prop41ColorIndex
 90
       18
102
RTVSPost2010Prop41ColorRGB
 90
        0
102
RTVSPost2010PropOp41
 70
     0
102
RTVSPost2010Prop42
 90
       50
102
RTVSPost2010PropOp42
 70
     0
102
RTVSPost2010Prop43
 90
        3
102
RTVSPost2010PropOp43
 70
     0
102
RTVSPost2010Prop44ColorIndex
 90
        5
102
RTVSPost2010Prop44ColorRGB
 90
      255
102
RTVSPost2010PropOp44
 70
     0
102
RTVSPost2010Prop45
280
     0
102
RTVSPost2010PropOp45
 70
     0
102
RTVSPost2010Prop46
 90
       50
102
RTVSPost2010PropOp46
 70
     0
102
RTVSPost2010Prop47
 90
       50
102
RTVSPost2010PropOp47
 70
     0
102
RTVSPost2010Prop48
 90
       50
102
RTVSPost2010PropOp48
 70
     0
102
RTVSPost2010Prop49
280
     0
102
RTVSPost2010PropOp49
 70
     0
102
RTVSPost2010Prop50
 90
       50
102
RTVSPost2010PropOp50
 70
     0
102
RTVSPost2010Prop51ColorIndex
 90
      256
102
RTVSPost2010Prop51ColorRGB
 90
-16777216
102
RTVSPost2010PropOp51
 70
     0
102
RTVSPost2010Prop52
140
1.0
102
RTVSPost2010PropOp52
 70
     0
102
RTVSPost2010Prop53
 90
        2
102
RTVSPost2010PropOp53
 70
     0
102
RTVSPost2010Prop54
  1
strokes_ogs.tif
102
RTVSPost2010PropOp54
 70
     0
102
RTVSPost2010Prop55
280
     0
102
RTVSPost2010PropOp55
 70
     0
102
RTVSPost2010Prop56
140
1.0
102
RTVSPost2010PropOp56
 70
     0
102
RTVSPost2010Prop57
140
1.0
102
RTVSPost2010PropOp57
 70
     0
  0
XRECORD
  5
3BC
102
{ACAD_REACTORS
330
3BB
102
}
330
3BB
100
AcDbXrecord
280
     1
102
RTVSPropertyOp0
 70
     1
102
RTVSPropertyOp1
 70
     1
102
RTVSPropertyOp2
 70
     1
102
RTVSPropertyOp3
 70
     1
102
RTVSPropertyOp4
 70
     1
102
RTVSPropertyOp5
 70
     1
102
RTVSPropertyOp6
 70
     1
102
RTVSPropertyOp7
 70
     1
102
RTVSPropertyOp8
 70
     1
102
RTVSPropertyOp9
 70
     1
102
RTVSPropertyOp10
 70
     1
102
RTVSPropertyOp11
 70
     1
102
RTVSPropertyOp12
 70
     1
102
RTVSPropertyOp13
 70
     1
102
RTVSPropertyOp14
 70
     1
102
RTVSPropertyOp15
 70
     1
102
RTVSPropertyOp16
 70
     1
102
RTVSPropertyOp17
 70
     1
102
RTVSPropertyOp18
 70
     1
102
RTVSPropertyOp19
 70
     1
102
RTVSPropertyOp20
 70
     1
102
RTVSPropertyOp21
 70
     1
102
RTVSPropertyOp22
 70
     1
102
RTVSPropertyOp23
 70
     1
102
RTVSPropertyOp24
 70
     1
102
RTVSPropertyOp25
 70
     1
102
RTVSPropertyOp26
 70
     1
102
RTVSPropertyOp27
 70
     1
102
RTVSPropertyOp28
 70
     1
102
RTVSPropertyOp29
 70
     1
102
RTVSPropertyOp30
 70
     1
102
RTVSPropertyOp31
 70
     1
102
RTVSPropertyOp32
 70
     1
102
RTVSPropertyOp33
 70
     1
102
RTVSPropertyOp34
 70
     1
102
RTVSPropertyOp35
 70
     1
102
RTVSPropertyOp36
 70
     1
102
RTVSPropertyOp37
 70
     1
102
RTVSPropertyOp38
 70
     1
102
RTVSPropertyOp39
 70
     1
102
RTVSPropertyOp40
 70
     1
102
RTVSPropertyOp41
 70
     1
102
RTVSPropertyOp42
 70
     1
102
RTVSPropertyOp43
 70
     1
102
RTVSPropertyOp44
 70
     1
102
RTVSPropertyOp45
 70
     1
102
RTVSPropertyOp46
 70
     1
102
RTVSPropertyOp47
 70
     1
102
RTVSPropertyOp48
 70
     1
102
RTVSPropertyOp49
 70
     1
102
RTVSPropertyOp50
 70
     1
102
RTVSPropertyOp51
 70
     0
102
RTVSPropertyOp52
 70
     0
102
RTVSPropertyOp53
 70
     1
102
RTVSPropertyOp54
 70
     1
102
RTVSPropertyOp55
 70
     1
102
RTVSPropertyOp56
 70
     1
102
RTVSPropertyOp57
 70
     1
102
RTVSPost2010Prop28
280
     0
102
RTVSPost2010PropOp28
 70
     1
102
RTVSPost2010Prop29
280
     1
102
RTVSPost2010PropOp29
 70
     1
102
RTVSPost2010Prop30
280
     1
102
RTVSPost2010PropOp30
 70
     1
102
RTVSPost2010Prop31
280
     0
102
RTVSPost2010PropOp31
 70
     1
102
RTVSPost2010Prop32
280
     0
102
RTVSPost2010PropOp32
 70
     1
102
RTVSPost2010Prop33
280
     0
102
RTVSPost2010PropOp33
 70
     1
102
RTVSPost2010Prop34
280
     0
102
RTVSPost2010PropOp34
 70
     1
102
RTVSPost2010Prop35
280
     0
102
RTVSPost2010PropOp35
 70
     1
102
RTVSPost2010Prop36
280
     0
102
RTVSPost2010PropOp36
 70
     1
102
RTVSPost2010Prop37
 90
       50
102
RTVSPost2010PropOp37
 70
     1
102
RTVSPost2010Prop38
140
0.0
102
RTVSPost2010PropOp38
 70
     1
102
RTVSPost2010Prop39
140
1.0
102
RTVSPost2010PropOp39
 70
     1
102
RTVSPost2010Prop40
 90
        0
102
RTVSPost2010PropOp40
 70
     1
102
RTVSPost2010Prop41ColorIndex
 90
       18
102
RTVSPost2010Prop41ColorRGB
 90
        0
102
RTVSPost2010PropOp41
 70
     1
102
RTVSPost2010Prop42
 90
       50
102
RTVSPost2010PropOp42
 70
     1
102
RTVSPost2010Prop43
 90
        3
102
RTVSPost2010PropOp43
 70
     1
102
RTVSPost2010Prop44ColorIndex
 90
        5
102
RTVSPost2010Prop44ColorRGB
 90
      255
102
RTVSPost2010PropOp44
 70
     1
102
RTVSPost2010Prop45
280
     0
102
RTVSPost2010PropOp45
 70
     1
102
RTVSPost2010Prop46
 90
       50
102
RTVSPost2010PropOp46
 70
     1
102
RTVSPost2010Prop47
 90
       50
102
RTVSPost2010PropOp47
 70
     1
102
RTVSPost2010Prop48
 90
       50
102
RTVSPost2010PropOp48
 70
     1
102
RTVSPost2010Prop49
280
     0
102
RTVSPost2010PropOp49
 70
     1
102
RTVSPost2010Prop50
 90
       50
102
RTVSPost2010PropOp50
 70
     1
102
RTVSPost2010Prop51ColorIndex
 90
      256
102
RTVSPost2010Prop51ColorRGB
 90
-16777216
102
RTVSPost2010PropOp51
 70
     0
102
RTVSPost2010Prop52
140
1.0
102
RTVSPost2010PropOp52
 70
     0
102
RTVSPost2010Prop53
 90
        2
102
RTVSPost2010PropOp53
 70
     1
102
RTVSPost2010Prop54
  1
strokes_ogs.tif
102
RTVSPost2010PropOp54
 70
     1
102
RTVSPost2010Prop55
280
     0
102
RTVSPost2010PropOp55
 70
     1
102
RTVSPost2010Prop56
140
1.0
102
RTVSPost2010PropOp56
 70
     1
102
RTVSPost2010Prop57
140
1.0
102
RTVSPost2010PropOp57
 70
     1
  0
XRECORD
  5
3DA
102
{ACAD_REACTORS
330
3D9
102
}
330
3D9
100
AcDbXrecord
280
     1
102
RTVSPropertyOp0
 70
     1
102
RTVSPropertyOp1
 70
     1
102
RTVSPropertyOp2
 70
     1
102
RTVSPropertyOp3
 70
     1
102
RTVSPropertyOp4
 70
     1
102
RTVSPropertyOp5
 70
     1
102
RTVSPropertyOp6
 70
     1
102
RTVSPropertyOp7
 70
     1
102
RTVSPropertyOp8
 70
     1
102
RTVSPropertyOp9
 70
     1
102
RTVSPropertyOp10
 70
     1
102
RTVSPropertyOp11
 70
     1
102
RTVSPropertyOp12
 70
     1
102
RTVSPropertyOp13
 70
     1
102
RTVSPropertyOp14
 70
     1
102
RTVSPropertyOp15
 70
     1
102
RTVSPropertyOp16
 70
     1
102
RTVSPropertyOp17
 70
     1
102
RTVSPropertyOp18
 70
     1
102
RTVSPropertyOp19
 70
     1
102
RTVSPropertyOp20
 70
     1
102
RTVSPropertyOp21
 70
     1
102
RTVSPropertyOp22
 70
     1
102
RTVSPropertyOp23
 70
     1
102
RTVSPropertyOp24
 70
     1
102
RTVSPropertyOp25
 70
     1
102
RTVSPropertyOp26
 70
     1
102
RTVSPropertyOp27
 70
     1
102
RTVSPropertyOp28
 70
     1
102
RTVSPropertyOp29
 70
     1
102
RTVSPropertyOp30
 70
     1
102
RTVSPropertyOp31
 70
     1
102
RTVSPropertyOp32
 70
     1
102
RTVSPropertyOp33
 70
     1
102
RTVSPropertyOp34
 70
     1
102
RTVSPropertyOp35
 70
     1
102
RTVSPropertyOp36
 70
     1
102
RTVSPropertyOp37
 70
     1
102
RTVSPropertyOp38
 70
     1
102
RTVSPropertyOp39
 70
     1
102
RTVSPropertyOp40
 70
     1
102
RTVSPropertyOp41
 70
     1
102
RTVSPropertyOp42
 70
     1
102
RTVSPropertyOp43
 70
     1
102
RTVSPropertyOp44
 70
     1
102
RTVSPropertyOp45
 70
     1
102
RTVSPropertyOp46
 70
     1
102
RTVSPropertyOp47
 70
     1
102
RTVSPropertyOp48
 70
     1
102
RTVSPropertyOp49
 70
     1
102
RTVSPropertyOp50
 70
     1
102
RTVSPropertyOp51
 70
     0
102
RTVSPropertyOp52
 70
     0
102
RTVSPropertyOp53
 70
     1
102
RTVSPropertyOp54
 70
     1
102
RTVSPropertyOp55
 70
     1
102
RTVSPropertyOp56
 70
     1
102
RTVSPropertyOp57
 70
     1
102
RTVSPost2010Prop28
280
     0
102
RTVSPost2010PropOp28
 70
     1
102
RTVSPost2010Prop29
280
     1
102
RTVSPost2010PropOp29
 70
     1
102
RTVSPost2010Prop30
280
     1
102
RTVSPost2010PropOp30
 70
     1
102
RTVSPost2010Prop31
280
     0
102
RTVSPost2010PropOp31
 70
     1
102
RTVSPost2010Prop32
280
     0
102
RTVSPost2010PropOp32
 70
     1
102
RTVSPost2010Prop33
280
     0
102
RTVSPost2010PropOp33
 70
     1
102
RTVSPost2010Prop34
280
     0
102
RTVSPost2010PropOp34
 70
     1
102
RTVSPost2010Prop35
280
     0
102
RTVSPost2010PropOp35
 70
     1
102
RTVSPost2010Prop36
280
     0
102
RTVSPost2010PropOp36
 70
     1
102
RTVSPost2010Prop37
 90
       50
102
RTVSPost2010PropOp37
 70
     1
102
RTVSPost2010Prop38
140
0.0
102
RTVSPost2010PropOp38
 70
     1
102
RTVSPost2010Prop39
140
1.0
102
RTVSPost2010PropOp39
 70
     1
102
RTVSPost2010Prop40
 90
        0
102
RTVSPost2010PropOp40
 70
     1
102
RTVSPost2010Prop41ColorIndex
 90
       18
102
RTVSPost2010Prop41ColorRGB
 90
        0
102
RTVSPost2010PropOp41
 70
     1
102
RTVSPost2010Prop42
 90
       50
102
RTVSPost2010PropOp42
 70
     1
102
RTVSPost2010Prop43
 90
        3
102
RTVSPost2010PropOp43
 70
     1
102
RTVSPost2010Prop44ColorIndex
 90
        5
102
RTVSPost2010Prop44ColorRGB
 90
      255
102
RTVSPost2010PropOp44
 70
     1
102
RTVSPost2010Prop45
280
     0
102
RTVSPost2010PropOp45
 70
     1
102
RTVSPost2010Prop46
 90
       50
102
RTVSPost2010PropOp46
 70
     1
102
RTVSPost2010Prop47
 90
       50
102
RTVSPost2010PropOp47
 70
     1
102
RTVSPost2010Prop48
 90
       50
102
RTVSPost2010PropOp48
 70
     1
102
RTVSPost2010Prop49
280
     0
102
RTVSPost2010PropOp49
 70
     1
102
RTVSPost2010Prop50
 90
       50
102
RTVSPost2010PropOp50
 70
     1
102
RTVSPost2010Prop51ColorIndex
 90
      256
102
RTVSPost2010Prop51ColorRGB
 90
-16777216
102
RTVSPost2010PropOp51
 70
     0
102
RTVSPost2010Prop52
140
1.0
102
RTVSPost2010PropOp52
 70
     0
102
RTVSPost2010Prop53
 90
        2
102
RTVSPost2010PropOp53
 70
     1
102
RTVSPost2010Prop54
  1
strokes_ogs.tif
102
RTVSPost2010PropOp54
 70
     1
102
RTVSPost2010Prop55
280
     0
102
RTVSPost2010PropOp55
 70
     1
102
RTVSPost2010Prop56
140
1.0
102
RTVSPost2010PropOp56
 70
     1
102
RTVSPost2010Prop57
140
1.0
102
RTVSPost2010PropOp57
 70
     1
  0
XRECORD
  5
3D8
102
{ACAD_REACTORS
330
3D7
102
}
330
3D7
100
AcDbXrecord
280
     1
102
RTVSPropertyOp0
 70
     1
102
RTVSPropertyOp1
 70
     1
102
RTVSPropertyOp2
 70
     1
102
RTVSPropertyOp3
 70
     1
102
RTVSPropertyOp4
 70
     1
102
RTVSPropertyOp5
 70
     1
102
RTVSPropertyOp6
 70
     1
102
RTVSPropertyOp7
 70
     1
102
RTVSPropertyOp8
 70
     1
102
RTVSPropertyOp9
 70
     1
102
RTVSPropertyOp10
 70
     1
102
RTVSPropertyOp11
 70
     1
102
RTVSPropertyOp12
 70
     1
102
RTVSPropertyOp13
 70
     1
102
RTVSPropertyOp14
 70
     1
102
RTVSPropertyOp15
 70
     1
102
RTVSPropertyOp16
 70
     1
102
RTVSPropertyOp17
 70
     1
102
RTVSPropertyOp18
 70
     1
102
RTVSPropertyOp19
 70
     1
102
RTVSPropertyOp20
 70
     1
102
RTVSPropertyOp21
 70
     1
102
RTVSPropertyOp22
 70
     1
102
RTVSPropertyOp23
 70
     1
102
RTVSPropertyOp24
 70
     1
102
RTVSPropertyOp25
 70
     1
102
RTVSPropertyOp26
 70
     1
102
RTVSPropertyOp27
 70
     1
102
RTVSPropertyOp28
 70
     1
102
RTVSPropertyOp29
 70
     1
102
RTVSPropertyOp30
 70
     1
102
RTVSPropertyOp31
 70
     1
102
RTVSPropertyOp32
 70
     1
102
RTVSPropertyOp33
 70
     1
102
RTVSPropertyOp34
 70
     1
102
RTVSPropertyOp35
 70
     1
102
RTVSPropertyOp36
 70
     1
102
RTVSPropertyOp37
 70
     1
102
RTVSPropertyOp38
 70
     1
102
RTVSPropertyOp39
 70
     1
102
RTVSPropertyOp40
 70
     1
102
RTVSPropertyOp41
 70
     1
102
RTVSPropertyOp42
 70
     1
102
RTVSPropertyOp43
 70
     1
102
RTVSPropertyOp44
 70
     1
102
RTVSPropertyOp45
 70
     1
102
RTVSPropertyOp46
 70
     1
102
RTVSPropertyOp47
 70
     1
102
RTVSPropertyOp48
 70
     1
102
RTVSPropertyOp49
 70
     1
102
RTVSPropertyOp50
 70
     1
102
RTVSPropertyOp51
 70
     0
102
RTVSPropertyOp52
 70
     0
102
RTVSPropertyOp53
 70
     1
102
RTVSPropertyOp54
 70
     1
102
RTVSPropertyOp55
 70
     1
102
RTVSPropertyOp56
 70
     1
102
RTVSPropertyOp57
 70
     1
102
RTVSPost2010Prop28
280
     0
102
RTVSPost2010PropOp28
 70
     1
102
RTVSPost2010Prop29
280
     1
102
RTVSPost2010PropOp29
 70
     1
102
RTVSPost2010Prop30
280
     1
102
RTVSPost2010PropOp30
 70
     1
102
RTVSPost2010Prop31
280
     0
102
RTVSPost2010PropOp31
 70
     1
102
RTVSPost2010Prop32
280
     0
102
RTVSPost2010PropOp32
 70
     1
102
RTVSPost2010Prop33
280
     0
102
RTVSPost2010PropOp33
 70
     1
102
RTVSPost2010Prop34
280
     0
102
RTVSPost2010PropOp34
 70
     1
102
RTVSPost2010Prop35
280
     0
102
RTVSPost2010PropOp35
 70
     1
102
RTVSPost2010Prop36
280
     0
102
RTVSPost2010PropOp36
 70
     1
102
RTVSPost2010Prop37
 90
       50
102
RTVSPost2010PropOp37
 70
     1
102
RTVSPost2010Prop38
140
0.0
102
RTVSPost2010PropOp38
 70
     1
102
RTVSPost2010Prop39
140
1.0
102
RTVSPost2010PropOp39
 70
     1
102
RTVSPost2010Prop40
 90
        0
102
RTVSPost2010PropOp40
 70
     1
102
RTVSPost2010Prop41ColorIndex
 90
       18
102
RTVSPost2010Prop41ColorRGB
 90
        0
102
RTVSPost2010PropOp41
 70
     1
102
RTVSPost2010Prop42
 90
       50
102
RTVSPost2010PropOp42
 70
     1
102
RTVSPost2010Prop43
 90
        3
102
RTVSPost2010PropOp43
 70
     1
102
RTVSPost2010Prop44ColorIndex
 90
        5
102
RTVSPost2010Prop44ColorRGB
 90
      255
102
RTVSPost2010PropOp44
 70
     1
102
RTVSPost2010Prop45
280
     0
102
RTVSPost2010PropOp45
 70
     1
102
RTVSPost2010Prop46
 90
       50
102
RTVSPost2010PropOp46
 70
     1
102
RTVSPost2010Prop47
 90
       50
102
RTVSPost2010PropOp47
 70
     1
102
RTVSPost2010Prop48
 90
       50
102
RTVSPost2010PropOp48
 70
     1
102
RTVSPost2010Prop49
280
     0
102
RTVSPost2010PropOp49
 70
     1
102
RTVSPost2010Prop50
 90
       50
102
RTVSPost2010PropOp50
 70
     1
102
RTVSPost2010Prop51ColorIndex
 90
      256
102
RTVSPost2010Prop51ColorRGB
 90
-16777216
102
RTVSPost2010PropOp51
 70
     0
102
RTVSPost2010Prop52
140
1.0
102
RTVSPost2010PropOp52
 70
     0
102
RTVSPost2010Prop53
 90
        2
102
RTVSPost2010PropOp53
 70
     1
102
RTVSPost2010Prop54
  1
strokes_ogs.tif
102
RTVSPost2010PropOp54
 70
     1
102
RTVSPost2010Prop55
280
     0
102
RTVSPost2010PropOp55
 70
     1
102
RTVSPost2010Prop56
140
1.0
102
RTVSPost2010PropOp56
 70
     1
102
RTVSPost2010Prop57
140
1.0
102
RTVSPost2010PropOp57
 70
     1
  0
XRECORD
  5
3D2
102
{ACAD_REACTORS
330
3D1
102
}
330
3D1
100
AcDbXrecord
280
     1
102
RTVSPropertyOp0
 70
     1
102
RTVSPropertyOp1
 70
     1
102
RTVSPropertyOp2
 70
     1
102
RTVSPropertyOp3
 70
     1
102
RTVSPropertyOp4
 70
     1
102
RTVSPropertyOp5
 70
     1
102
RTVSPropertyOp6
 70
     1
102
RTVSPropertyOp7
 70
     1
102
RTVSPropertyOp8
 70
     1
102
RTVSPropertyOp9
 70
     1
102
RTVSPropertyOp10
 70
     1
102
RTVSPropertyOp11
 70
     1
102
RTVSPropertyOp12
 70
     1
102
RTVSPropertyOp13
 70
     1
102
RTVSPropertyOp14
 70
     1
102
RTVSPropertyOp15
 70
     1
102
RTVSPropertyOp16
 70
     1
102
RTVSPropertyOp17
 70
     1
102
RTVSPropertyOp18
 70
     1
102
RTVSPropertyOp19
 70
     1
102
RTVSPropertyOp20
 70
     1
102
RTVSPropertyOp21
 70
     1
102
RTVSPropertyOp22
 70
     1
102
RTVSPropertyOp23
 70
     1
102
RTVSPropertyOp24
 70
     1
102
RTVSPropertyOp25
 70
     1
102
RTVSPropertyOp26
 70
     1
102
RTVSPropertyOp27
 70
     1
102
RTVSPropertyOp28
 70
     1
102
RTVSPropertyOp29
 70
     1
102
RTVSPropertyOp30
 70
     1
102
RTVSPropertyOp31
 70
     1
102
RTVSPropertyOp32
 70
     1
102
RTVSPropertyOp33
 70
     1
102
RTVSPropertyOp34
 70
     1
102
RTVSPropertyOp35
 70
     1
102
RTVSPropertyOp36
 70
     1
102
RTVSPropertyOp37
 70
     1
102
RTVSPropertyOp38
 70
     1
102
RTVSPropertyOp39
 70
     1
102
RTVSPropertyOp40
 70
     1
102
RTVSPropertyOp41
 70
     1
102
RTVSPropertyOp42
 70
     1
102
RTVSPropertyOp43
 70
     1
102
RTVSPropertyOp44
 70
     1
102
RTVSPropertyOp45
 70
     1
102
RTVSPropertyOp46
 70
     1
102
RTVSPropertyOp47
 70
     1
102
RTVSPropertyOp48
 70
     1
102
RTVSPropertyOp49
 70
     1
102
RTVSPropertyOp50
 70
     1
102
RTVSPropertyOp51
 70
     0
102
RTVSPropertyOp52
 70
     0
102
RTVSPropertyOp53
 70
     1
102
RTVSPropertyOp54
 70
     1
102
RTVSPropertyOp55
 70
     1
102
RTVSPropertyOp56
 70
     1
102
RTVSPropertyOp57
 70
     1
102
RTVSPost2010Prop28
280
     0
102
RTVSPost2010PropOp28
 70
     1
102
RTVSPost2010Prop29
280
     1
102
RTVSPost2010PropOp29
 70
     1
102
RTVSPost2010Prop30
280
     1
102
RTVSPost2010PropOp30
 70
     1
102
RTVSPost2010Prop31
280
     0
102
RTVSPost2010PropOp31
 70
     1
102
RTVSPost2010Prop32
280
     0
102
RTVSPost2010PropOp32
 70
     1
102
RTVSPost2010Prop33
280
     0
102
RTVSPost2010PropOp33
 70
     1
102
RTVSPost2010Prop34
280
     0
102
RTVSPost2010PropOp34
 70
     1
102
RTVSPost2010Prop35
280
     0
102
RTVSPost2010PropOp35
 70
     1
102
RTVSPost2010Prop36
280
     0
102
RTVSPost2010PropOp36
 70
     1
102
RTVSPost2010Prop37
 90
       50
102
RTVSPost2010PropOp37
 70
     1
102
RTVSPost2010Prop38
140
0.0
102
RTVSPost2010PropOp38
 70
     1
102
RTVSPost2010Prop39
140
1.0
102
RTVSPost2010PropOp39
 70
     1
102
RTVSPost2010Prop40
 90
        0
102
RTVSPost2010PropOp40
 70
     1
102
RTVSPost2010Prop41ColorIndex
 90
       18
102
RTVSPost2010Prop41ColorRGB
 90
        0
102
RTVSPost2010PropOp41
 70
     1
102
RTVSPost2010Prop42
 90
       50
102
RTVSPost2010PropOp42
 70
     1
102
RTVSPost2010Prop43
 90
        3
102
RTVSPost2010PropOp43
 70
     1
102
RTVSPost2010Prop44ColorIndex
 90
        5
102
RTVSPost2010Prop44ColorRGB
 90
      255
102
RTVSPost2010PropOp44
 70
     1
102
RTVSPost2010Prop45
280
     0
102
RTVSPost2010PropOp45
 70
     1
102
RTVSPost2010Prop46
 90
       50
102
RTVSPost2010PropOp46
 70
     1
102
RTVSPost2010Prop47
 90
       50
102
RTVSPost2010PropOp47
 70
     1
102
RTVSPost2010Prop48
 90
       50
102
RTVSPost2010PropOp48
 70
     1
102
RTVSPost2010Prop49
280
     0
102
RTVSPost2010PropOp49
 70
     1
102
RTVSPost2010Prop50
 90
       50
102
RTVSPost2010PropOp50
 70
     1
102
RTVSPost2010Prop51ColorIndex
 90
      256
102
RTVSPost2010Prop51ColorRGB
 90
-16777216
102
RTVSPost2010PropOp51
 70
     0
102
RTVSPost2010Prop52
140
1.0
102
RTVSPost2010PropOp52
 70
     0
102
RTVSPost2010Prop53
 90
        2
102
RTVSPost2010PropOp53
 70
     1
102
RTVSPost2010Prop54
  1
strokes_ogs.tif
102
RTVSPost2010PropOp54
 70
     1
102
RTVSPost2010Prop55
280
     0
102
RTVSPost2010PropOp55
 70
     1
102
RTVSPost2010Prop56
140
1.0
102
RTVSPost2010PropOp56
 70
     1
102
RTVSPost2010Prop57
140
1.0
102
RTVSPost2010PropOp57
 70
     1
  0
XRECORD
  5
3D4
102
{ACAD_REACTORS
330
3D3
102
}
330
3D3
100
AcDbXrecord
280
     1
102
RTVSPropertyOp0
 70
     1
102
RTVSPropertyOp1
 70
     1
102
RTVSPropertyOp2
 70
     1
102
RTVSPropertyOp3
 70
     1
102
RTVSPropertyOp4
 70
     1
102
RTVSPropertyOp5
 70
     1
102
RTVSPropertyOp6
 70
     1
102
RTVSPropertyOp7
 70
     1
102
RTVSPropertyOp8
 70
     1
102
RTVSPropertyOp9
 70
     1
102
RTVSPropertyOp10
 70
     1
102
RTVSPropertyOp11
 70
     1
102
RTVSPropertyOp12
 70
     1
102
RTVSPropertyOp13
 70
     1
102
RTVSPropertyOp14
 70
     1
102
RTVSPropertyOp15
 70
     1
102
RTVSPropertyOp16
 70
     1
102
RTVSPropertyOp17
 70
     1
102
RTVSPropertyOp18
 70
     1
102
RTVSPropertyOp19
 70
     1
102
RTVSPropertyOp20
 70
     1
102
RTVSPropertyOp21
 70
     1
102
RTVSPropertyOp22
 70
     1
102
RTVSPropertyOp23
 70
     1
102
RTVSPropertyOp24
 70
     1
102
RTVSPropertyOp25
 70
     1
102
RTVSPropertyOp26
 70
     1
102
RTVSPropertyOp27
 70
     1
102
RTVSPropertyOp28
 70
     1
102
RTVSPropertyOp29
 70
     1
102
RTVSPropertyOp30
 70
     1
102
RTVSPropertyOp31
 70
     1
102
RTVSPropertyOp32
 70
     1
102
RTVSPropertyOp33
 70
     1
102
RTVSPropertyOp34
 70
     1
102
RTVSPropertyOp35
 70
     1
102
RTVSPropertyOp36
 70
     1
102
RTVSPropertyOp37
 70
     1
102
RTVSPropertyOp38
 70
     1
102
RTVSPropertyOp39
 70
     1
102
RTVSPropertyOp40
 70
     1
102
RTVSPropertyOp41
 70
     1
102
RTVSPropertyOp42
 70
     1
102
RTVSPropertyOp43
 70
     1
102
RTVSPropertyOp44
 70
     1
102
RTVSPropertyOp45
 70
     1
102
RTVSPropertyOp46
 70
     1
102
RTVSPropertyOp47
 70
     1
102
RTVSPropertyOp48
 70
     1
102
RTVSPropertyOp49
 70
     1
102
RTVSPropertyOp50
 70
     1
102
RTVSPropertyOp51
 70
     0
102
RTVSPropertyOp52
 70
     0
102
RTVSPropertyOp53
 70
     1
102
RTVSPropertyOp54
 70
     1
102
RTVSPropertyOp55
 70
     1
102
RTVSPropertyOp56
 70
     1
102
RTVSPropertyOp57
 70
     1
102
RTVSPost2010Prop28
280
     0
102
RTVSPost2010PropOp28
 70
     1
102
RTVSPost2010Prop29
280
     1
102
RTVSPost2010PropOp29
 70
     1
102
RTVSPost2010Prop30
280
     1
102
RTVSPost2010PropOp30
 70
     1
102
RTVSPost2010Prop31
280
     0
102
RTVSPost2010PropOp31
 70
     1
102
RTVSPost2010Prop32
280
     0
102
RTVSPost2010PropOp32
 70
     1
102
RTVSPost2010Prop33
280
     0
102
RTVSPost2010PropOp33
 70
     1
102
RTVSPost2010Prop34
280
     0
102
RTVSPost2010PropOp34
 70
     1
102
RTVSPost2010Prop35
280
     0
102
RTVSPost2010PropOp35
 70
     1
102
RTVSPost2010Prop36
280
     0
102
RTVSPost2010PropOp36
 70
     1
102
RTVSPost2010Prop37
 90
       50
102
RTVSPost2010PropOp37
 70
     1
102
RTVSPost2010Prop38
140
0.0
102
RTVSPost2010PropOp38
 70
     1
102
RTVSPost2010Prop39
140
1.0
102
RTVSPost2010PropOp39
 70
     1
102
RTVSPost2010Prop40
 90
        0
102
RTVSPost2010PropOp40
 70
     1
102
RTVSPost2010Prop41ColorIndex
 90
       18
102
RTVSPost2010Prop41ColorRGB
 90
        0
102
RTVSPost2010PropOp41
 70
     1
102
RTVSPost2010Prop42
 90
       50
102
RTVSPost2010PropOp42
 70
     1
102
RTVSPost2010Prop43
 90
        3
102
RTVSPost2010PropOp43
 70
     1
102
RTVSPost2010Prop44ColorIndex
 90
        5
102
RTVSPost2010Prop44ColorRGB
 90
      255
102
RTVSPost2010PropOp44
 70
     1
102
RTVSPost2010Prop45
280
     0
102
RTVSPost2010PropOp45
 70
     1
102
RTVSPost2010Prop46
 90
       50
102
RTVSPost2010PropOp46
 70
     1
102
RTVSPost2010Prop47
 90
       50
102
RTVSPost2010PropOp47
 70
     1
102
RTVSPost2010Prop48
 90
       50
102
RTVSPost2010PropOp48
 70
     1
102
RTVSPost2010Prop49
280
     0
102
RTVSPost2010PropOp49
 70
     1
102
RTVSPost2010Prop50
 90
       50
102
RTVSPost2010PropOp50
 70
     1
102
RTVSPost2010Prop51ColorIndex
 90
      256
102
RTVSPost2010Prop51ColorRGB
 90
-16777216
102
RTVSPost2010PropOp51
 70
     0
102
RTVSPost2010Prop52
140
1.0
102
RTVSPost2010PropOp52
 70
     0
102
RTVSPost2010Prop53
 90
        2
102
RTVSPost2010PropOp53
 70
     1
102
RTVSPost2010Prop54
  1
strokes_ogs.tif
102
RTVSPost2010PropOp54
 70
     1
102
RTVSPost2010Prop55
280
     0
102
RTVSPost2010PropOp55
 70
     1
102
RTVSPost2010Prop56
140
1.0
102
RTVSPost2010PropOp56
 70
     1
102
RTVSPost2010Prop57
140
1.0
102
RTVSPost2010PropOp57
 70
     1
  0
XRECORD
  5
3C4
102
{ACAD_REACTORS
330
3C3
102
}
330
3C3
100
AcDbXrecord
280
     1
102
RTVSPropertyOp0
 70
     1
102
RTVSPropertyOp1
 70
     1
102
RTVSPropertyOp2
 70
     1
102
RTVSPropertyOp3
 70
     1
102
RTVSPropertyOp4
 70
     1
102
RTVSPropertyOp5
 70
     1
102
RTVSPropertyOp6
 70
     1
102
RTVSPropertyOp7
 70
     1
102
RTVSPropertyOp8
 70
     1
102
RTVSPropertyOp9
 70
     1
102
RTVSPropertyOp10
 70
     1
102
RTVSPropertyOp11
 70
     1
102
RTVSPropertyOp12
 70
     1
102
RTVSPropertyOp13
 70
     1
102
RTVSPropertyOp14
 70
     1
102
RTVSPropertyOp15
 70
     1
102
RTVSPropertyOp16
 70
     1
102
RTVSPropertyOp17
 70
     1
102
RTVSPropertyOp18
 70
     1
102
RTVSPropertyOp19
 70
     1
102
RTVSPropertyOp20
 70
     1
102
RTVSPropertyOp21
 70
     1
102
RTVSPropertyOp22
 70
     1
102
RTVSPropertyOp23
 70
     1
102
RTVSPropertyOp24
 70
     1
102
RTVSPropertyOp25
 70
     1
102
RTVSPropertyOp26
 70
     1
102
RTVSPropertyOp27
 70
     1
102
RTVSPropertyOp28
 70
     1
102
RTVSPropertyOp29
 70
     1
102
RTVSPropertyOp30
 70
     1
102
RTVSPropertyOp31
 70
     1
102
RTVSPropertyOp32
 70
     1
102
RTVSPropertyOp33
 70
     1
102
RTVSPropertyOp34
 70
     1
102
RTVSPropertyOp35
 70
     1
102
RTVSPropertyOp36
 70
     1
102
RTVSPropertyOp37
 70
     1
102
RTVSPropertyOp38
 70
     1
102
RTVSPropertyOp39
 70
     1
102
RTVSPropertyOp40
 70
     1
102
RTVSPropertyOp41
 70
     1
102
RTVSPropertyOp42
 70
     1
102
RTVSPropertyOp43
 70
     1
102
RTVSPropertyOp44
 70
     1
102
RTVSPropertyOp45
 70
     1
102
RTVSPropertyOp46
 70
     1
102
RTVSPropertyOp47
 70
     1
102
RTVSPropertyOp48
 70
     1
102
RTVSPropertyOp49
 70
     1
102
RTVSPropertyOp50
 70
     1
102
RTVSPropertyOp51
 70
     0
102
RTVSPropertyOp52
 70
     0
102
RTVSPropertyOp53
 70
     1
102
RTVSPropertyOp54
 70
     1
102
RTVSPropertyOp55
 70
     1
102
RTVSPropertyOp56
 70
     1
102
RTVSPropertyOp57
 70
     1
102
RTVSPost2010Prop28
280
     0
102
RTVSPost2010PropOp28
 70
     1
102
RTVSPost2010Prop29
280
     1
102
RTVSPost2010PropOp29
 70
     1
102
RTVSPost2010Prop30
280
     1
102
RTVSPost2010PropOp30
 70
     1
102
RTVSPost2010Prop31
280
     0
102
RTVSPost2010PropOp31
 70
     1
102
RTVSPost2010Prop32
280
     0
102
RTVSPost2010PropOp32
 70
     1
102
RTVSPost2010Prop33
280
     0
102
RTVSPost2010PropOp33
 70
     1
102
RTVSPost2010Prop34
280
     0
102
RTVSPost2010PropOp34
 70
     1
102
RTVSPost2010Prop35
280
     0
102
RTVSPost2010PropOp35
 70
     1
102
RTVSPost2010Prop36
280
     0
102
RTVSPost2010PropOp36
 70
     1
102
RTVSPost2010Prop37
 90
       50
102
RTVSPost2010PropOp37
 70
     1
102
RTVSPost2010Prop38
140
0.0
102
RTVSPost2010PropOp38
 70
     1
102
RTVSPost2010Prop39
140
1.0
102
RTVSPost2010PropOp39
 70
     1
102
RTVSPost2010Prop40
 90
        0
102
RTVSPost2010PropOp40
 70
     1
102
RTVSPost2010Prop41ColorIndex
 90
       18
102
RTVSPost2010Prop41ColorRGB
 90
        0
102
RTVSPost2010PropOp41
 70
     1
102
RTVSPost2010Prop42
 90
       50
102
RTVSPost2010PropOp42
 70
     1
102
RTVSPost2010Prop43
 90
        3
102
RTVSPost2010PropOp43
 70
     1
102
RTVSPost2010Prop44ColorIndex
 90
        5
102
RTVSPost2010Prop44ColorRGB
 90
      255
102
RTVSPost2010PropOp44
 70
     1
102
RTVSPost2010Prop45
280
     0
102
RTVSPost2010PropOp45
 70
     1
102
RTVSPost2010Prop46
 90
       50
102
RTVSPost2010PropOp46
 70
     1
102
RTVSPost2010Prop47
 90
       50
102
RTVSPost2010PropOp47
 70
     1
102
RTVSPost2010Prop48
 90
       50
102
RTVSPost2010PropOp48
 70
     1
102
RTVSPost2010Prop49
280
     0
102
RTVSPost2010PropOp49
 70
     1
102
RTVSPost2010Prop50
 90
       50
102
RTVSPost2010PropOp50
 70
     1
102
RTVSPost2010Prop51ColorIndex
 90
      256
102
RTVSPost2010Prop51ColorRGB
 90
-16777216
102
RTVSPost2010PropOp51
 70
     0
102
RTVSPost2010Prop52
140
1.0
102
RTVSPost2010PropOp52
 70
     0
102
RTVSPost2010Prop53
 90
        2
102
RTVSPost2010PropOp53
 70
     1
102
RTVSPost2010Prop54
  1
strokes_ogs.tif
102
RTVSPost2010PropOp54
 70
     1
102
RTVSPost2010Prop55
280
     0
102
RTVSPost2010PropOp55
 70
     1
102
RTVSPost2010Prop56
140
1.0
102
RTVSPost2010PropOp56
 70
     1
102
RTVSPost2010Prop57
140
1.0
102
RTVSPost2010PropOp57
 70
     1
  0
XRECORD
  5
3B6
102
{ACAD_REACTORS
330
3B5
102
}
330
3B5
100
AcDbXrecord
280
     1
102
RTVSPropertyOp0
 70
     1
102
RTVSPropertyOp1
 70
     1
102
RTVSPropertyOp2
 70
     1
102
RTVSPropertyOp3
 70
     1
102
RTVSPropertyOp4
 70
     1
102
RTVSPropertyOp5
 70
     1
102
RTVSPropertyOp6
 70
     1
102
RTVSPropertyOp7
 70
     1
102
RTVSPropertyOp8
 70
     1
102
RTVSPropertyOp9
 70
     1
102
RTVSPropertyOp10
 70
     1
102
RTVSPropertyOp11
 70
     1
102
RTVSPropertyOp12
 70
     1
102
RTVSPropertyOp13
 70
     1
102
RTVSPropertyOp14
 70
     1
102
RTVSPropertyOp15
 70
     1
102
RTVSPropertyOp16
 70
     1
102
RTVSPropertyOp17
 70
     1
102
RTVSPropertyOp18
 70
     1
102
RTVSPropertyOp19
 70
     1
102
RTVSPropertyOp20
 70
     1
102
RTVSPropertyOp21
 70
     1
102
RTVSPropertyOp22
 70
     1
102
RTVSPropertyOp23
 70
     1
102
RTVSPropertyOp24
 70
     1
102
RTVSPropertyOp25
 70
     1
102
RTVSPropertyOp26
 70
     1
102
RTVSPropertyOp27
 70
     1
102
RTVSPropertyOp28
 70
     1
102
RTVSPropertyOp29
 70
     1
102
RTVSPropertyOp30
 70
     1
102
RTVSPropertyOp31
 70
     1
102
RTVSPropertyOp32
 70
     1
102
RTVSPropertyOp33
 70
     1
102
RTVSPropertyOp34
 70
     1
102
RTVSPropertyOp35
 70
     1
102
RTVSPropertyOp36
 70
     1
102
RTVSPropertyOp37
 70
     1
102
RTVSPropertyOp38
 70
     1
102
RTVSPropertyOp39
 70
     1
102
RTVSPropertyOp40
 70
     1
102
RTVSPropertyOp41
 70
     1
102
RTVSPropertyOp42
 70
     1
102
RTVSPropertyOp43
 70
     1
102
RTVSPropertyOp44
 70
     1
102
RTVSPropertyOp45
 70
     1
102
RTVSPropertyOp46
 70
     1
102
RTVSPropertyOp47
 70
     1
102
RTVSPropertyOp48
 70
     1
102
RTVSPropertyOp49
 70
     1
102
RTVSPropertyOp50
 70
     1
102
RTVSPropertyOp51
 70
     0
102
RTVSPropertyOp52
 70
     0
102
RTVSPropertyOp53
 70
     1
102
RTVSPropertyOp54
 70
     1
102
RTVSPropertyOp55
 70
     1
102
RTVSPropertyOp56
 70
     1
102
RTVSPropertyOp57
 70
     1
102
RTVSPost2010Prop28
280
     0
102
RTVSPost2010PropOp28
 70
     1
102
RTVSPost2010Prop29
280
     1
102
RTVSPost2010PropOp29
 70
     1
102
RTVSPost2010Prop30
280
     1
102
RTVSPost2010PropOp30
 70
     1
102
RTVSPost2010Prop31
280
     0
102
RTVSPost2010PropOp31
 70
     1
102
RTVSPost2010Prop32
280
     0
102
RTVSPost2010PropOp32
 70
     1
102
RTVSPost2010Prop33
280
     0
102
RTVSPost2010PropOp33
 70
     1
102
RTVSPost2010Prop34
280
     0
102
RTVSPost2010PropOp34
 70
     1
102
RTVSPost2010Prop35
280
     0
102
RTVSPost2010PropOp35
 70
     1
102
RTVSPost2010Prop36
280
     0
102
RTVSPost2010PropOp36
 70
     1
102
RTVSPost2010Prop37
 90
       50
102
RTVSPost2010PropOp37
 70
     1
102
RTVSPost2010Prop38
140
0.0
102
RTVSPost2010PropOp38
 70
     1
102
RTVSPost2010Prop39
140
1.0
102
RTVSPost2010PropOp39
 70
     1
102
RTVSPost2010Prop40
 90
        0
102
RTVSPost2010PropOp40
 70
     1
102
RTVSPost2010Prop41ColorIndex
 90
       18
102
RTVSPost2010Prop41ColorRGB
 90
        0
102
RTVSPost2010PropOp41
 70
     1
102
RTVSPost2010Prop42
 90
       50
102
RTVSPost2010PropOp42
 70
     1
102
RTVSPost2010Prop43
 90
        3
102
RTVSPost2010PropOp43
 70
     1
102
RTVSPost2010Prop44ColorIndex
 90
        5
102
RTVSPost2010Prop44ColorRGB
 90
      255
102
RTVSPost2010PropOp44
 70
     1
102
RTVSPost2010Prop45
280
     0
102
RTVSPost2010PropOp45
 70
     1
102
RTVSPost2010Prop46
 90
       50
102
RTVSPost2010PropOp46
 70
     1
102
RTVSPost2010Prop47
 90
       50
102
RTVSPost2010PropOp47
 70
     1
102
RTVSPost2010Prop48
 90
       50
102
RTVSPost2010PropOp48
 70
     1
102
RTVSPost2010Prop49
280
     0
102
RTVSPost2010PropOp49
 70
     1
102
RTVSPost2010Prop50
 90
       50
102
RTVSPost2010PropOp50
 70
     1
102
RTVSPost2010Prop51ColorIndex
 90
      256
102
RTVSPost2010Prop51ColorRGB
 90
-16777216
102
RTVSPost2010PropOp51
 70
     0
102
RTVSPost2010Prop52
140
1.0
102
RTVSPost2010PropOp52
 70
     0
102
RTVSPost2010Prop53
 90
        2
102
RTVSPost2010PropOp53
 70
     1
102
RTVSPost2010Prop54
  1
strokes_ogs.tif
102
RTVSPost2010PropOp54
 70
     1
102
RTVSPost2010Prop55
280
     0
102
RTVSPost2010PropOp55
 70
     1
102
RTVSPost2010Prop56
140
1.0
102
RTVSPost2010PropOp56
 70
     1
102
RTVSPost2010Prop57
140
1.0
102
RTVSPost2010PropOp57
 70
     1
  0
XRECORD
  5
3D6
102
{ACAD_REACTORS
330
3D5
102
}
330
3D5
100
AcDbXrecord
280
     1
102
RTVSPropertyOp0
 70
     1
102
RTVSPropertyOp1
 70
     1
102
RTVSPropertyOp2
 70
     1
102
RTVSPropertyOp3
 70
     1
102
RTVSPropertyOp4
 70
     1
102
RTVSPropertyOp5
 70
     1
102
RTVSPropertyOp6
 70
     1
102
RTVSPropertyOp7
 70
     1
102
RTVSPropertyOp8
 70
     1
102
RTVSPropertyOp9
 70
     1
102
RTVSPropertyOp10
 70
     1
102
RTVSPropertyOp11
 70
     1
102
RTVSPropertyOp12
 70
     1
102
RTVSPropertyOp13
 70
     1
102
RTVSPropertyOp14
 70
     1
102
RTVSPropertyOp15
 70
     1
102
RTVSPropertyOp16
 70
     1
102
RTVSPropertyOp17
 70
     1
102
RTVSPropertyOp18
 70
     1
102
RTVSPropertyOp19
 70
     1
102
RTVSPropertyOp20
 70
     1
102
RTVSPropertyOp21
 70
     1
102
RTVSPropertyOp22
 70
     1
102
RTVSPropertyOp23
 70
     1
102
RTVSPropertyOp24
 70
     1
102
RTVSPropertyOp25
 70
     1
102
RTVSPropertyOp26
 70
     1
102
RTVSPropertyOp27
 70
     1
102
RTVSPropertyOp28
 70
     1
102
RTVSPropertyOp29
 70
     1
102
RTVSPropertyOp30
 70
     1
102
RTVSPropertyOp31
 70
     1
102
RTVSPropertyOp32
 70
     1
102
RTVSPropertyOp33
 70
     1
102
RTVSPropertyOp34
 70
     1
102
RTVSPropertyOp35
 70
     1
102
RTVSPropertyOp36
 70
     1
102
RTVSPropertyOp37
 70
     1
102
RTVSPropertyOp38
 70
     1
102
RTVSPropertyOp39
 70
     1
102
RTVSPropertyOp40
 70
     1
102
RTVSPropertyOp41
 70
     1
102
RTVSPropertyOp42
 70
     1
102
RTVSPropertyOp43
 70
     1
102
RTVSPropertyOp44
 70
     1
102
RTVSPropertyOp45
 70
     1
102
RTVSPropertyOp46
 70
     1
102
RTVSPropertyOp47
 70
     1
102
RTVSPropertyOp48
 70
     1
102
RTVSPropertyOp49
 70
     1
102
RTVSPropertyOp50
 70
     1
102
RTVSPropertyOp51
 70
     0
102
RTVSPropertyOp52
 70
     0
102
RTVSPropertyOp53
 70
     1
102
RTVSPropertyOp54
 70
     1
102
RTVSPropertyOp55
 70
     1
102
RTVSPropertyOp56
 70
     1
102
RTVSPropertyOp57
 70
     1
102
RTVSPost2010Prop28
280
     0
102
RTVSPost2010PropOp28
 70
     1
102
RTVSPost2010Prop29
280
     1
102
RTVSPost2010PropOp29
 70
     1
102
RTVSPost2010Prop30
280
     1
102
RTVSPost2010PropOp30
 70
     1
102
RTVSPost2010Prop31
280
     0
102
RTVSPost2010PropOp31
 70
     1
102
RTVSPost2010Prop32
280
     0
102
RTVSPost2010PropOp32
 70
     1
102
RTVSPost2010Prop33
280
     0
102
RTVSPost2010PropOp33
 70
     1
102
RTVSPost2010Prop34
280
     0
102
RTVSPost2010PropOp34
 70
     1
102
RTVSPost2010Prop35
280
     0
102
RTVSPost2010PropOp35
 70
     1
102
RTVSPost2010Prop36
280
     0
102
RTVSPost2010PropOp36
 70
     1
102
RTVSPost2010Prop37
 90
       50
102
RTVSPost2010PropOp37
 70
     1
102
RTVSPost2010Prop38
140
0.0
102
RTVSPost2010PropOp38
 70
     1
102
RTVSPost2010Prop39
140
1.0
102
RTVSPost2010PropOp39
 70
     1
102
RTVSPost2010Prop40
 90
        0
102
RTVSPost2010PropOp40
 70
     1
102
RTVSPost2010Prop41ColorIndex
 90
       18
102
RTVSPost2010Prop41ColorRGB
 90
        0
102
RTVSPost2010PropOp41
 70
     1
102
RTVSPost2010Prop42
 90
       50
102
RTVSPost2010PropOp42
 70
     1
102
RTVSPost2010Prop43
 90
        3
102
RTVSPost2010PropOp43
 70
     1
102
RTVSPost2010Prop44ColorIndex
 90
        5
102
RTVSPost2010Prop44ColorRGB
 90
      255
102
RTVSPost2010PropOp44
 70
     1
102
RTVSPost2010Prop45
280
     0
102
RTVSPost2010PropOp45
 70
     1
102
RTVSPost2010Prop46
 90
       50
102
RTVSPost2010PropOp46
 70
     1
102
RTVSPost2010Prop47
 90
       50
102
RTVSPost2010PropOp47
 70
     1
102
RTVSPost2010Prop48
 90
       50
102
RTVSPost2010PropOp48
 70
     1
102
RTVSPost2010Prop49
280
     0
102
RTVSPost2010PropOp49
 70
     1
102
RTVSPost2010Prop50
 90
       50
102
RTVSPost2010PropOp50
 70
     1
102
RTVSPost2010Prop51ColorIndex
 90
      256
102
RTVSPost2010Prop51ColorRGB
 90
-16777216
102
RTVSPost2010PropOp51
 70
     0
102
RTVSPost2010Prop52
140
1.0
102
RTVSPost2010PropOp52
 70
     0
102
RTVSPost2010Prop53
 90
        2
102
RTVSPost2010PropOp53
 70
     1
102
RTVSPost2010Prop54
  1
strokes_ogs.tif
102
RTVSPost2010PropOp54
 70
     1
102
RTVSPost2010Prop55
280
     0
102
RTVSPost2010PropOp55
 70
     1
102
RTVSPost2010Prop56
140
1.0
102
RTVSPost2010PropOp56
 70
     1
102
RTVSPost2010Prop57
140
1.0
102
RTVSPost2010PropOp57
 70
     1
  0
ENDSEC
  0
EOF
