0
SECTION
2
HEADER
9
$ACADVER
1
AC1009
0
ENDSEC
0
SECTION
2
TABLES
0
TABLE
2
VPORT
70
1
0
VPORT
2
ACTIVE
70
0
10
0.0
20
0.0
11
0.0
21
0.0
12
0.0
22
0.0
13
0.0
23
0.0
14
0.0
24
0.0
15
0.0
25
0.0
16
0.0
26
0.0
36
0.0
17
0.0
27
0.0
37
0.0
40
0.0
41
0.0
42
0.0
43
0.0
44
0.0
50
0.0
51
0.0
71
0
72
1000
73
1
74
3
75
0
76
0
77
0
78
0
0
ENDTAB
0
ENDSEC
0
SECTION
2
ENTITIES
0
LINE
8
boundary
62
5
39
2
10
260.496936
20
387.945542
11
259.944419
21
388.616897
0
LINE
8
boundary
62
5
39
2
10
259.944419
20
388.616897
11
257.294011
21
391.888058
0
LINE
8
boundary
62
5
39
2
10
257.294011
20
391.888058
11
255.908497
21
393.388054
0
LINE
8
boundary
62
5
39
2
10
255.908497
20
393.388054
11
255.251402
21
394.107409
0
LINE
8
boundary
62
5
39
2
10
255.251402
20
394.107409
11
253.483583
21
395.886096
0
LINE
8
boundary
62
5
39
2
10
253.483583
20
395.886096
11
252.308258
21
397.032776
0
LINE
8
boundary
62
5
39
2
10
252.308258
20
397.032776
11
250.205872
21
399.030387
0
LINE
8
boundary
62
5
39
2
10
250.205872
20
399.030387
11
248.098283
21
400.948700
0
LINE
8
boundary
62
5
39
2
10
248.098283
20
400.948700
11
246.013495
21
402.789525
0
LINE
8
boundary
62
5
39
2
10
246.013495
20
402.789525
11
240.794579
21
407.246969
0
LINE
8
boundary
62
5
39
2
10
240.794579
20
407.246969
11
239.323108
21
408.473155
0
LINE
8
boundary
62
5
39
2
10
239.323108
20
408.473155
11
237.749626
21
409.643346
0
LINE
8
boundary
62
5
39
2
10
237.749626
20
409.643346
11
234.112852
21
412.347831
0
LINE
8
boundary
62
5
39
2
10
234.112852
20
412.347831
11
230.585978
21
414.961964
0
LINE
8
boundary
62
5
39
2
10
230.585978
20
414.961964
11
229.799518
21
415.510827
0
LINE
8
boundary
62
5
39
2
10
229.799518
20
415.510827
11
228.573638
21
416.305859
0
LINE
8
boundary
62
5
39
2
10
228.573638
20
416.305859
11
222.621081
21
420.097676
0
LINE
8
boundary
62
5
39
2
10
222.621081
20
420.097676
11
220.000911
21
421.734793
0
LINE
8
boundary
62
5
39
2
10
220.000911
20
421.734793
11
217.745501
21
423.159040
0
LINE
8
boundary
62
5
39
2
10
217.745501
20
423.159040
11
212.321099
21
426.625319
0
LINE
8
boundary
62
5
39
2
10
212.321099
20
426.625319
11
211.418447
21
427.189002
0
LINE
8
boundary
62
5
39
2
10
211.418447
20
427.189002
11
210.543950
21
427.732131
0
LINE
8
boundary
62
5
39
2
10
210.543950
20
427.732131
11
203.409295
21
432.617094
0
LINE
8
boundary
62
5
39
2
10
203.409295
20
432.617094
11
201.563318
21
433.879687
0
LINE
8
boundary
62
5
39
2
10
201.563318
20
433.879687
11
192.494575
21
439.915117
0
LINE
8
boundary
62
5
39
2
10
192.494575
20
439.915117
11
190.720742
21
441.051619
0
LINE
8
boundary
62
5
39
2
10
190.720742
20
441.051619
11
190.043724
21
441.475284
0
LINE
8
boundary
62
5
39
2
10
190.043724
20
441.475284
11
187.497904
21
443.039252
0
LINE
8
boundary
62
5
39
2
10
187.497904
20
443.039252
11
186.250022
21
443.799584
0
LINE
8
boundary
62
5
39
2
10
186.250022
20
443.799584
11
185.058149
21
444.516462
0
LINE
8
boundary
62
5
39
2
10
185.058149
20
444.516462
11
182.789604
21
445.868423
0
LINE
8
boundary
62
5
39
2
10
182.789604
20
445.868423
11
182.292842
21
446.152432
0
LINE
8
boundary
62
5
39
2
10
182.292842
20
446.152432
11
179.589365
21
447.666186
0
LINE
8
boundary
62
5
39
2
10
179.589365
20
447.666186
11
178.670568
21
448.176897
0
LINE
8
boundary
62
5
39
2
10
178.670568
20
448.176897
11
176.664654
21
449.273295
0
LINE
8
boundary
62
5
39
2
10
176.664654
20
449.273295
11
174.776529
21
450.253231
0
LINE
8
boundary
62
5
39
2
10
174.776529
20
450.253231
11
173.480234
21
450.909833
0
LINE
8
boundary
62
5
39
2
10
173.480234
20
450.909833
11
172.050396
21
451.624007
0
LINE
8
boundary
62
5
39
2
10
172.050396
20
451.624007
11
170.723741
21
452.276519
0
LINE
8
boundary
62
5
39
2
10
170.723741
20
452.276519
11
169.717098
21
452.771488
0
LINE
8
boundary
62
5
39
2
10
169.717098
20
452.771488
11
168.681602
21
453.249202
0
LINE
8
boundary
62
5
39
2
10
168.681602
20
453.249202
11
167.203333
21
453.927419
0
LINE
8
boundary
62
5
39
2
10
167.203333
20
453.927419
11
165.818555
21
454.565826
0
LINE
8
boundary
62
5
39
2
10
165.818555
20
454.565826
11
163.282227
21
455.651178
0
LINE
8
boundary
62
5
39
2
10
163.282227
20
455.651178
11
161.571061
21
456.389321
0
LINE
8
boundary
62
5
39
2
10
161.571061
20
456.389321
11
159.723828
21
457.118055
0
LINE
8
boundary
62
5
39
2
10
159.723828
20
457.118055
11
158.606338
21
457.572288
0
LINE
8
boundary
62
5
39
2
10
158.606338
20
457.572288
11
154.715828
21
458.991646
0
LINE
8
boundary
62
5
39
2
10
154.715828
20
458.991646
11
153.885330
21
459.322656
0
LINE
8
boundary
62
5
39
2
10
153.885330
20
459.322656
11
153.392562
21
459.534924
0
LINE
8
boundary
62
5
39
2
10
153.392562
20
459.534924
11
152.773981
21
459.828960
0
LINE
8
boundary
62
5
39
2
10
152.773981
20
459.828960
11
151.680905
21
460.251958
0
LINE
8
boundary
62
5
39
2
10
151.680905
20
460.251958
11
149.005702
21
461.172741
0
LINE
8
boundary
62
5
39
2
10
149.005702
20
461.172741
11
146.610833
21
462.271545
0
LINE
8
boundary
62
5
39
2
10
146.610833
20
462.271545
11
141.733142
21
464.724602
0
LINE
8
boundary
62
5
39
2
10
141.733142
20
464.724602
11
140.848932
21
465.363996
0
LINE
8
boundary
62
5
39
2
10
140.848932
20
465.363996
11
140.445843
21
465.703674
0
LINE
8
boundary
62
5
39
2
10
140.445843
20
465.703674
11
135.336067
21
469.874304
0
LINE
8
boundary
62
5
39
2
10
135.336067
20
469.874304
11
134.901013
21
470.427461
0
LINE
8
boundary
62
5
39
2
10
134.901013
20
470.427461
11
131.937863
21
474.059889
0
LINE
8
boundary
62
5
39
2
10
131.937863
20
474.059889
11
130.842829
21
475.618976
0
LINE
8
boundary
62
5
39
2
10
130.842829
20
475.618976
11
129.309465
21
477.858129
0
LINE
8
boundary
62
5
39
2
10
129.309465
20
477.858129
11
128.880440
21
478.462846
0
LINE
8
boundary
62
5
39
2
10
128.880440
20
478.462846
11
127.397826
21
480.674956
0
LINE
8
boundary
62
5
39
2
10
127.397826
20
480.674956
11
126.902068
21
481.450337
0
LINE
8
boundary
62
5
39
2
10
126.902068
20
481.450337
11
126.292735
21
480.982025
0
LINE
8
boundary
62
5
39
2
10
126.292735
20
480.982025
11
125.367083
21
480.273015
0
LINE
8
boundary
62
5
39
2
10
125.367083
20
480.273015
11
124.443730
21
479.566347
0
LINE
8
boundary
62
5
39
2
10
124.443730
20
479.566347
11
123.081924
21
478.526328
0
LINE
8
boundary
62
5
39
2
10
123.081924
20
478.526328
11
122.563216
21
478.130365
0
LINE
8
boundary
62
5
39
2
10
122.563216
20
478.130365
11
122.069955
21
477.754378
0
LINE
8
boundary
62
5
39
2
10
122.069955
20
477.754378
11
119.046955
21
475.456097
0
LINE
8
boundary
62
5
39
2
10
119.046955
20
475.456097
11
116.601192
21
473.601973
0
LINE
8
boundary
62
5
39
2
10
116.601192
20
473.601973
11
113.515469
21
471.270085
0
LINE
8
boundary
62
5
39
2
10
113.515469
20
471.270085
11
107.376298
21
466.651856
0
LINE
8
boundary
62
5
39
2
10
107.376298
20
466.651856
11
106.380562
21
465.906032
0
LINE
8
boundary
62
5
39
2
10
106.380562
20
465.906032
11
104.503844
21
464.505374
0
LINE
8
boundary
62
5
39
2
10
104.503844
20
464.505374
11
98.028505
21
459.682948
0
LINE
8
boundary
62
5
39
2
10
98.028505
20
459.682948
11
95.746411
21
457.983625
0
LINE
8
boundary
62
5
39
2
10
95.746411
20
457.983625
11
89.216233
21
453.137348
0
LINE
8
boundary
62
5
39
2
10
89.216233
20
453.137348
11
84.324702
21
449.523967
0
LINE
8
boundary
62
5
39
2
10
84.324702
20
449.523967
11
80.636318
21
446.804598
0
LINE
8
boundary
62
5
39
2
10
80.636318
20
446.804598
11
73.671311
21
441.682783
0
LINE
8
boundary
62
5
39
2
10
73.671311
20
441.682783
11
71.702448
21
440.231934
0
LINE
8
boundary
62
5
39
2
10
71.702448
20
440.231934
11
69.590213
21
438.676320
0
LINE
8
boundary
62
5
39
2
10
69.590213
20
438.676320
11
65.420300
21
435.619276
0
LINE
8
boundary
62
5
39
2
10
65.420300
20
435.619276
11
61.448067
21
432.709822
0
LINE
8
boundary
62
5
39
2
10
61.448067
20
432.709822
11
57.191806
21
429.610371
0
LINE
8
boundary
62
5
39
2
10
57.191806
20
429.610371
11
47.443673
21
422.487188
0
LINE
8
boundary
62
5
39
2
10
47.443673
20
422.487188
11
45.246726
21
420.883739
0
LINE
8
boundary
62
5
39
2
10
45.246726
20
420.883739
11
43.272253
21
419.447956
0
LINE
8
boundary
62
5
39
2
10
43.272253
20
419.447956
11
34.518329
21
413.132180
0
LINE
8
boundary
62
5
39
2
10
34.518329
20
413.132180
11
28.161605
21
408.564738
0
LINE
8
boundary
62
5
39
2
10
28.161605
20
408.564738
11
26.683461
21
407.504278
0
LINE
8
boundary
62
5
39
2
10
26.683461
20
407.504278
11
19.954519
21
402.704845
0
LINE
8
boundary
62
5
39
2
10
19.954519
20
402.704845
11
17.174358
21
400.728689
0
LINE
8
boundary
62
5
39
2
10
17.174358
20
400.728689
11
12.861575
21
397.673931
0
LINE
8
boundary
62
5
39
2
10
12.861575
20
397.673931
11
10.960467
21
396.336529
0
LINE
8
boundary
62
5
39
2
10
10.960467
20
396.336529
11
9.720496
21
395.467233
0
LINE
8
boundary
62
5
39
2
10
9.720496
20
395.467233
11
8.617173
21
394.697015
0
LINE
8
boundary
62
5
39
2
10
8.617173
20
394.697015
11
6.101319
21
392.944249
0
LINE
8
boundary
62
5
39
2
10
6.101319
20
392.944249
11
3.128018
21
390.875402
0
LINE
8
boundary
62
5
39
2
10
3.128018
20
390.875402
11
1.587500
21
389.803837
0
LINE
8
boundary
62
5
39
2
10
1.587500
20
389.803837
11
2.282150
21
388.538843
0
LINE
8
boundary
62
5
39
2
10
2.282150
20
388.538843
11
4.375139
21
384.575222
0
LINE
8
boundary
62
5
39
2
10
4.375139
20
384.575222
11
5.463922
21
382.726028
0
LINE
8
boundary
62
5
39
2
10
5.463922
20
382.726028
11
6.481522
21
381.117466
0
LINE
8
boundary
62
5
39
2
10
6.481522
20
381.117466
11
11.046889
21
374.213236
0
LINE
8
boundary
62
5
39
2
10
11.046889
20
374.213236
11
12.202398
21
372.727452
0
LINE
8
boundary
62
5
39
2
10
12.202398
20
372.727452
11
12.975679
21
371.669105
0
LINE
8
boundary
62
5
39
2
10
12.975679
20
371.669105
11
15.268175
21
368.932621
0
LINE
8
boundary
62
5
39
2
10
15.268175
20
368.932621
11
17.812512
21
365.445121
0
LINE
8
boundary
62
5
39
2
10
17.812512
20
365.445121
11
18.463470
21
364.592743
0
LINE
8
boundary
62
5
39
2
10
18.463470
20
364.592743
11
19.033339
21
363.781705
0
LINE
8
boundary
62
5
39
2
10
19.033339
20
363.781705
11
19.656318
21
363.135496
0
LINE
8
boundary
62
5
39
2
10
19.656318
20
363.135496
11
22.017248
21
360.746357
0
LINE
8
boundary
62
5
39
2
10
22.017248
20
360.746357
11
23.326485
21
359.263590
0
LINE
8
boundary
62
5
39
2
10
23.326485
20
359.263590
11
24.368388
21
358.116264
0
LINE
8
boundary
62
5
39
2
10
24.368388
20
358.116264
11
25.073388
21
358.656164
0
LINE
8
boundary
62
5
39
2
10
25.073388
20
358.656164
11
25.073388
21
380.871073
0
LINE
8
boundary
62
5
39
2
10
25.073388
20
380.871073
11
29.519388
21
380.871073
0
LINE
8
boundary
62
5
39
2
10
29.519388
20
380.871073
11
29.519388
21
352.184613
0
LINE
8
boundary
62
5
39
2
10
29.519388
20
352.184613
11
30.224388
21
351.428241
0
LINE
8
boundary
62
5
39
2
10
30.224388
20
351.428241
11
34.895340
21
346.416920
0
LINE
8
boundary
62
5
39
2
10
34.895340
20
346.416920
11
35.767583
21
345.489463
0
LINE
8
boundary
62
5
39
2
10
35.767583
20
345.489463
11
36.223572
21
345.011956
0
LINE
8
boundary
62
5
39
2
10
36.223572
20
345.011956
11
36.707969
21
344.509282
0
LINE
8
boundary
62
5
39
2
10
36.707969
20
344.509282
11
40.503341
21
340.551717
0
LINE
8
boundary
62
5
39
2
10
40.503341
20
340.551717
11
44.246883
21
336.705383
0
LINE
8
boundary
62
5
39
2
10
44.246883
20
336.705383
11
45.044181
21
335.971507
0
LINE
8
boundary
62
5
39
2
10
45.044181
20
335.971507
11
45.902449
21
335.109459
0
LINE
8
boundary
62
5
39
2
10
45.902449
20
335.109459
11
48.734966
21
332.534998
0
LINE
8
boundary
62
5
39
2
10
48.734966
20
332.534998
11
50.839369
21
330.339672
0
LINE
8
boundary
62
5
39
2
10
50.839369
20
330.339672
11
52.539164
21
328.595465
0
LINE
8
boundary
62
5
39
2
10
52.539164
20
328.595465
11
52.984023
21
328.172144
0
LINE
8
boundary
62
5
39
2
10
52.984023
20
328.172144
11
53.825439
21
327.446819
0
LINE
8
boundary
62
5
39
2
10
53.825439
20
327.446819
11
56.106015
21
325.561608
0
LINE
8
boundary
62
5
39
2
10
56.106015
20
325.561608
11
58.819152
21
323.258619
0
LINE
8
boundary
62
5
39
2
10
58.819152
20
323.258619
11
62.416034
21
320.373704
0
LINE
8
boundary
62
5
39
2
10
62.416034
20
320.373704
11
64.788670
21
318.543407
0
LINE
8
boundary
62
5
39
2
10
64.788670
20
318.543407
11
65.440108
21
318.054251
0
LINE
8
boundary
62
5
39
2
10
65.440108
20
318.054251
11
66.815811
21
317.066844
0
LINE
8
boundary
62
5
39
2
10
66.815811
20
317.066844
11
67.376848
21
316.703629
0
LINE
8
boundary
62
5
39
2
10
67.376848
20
316.703629
11
67.853117
21
316.367781
0
LINE
8
boundary
62
5
39
2
10
67.853117
20
316.367781
11
68.666951
21
315.803233
0
LINE
8
boundary
62
5
39
2
10
68.666951
20
315.803233
11
71.059554
21
314.174659
0
LINE
8
boundary
62
5
39
2
10
71.059554
20
314.174659
11
72.492900
21
313.237160
0
LINE
8
boundary
62
5
39
2
10
72.492900
20
313.237160
11
74.138405
21
312.241889
0
LINE
8
boundary
62
5
39
2
10
74.138405
20
312.241889
11
76.953676
21
310.681450
0
LINE
8
boundary
62
5
39
2
10
76.953676
20
310.681450
11
77.658676
21
311.221349
0
LINE
8
boundary
62
5
39
2
10
77.658676
20
311.221349
11
77.658676
21
377.531761
0
LINE
8
boundary
62
5
39
2
10
77.658676
20
377.531761
11
82.104676
21
377.531761
0
LINE
8
boundary
62
5
39
2
10
82.104676
20
377.531761
11
82.104675
21
307.972492
0
LINE
8
boundary
62
5
39
2
10
82.104675
20
307.972492
11
82.809675
21
307.432592
0
LINE
8
boundary
62
5
39
2
10
82.809675
20
307.432592
11
83.286796
21
307.167138
0
LINE
8
boundary
62
5
39
2
10
83.286796
20
307.167138
11
84.512950
21
306.485381
0
LINE
8
boundary
62
5
39
2
10
84.512950
20
306.485381
11
88.917371
21
304.449571
0
LINE
8
boundary
62
5
39
2
10
88.917371
20
304.449571
11
93.334512
21
301.998285
0
LINE
8
boundary
62
5
39
2
10
93.334512
20
301.998285
11
94.258144
21
301.578322
0
LINE
8
boundary
62
5
39
2
10
94.258144
20
301.578322
11
95.842022
21
300.877202
0
LINE
8
boundary
62
5
39
2
10
95.842022
20
300.877202
11
103.767122
21
297.136443
0
LINE
8
boundary
62
5
39
2
10
103.767122
20
297.136443
11
105.325747
21
296.455316
0
LINE
8
boundary
62
5
39
2
10
105.325747
20
296.455316
11
106.899769
21
295.713873
0
LINE
8
boundary
62
5
39
2
10
106.899769
20
295.713873
11
107.582621
21
295.407314
0
LINE
8
boundary
62
5
39
2
10
107.582621
20
295.407314
11
110.530967
21
293.936523
0
LINE
8
boundary
62
5
39
2
10
110.530967
20
293.936523
11
111.467663
21
293.449726
0
LINE
8
boundary
62
5
39
2
10
111.467663
20
293.449726
11
113.737759
21
292.306936
0
LINE
8
boundary
62
5
39
2
10
113.737759
20
292.306936
11
116.106343
21
291.056336
0
LINE
8
boundary
62
5
39
2
10
116.106343
20
291.056336
11
117.925306
21
290.044620
0
LINE
8
boundary
62
5
39
2
10
117.925306
20
290.044620
11
119.374093
21
289.196379
0
LINE
8
boundary
62
5
39
2
10
119.374093
20
289.196379
11
120.565401
21
288.464536
0
LINE
8
boundary
62
5
39
2
10
120.565401
20
288.464536
11
125.617789
21
285.638798
0
LINE
8
boundary
62
5
39
2
10
125.617789
20
285.638798
11
126.439976
21
285.134542
0
LINE
8
boundary
62
5
39
2
10
126.439976
20
285.134542
11
127.613136
21
284.384190
0
LINE
8
boundary
62
5
39
2
10
127.613136
20
284.384190
11
129.538963
21
283.281077
0
LINE
8
boundary
62
5
39
2
10
129.538963
20
283.281077
11
130.243963
21
283.820976
0
LINE
8
boundary
62
5
39
2
10
130.243963
20
283.820976
11
130.243963
21
377.107876
0
LINE
8
boundary
62
5
39
2
10
130.243963
20
377.107876
11
134.689963
21
377.107876
0
LINE
8
boundary
62
5
39
2
10
134.689963
20
377.107876
11
134.689963
21
279.903037
0
LINE
8
boundary
62
5
39
2
10
134.689963
20
279.903037
11
135.394963
21
279.363137
0
LINE
8
boundary
62
5
39
2
10
135.394963
20
279.363137
11
136.363927
21
278.707122
0
LINE
8
boundary
62
5
39
2
10
136.363927
20
278.707122
11
137.497161
21
277.914811
0
LINE
8
boundary
62
5
39
2
10
137.497161
20
277.914811
11
141.313956
21
275.426246
0
LINE
8
boundary
62
5
39
2
10
141.313956
20
275.426246
11
143.590954
21
273.647802
0
LINE
8
boundary
62
5
39
2
10
143.590954
20
273.647802
11
146.013395
21
271.891301
0
LINE
8
boundary
62
5
39
2
10
146.013395
20
271.891301
11
149.777385
21
269.120124
0
LINE
8
boundary
62
5
39
2
10
149.777385
20
269.120124
11
151.415222
21
267.900281
0
LINE
8
boundary
62
5
39
2
10
151.415222
20
267.900281
11
151.869333
21
267.543758
0
LINE
8
boundary
62
5
39
2
10
151.869333
20
267.543758
11
154.519952
21
265.548427
0
LINE
8
boundary
62
5
39
2
10
154.519952
20
265.548427
11
155.464354
21
264.849565
0
LINE
8
boundary
62
5
39
2
10
155.464354
20
264.849565
11
157.496982
21
263.291462
0
LINE
8
boundary
62
5
39
2
10
157.496982
20
263.291462
11
158.007285
21
262.927515
0
LINE
8
boundary
62
5
39
2
10
158.007285
20
262.927515
11
160.147239
21
261.257041
0
LINE
8
boundary
62
5
39
2
10
160.147239
20
261.257041
11
162.439666
21
259.413820
0
LINE
8
boundary
62
5
39
2
10
162.439666
20
259.413820
11
163.251314
21
258.675785
0
LINE
8
boundary
62
5
39
2
10
163.251314
20
258.675785
11
164.242147
21
257.799628
0
LINE
8
boundary
62
5
39
2
10
164.242147
20
257.799628
11
164.859030
21
257.267520
0
LINE
8
boundary
62
5
39
2
10
164.859030
20
257.267520
11
166.742303
21
255.612465
0
LINE
8
boundary
62
5
39
2
10
166.742303
20
255.612465
11
172.060639
21
250.558689
0
LINE
8
boundary
62
5
39
2
10
172.060639
20
250.558689
11
172.669726
21
249.970587
0
LINE
8
boundary
62
5
39
2
10
172.669726
20
249.970587
11
173.159854
21
249.452819
0
LINE
8
boundary
62
5
39
2
10
173.159854
20
249.452819
11
173.607269
21
249.004949
0
LINE
8
boundary
62
5
39
2
10
173.607269
20
249.004949
11
173.979383
21
248.592623
0
LINE
8
boundary
62
5
39
2
10
173.979383
20
248.592623
11
177.316962
21
245.116169
0
LINE
8
boundary
62
5
39
2
10
177.316962
20
245.116169
11
180.754677
21
240.722840
0
LINE
8
boundary
62
5
39
2
10
180.754677
20
240.722840
11
181.329654
21
239.975265
0
LINE
8
boundary
62
5
39
2
10
181.329654
20
239.975265
11
182.124250
21
238.895027
0
LINE
8
boundary
62
5
39
2
10
182.124250
20
238.895027
11
182.829251
21
239.434927
0
LINE
8
boundary
62
5
39
2
10
182.829251
20
239.434927
11
182.829250
21
339.757542
0
LINE
8
boundary
62
5
39
2
10
182.829250
20
339.757542
11
187.275250
21
339.757542
0
LINE
8
boundary
62
5
39
2
10
187.275250
20
339.757542
11
187.275251
21
231.861221
0
LINE
8
boundary
62
5
39
2
10
187.275251
20
231.861221
11
187.980250
21
230.824913
0
LINE
8
boundary
62
5
39
2
10
187.980250
20
230.824913
11
189.647933
21
228.247897
0
LINE
8
boundary
62
5
39
2
10
189.647933
20
228.247897
11
191.552609
21
225.539318
0
LINE
8
boundary
62
5
39
2
10
191.552609
20
225.539318
11
192.713932
21
223.482641
0
LINE
8
boundary
62
5
39
2
10
192.713932
20
223.482641
11
194.646342
21
220.274101
0
LINE
8
boundary
62
5
39
2
10
194.646342
20
220.274101
11
197.228946
21
215.696407
0
LINE
8
boundary
62
5
39
2
10
197.228946
20
215.696407
11
197.681543
21
214.957663
0
LINE
8
boundary
62
5
39
2
10
197.681543
20
214.957663
11
197.940362
21
214.416749
0
LINE
8
boundary
62
5
39
2
10
197.940362
20
214.416749
11
199.539330
21
211.375436
0
LINE
8
boundary
62
5
39
2
10
199.539330
20
211.375436
11
200.543288
21
209.522398
0
LINE
8
boundary
62
5
39
2
10
200.543288
20
209.522398
11
201.751737
21
207.187260
0
LINE
8
boundary
62
5
39
2
10
201.751737
20
207.187260
11
202.103309
21
206.574359
0
LINE
8
boundary
62
5
39
2
10
202.103309
20
206.574359
11
203.386379
21
204.067345
0
LINE
8
boundary
62
5
39
2
10
203.386379
20
204.067345
11
204.526694
21
201.788216
0
LINE
8
boundary
62
5
39
2
10
204.526694
20
201.788216
11
205.221582
21
200.205811
0
LINE
8
boundary
62
5
39
2
10
205.221582
20
200.205811
11
206.046340
21
198.498760
0
LINE
8
boundary
62
5
39
2
10
206.046340
20
198.498760
11
207.258775
21
195.933819
0
LINE
8
boundary
62
5
39
2
10
207.258775
20
195.933819
11
208.808092
21
192.982787
0
LINE
8
boundary
62
5
39
2
10
208.808092
20
192.982787
11
210.776821
21
188.443012
0
LINE
8
boundary
62
5
39
2
10
210.776821
20
188.443012
11
211.306352
21
187.299325
0
LINE
8
boundary
62
5
39
2
10
211.306352
20
187.299325
11
211.649198
21
186.545152
0
LINE
8
boundary
62
5
39
2
10
211.649198
20
186.545152
11
213.393855
21
182.717528
0
LINE
8
boundary
62
5
39
2
10
213.393855
20
182.717528
11
216.012161
21
177.186079
0
LINE
8
boundary
62
5
39
2
10
216.012161
20
177.186079
11
216.553685
21
176.043194
0
LINE
8
boundary
62
5
39
2
10
216.553685
20
176.043194
11
216.905741
21
175.286065
0
LINE
8
boundary
62
5
39
2
10
216.905741
20
175.286065
11
217.331769
21
174.349293
0
LINE
8
boundary
62
5
39
2
10
217.331769
20
174.349293
11
221.125043
21
165.613698
0
LINE
8
boundary
62
5
39
2
10
221.125043
20
165.613698
11
221.552164
21
164.622018
0
LINE
8
boundary
62
5
39
2
10
221.552164
20
164.622018
11
221.869566
21
163.817190
0
LINE
8
boundary
62
5
39
2
10
221.869566
20
163.817190
11
222.304963
21
162.659226
0
LINE
8
boundary
62
5
39
2
10
222.304963
20
162.659226
11
223.209451
21
160.376614
0
LINE
8
boundary
62
5
39
2
10
223.209451
20
160.376614
11
224.195456
21
157.658197
0
LINE
8
boundary
62
5
39
2
10
224.195456
20
157.658197
11
224.984902
21
155.441861
0
LINE
8
boundary
62
5
39
2
10
224.984902
20
155.441861
11
225.847752
21
152.909956
0
LINE
8
boundary
62
5
39
2
10
225.847752
20
152.909956
11
226.795878
21
150.123198
0
LINE
8
boundary
62
5
39
2
10
226.795878
20
150.123198
11
227.264012
21
148.729462
0
LINE
8
boundary
62
5
39
2
10
227.264012
20
148.729462
11
227.864879
21
146.992257
0
LINE
8
boundary
62
5
39
2
10
227.864879
20
146.992257
11
228.825993
21
144.178949
0
LINE
8
boundary
62
5
39
2
10
228.825993
20
144.178949
11
229.859207
21
141.063957
0
LINE
8
boundary
62
5
39
2
10
229.859207
20
141.063957
11
231.364252
21
136.567267
0
LINE
8
boundary
62
5
39
2
10
231.364252
20
136.567267
11
232.454832
21
133.375552
0
LINE
8
boundary
62
5
39
2
10
232.454832
20
133.375552
11
233.893726
21
129.201833
0
LINE
8
boundary
62
5
39
2
10
233.893726
20
129.201833
11
234.709538
21
126.989559
0
LINE
8
boundary
62
5
39
2
10
234.709538
20
126.989559
11
235.414538
21
127.529459
0
LINE
8
boundary
62
5
39
2
10
235.414538
20
127.529459
11
235.414538
21
263.497565
0
LINE
8
boundary
62
5
39
2
10
235.414538
20
263.497565
11
239.860538
21
263.497564
0
LINE
8
boundary
62
5
39
2
10
239.860538
20
263.497564
11
239.860538
21
114.286582
0
LINE
8
boundary
62
5
39
2
10
239.860538
20
114.286582
11
240.565538
21
112.778131
0
LINE
8
boundary
62
5
39
2
10
240.565538
20
112.778131
11
243.521253
21
106.453944
0
LINE
8
boundary
62
5
39
2
10
243.521253
20
106.453944
11
243.793035
21
105.893526
0
LINE
8
boundary
62
5
39
2
10
243.793035
20
105.893526
11
245.106219
21
103.569686
0
LINE
8
boundary
62
5
39
2
10
245.106219
20
103.569686
11
249.336808
21
96.190065
0
LINE
8
boundary
62
5
39
2
10
249.336808
20
96.190065
11
249.722809
21
95.524759
0
LINE
8
boundary
62
5
39
2
10
249.722809
20
95.524759
11
250.162677
21
94.718059
0
LINE
8
boundary
62
5
39
2
10
250.162677
20
94.718059
11
251.632474
21
92.557113
0
LINE
8
boundary
62
5
39
2
10
251.632474
20
92.557113
11
253.838109
21
89.379096
0
LINE
8
boundary
62
5
39
2
10
253.838109
20
89.379096
11
255.079185
21
87.358511
0
LINE
8
boundary
62
5
39
2
10
255.079185
20
87.358511
11
255.993006
21
85.992457
0
LINE
8
boundary
62
5
39
2
10
255.993006
20
85.992457
11
256.570817
21
85.166648
0
LINE
8
boundary
62
5
39
2
10
256.570817
20
85.166648
11
257.447751
21
83.957412
0
LINE
8
boundary
62
5
39
2
10
257.447751
20
83.957412
11
258.963669
21
81.917308
0
LINE
8
boundary
62
5
39
2
10
258.963669
20
81.917308
11
260.602254
21
79.752310
0
LINE
8
boundary
62
5
39
2
10
260.602254
20
79.752310
11
261.426001
21
78.744517
0
LINE
8
boundary
62
5
39
2
10
261.426001
20
78.744517
11
263.342413
21
76.468013
0
LINE
8
boundary
62
5
39
2
10
263.342413
20
76.468013
11
264.034159
21
75.589608
0
LINE
8
boundary
62
5
39
2
10
264.034159
20
75.589608
11
265.674109
21
73.665875
0
LINE
8
boundary
62
5
39
2
10
265.674109
20
73.665875
11
267.844562
21
71.240013
0
LINE
8
boundary
62
5
39
2
10
267.844562
20
71.240013
11
270.803712
21
68.164663
0
LINE
8
boundary
62
5
39
2
10
270.803712
20
68.164663
11
274.883000
21
64.069433
0
LINE
8
boundary
62
5
39
2
10
274.883000
20
64.069433
11
282.725115
21
57.189103
0
LINE
8
boundary
62
5
39
2
10
282.725115
20
57.189103
11
284.177036
21
55.913242
0
LINE
8
boundary
62
5
39
2
10
284.177036
20
55.913242
11
284.738364
21
55.444290
0
LINE
8
boundary
62
5
39
2
10
284.738364
20
55.444290
11
285.715680
21
54.638421
0
LINE
8
boundary
62
5
39
2
10
285.715680
20
54.638421
11
287.294826
21
53.346365
0
LINE
8
boundary
62
5
39
2
10
287.294826
20
53.346365
11
287.999825
21
53.886266
0
LINE
8
boundary
62
5
39
2
10
287.999825
20
53.886266
11
287.999825
21
201.160590
0
LINE
8
boundary
62
5
39
2
10
287.999825
20
201.160590
11
292.445826
21
201.160590
0
LINE
8
boundary
62
5
39
2
10
292.445826
20
201.160590
11
292.445825
21
49.313126
0
LINE
8
boundary
62
5
39
2
10
292.445825
20
49.313126
11
293.150826
21
48.773226
0
LINE
8
boundary
62
5
39
2
10
293.150826
20
48.773226
11
296.931221
21
45.939781
0
LINE
8
boundary
62
5
39
2
10
296.931221
20
45.939781
11
297.420733
21
45.574055
0
LINE
8
boundary
62
5
39
2
10
297.420733
20
45.574055
11
299.722773
21
44.087455
0
LINE
8
boundary
62
5
39
2
10
299.722773
20
44.087455
11
302.315637
21
42.554053
0
LINE
8
boundary
62
5
39
2
10
302.315637
20
42.554053
11
305.117059
21
40.881728
0
LINE
8
boundary
62
5
39
2
10
305.117059
20
40.881728
11
307.296526
21
39.592078
0
LINE
8
boundary
62
5
39
2
10
307.296526
20
39.592078
11
309.436537
21
38.307127
0
LINE
8
boundary
62
5
39
2
10
309.436537
20
38.307127
11
311.692378
21
37.092391
0
LINE
8
boundary
62
5
39
2
10
311.692378
20
37.092391
11
312.375972
21
36.819553
0
LINE
8
boundary
62
5
39
2
10
312.375972
20
36.819553
11
317.751517
21
34.597040
0
LINE
8
boundary
62
5
39
2
10
317.751517
20
34.597040
11
319.644770
21
33.798578
0
LINE
8
boundary
62
5
39
2
10
319.644770
20
33.798578
11
320.378450
21
33.533767
0
LINE
8
boundary
62
5
39
2
10
320.378450
20
33.533767
11
323.971207
21
32.381529
0
LINE
8
boundary
62
5
39
2
10
323.971207
20
32.381529
11
325.783632
21
31.826790
0
LINE
8
boundary
62
5
39
2
10
325.783632
20
31.826790
11
328.809360
21
30.962750
0
LINE
8
boundary
62
5
39
2
10
328.809360
20
30.962750
11
331.256637
21
30.310180
0
LINE
8
boundary
62
5
39
2
10
331.256637
20
30.310180
11
332.306717
21
30.059207
0
LINE
8
boundary
62
5
39
2
10
332.306717
20
30.059207
11
334.589745
21
29.517170
0
LINE
8
boundary
62
5
39
2
10
334.589745
20
29.517170
11
336.818308
21
28.996234
0
LINE
8
boundary
62
5
39
2
10
336.818308
20
28.996234
11
337.483615
21
28.855016
0
LINE
8
boundary
62
5
39
2
10
337.483615
20
28.855016
11
338.142909
21
28.715977
0
LINE
8
boundary
62
5
39
2
10
338.142909
20
28.715977
11
339.880113
21
28.332276
0
LINE
8
boundary
62
5
39
2
10
339.880113
20
28.332276
11
340.585113
21
28.872176
0
LINE
8
boundary
62
5
39
2
10
340.585113
20
28.872176
11
340.585113
21
166.707275
0
LINE
8
boundary
62
5
39
2
10
340.585113
20
166.707275
11
345.031113
21
166.707276
0
LINE
8
boundary
62
5
39
2
10
345.031113
20
166.707276
11
345.031113
21
27.614366
0
LINE
8
boundary
62
5
39
2
10
345.031113
20
27.614366
11
345.736113
21
27.074466
0
LINE
8
boundary
62
5
39
2
10
345.736113
20
27.074466
11
346.674374
21
26.872683
0
LINE
8
boundary
62
5
39
2
10
346.674374
20
26.872683
11
347.574493
21
26.690363
0
LINE
8
boundary
62
5
39
2
10
347.574493
20
26.690363
11
349.261746
21
26.320850
0
LINE
8
boundary
62
5
39
2
10
349.261746
20
26.320850
11
351.185505
21
25.907360
0
LINE
8
boundary
62
5
39
2
10
351.185505
20
25.907360
11
351.797534
21
25.767215
0
LINE
8
boundary
62
5
39
2
10
351.797534
20
25.767215
11
353.735194
21
25.343148
0
LINE
8
boundary
62
5
39
2
10
353.735194
20
25.343148
11
354.334746
21
25.214009
0
LINE
8
boundary
62
5
39
2
10
354.334746
20
25.214009
11
355.421015
21
24.968584
0
LINE
8
boundary
62
5
39
2
10
355.421015
20
24.968584
11
356.512324
21
24.714987
0
LINE
8
boundary
62
5
39
2
10
356.512324
20
24.714987
11
357.510605
21
24.476868
0
LINE
8
boundary
62
5
39
2
10
357.510605
20
24.476868
11
358.516418
21
24.248814
0
LINE
8
boundary
62
5
39
2
10
358.516418
20
24.248814
11
359.871768
21
23.919024
0
LINE
8
boundary
62
5
39
2
10
359.871768
20
23.919024
11
361.232101
21
23.572796
0
LINE
8
boundary
62
5
39
2
10
361.232101
20
23.572796
11
362.507199
21
23.265298
0
LINE
8
boundary
62
5
39
2
10
362.507199
20
23.265298
11
363.298319
21
23.054463
0
LINE
8
boundary
62
5
39
2
10
363.298319
20
23.054463
11
366.522137
21
22.185424
0
LINE
8
boundary
62
5
39
2
10
366.522137
20
22.185424
11
369.251827
21
21.388868
0
LINE
8
boundary
62
5
39
2
10
369.251827
20
21.388868
11
370.344355
21
21.070126
0
LINE
8
boundary
62
5
39
2
10
370.344355
20
21.070126
11
372.096042
21
20.512571
0
LINE
8
boundary
62
5
39
2
10
372.096042
20
20.512571
11
374.093323
21
19.868774
0
LINE
8
boundary
62
5
39
2
10
374.093323
20
19.868774
11
377.245173
21
18.808154
0
LINE
8
boundary
62
5
39
2
10
377.245173
20
18.808154
11
379.440907
21
17.993654
0
LINE
8
boundary
62
5
39
2
10
379.440907
20
17.993654
11
380.261696
21
17.683629
0
LINE
8
boundary
62
5
39
2
10
380.261696
20
17.683629
11
384.912261
21
15.917791
0
LINE
8
boundary
62
5
39
2
10
384.912261
20
15.917791
11
385.808629
21
15.588554
0
LINE
8
boundary
62
5
39
2
10
385.808629
20
15.588554
11
387.709638
21
14.879624
0
LINE
8
boundary
62
5
39
2
10
387.709638
20
14.879624
11
389.503541
21
14.161553
0
LINE
8
boundary
62
5
39
2
10
389.503541
20
14.161553
11
390.240152
21
13.870816
0
LINE
8
boundary
62
5
39
2
10
390.240152
20
13.870816
11
392.128877
21
13.127700
0
LINE
8
boundary
62
5
39
2
10
392.128877
20
13.127700
11
393.170401
21
13.539108
0
LINE
8
boundary
62
5
39
2
10
393.170401
20
13.539108
11
393.170401
21
137.406171
0
LINE
8
boundary
62
5
39
2
10
393.170401
20
137.406171
11
397.616400
21
137.406170
0
LINE
8
boundary
62
5
39
2
10
397.616400
20
137.406170
11
397.616401
21
11.363097
0
LINE
8
boundary
62
5
39
2
10
397.616401
20
11.363097
11
398.321400
21
10.823196
0
LINE
8
boundary
62
5
39
2
10
398.321400
20
10.823196
11
399.022248
21
10.562452
0
LINE
8
boundary
62
5
39
2
10
399.022248
20
10.562452
11
401.094186
21
9.856649
0
LINE
8
boundary
62
5
39
2
10
401.094186
20
9.856649
11
402.532148
21
9.347102
0
LINE
8
boundary
62
5
39
2
10
402.532148
20
9.347102
11
404.928572
21
8.577700
0
LINE
8
boundary
62
5
39
2
10
404.928572
20
8.577700
11
406.039858
21
8.206550
0
LINE
8
boundary
62
5
39
2
10
406.039858
20
8.206550
11
409.383842
21
7.186785
0
LINE
8
boundary
62
5
39
2
10
409.383842
20
7.186785
11
411.982453
21
6.452281
0
LINE
8
boundary
62
5
39
2
10
411.982453
20
6.452281
11
413.178918
21
6.086155
0
LINE
8
boundary
62
5
39
2
10
413.178918
20
6.086155
11
414.299276
21
5.805329
0
LINE
8
boundary
62
5
39
2
10
414.299276
20
5.805329
11
416.222466
21
5.271606
0
LINE
8
boundary
62
5
39
2
10
416.222466
20
5.271606
11
416.822985
21
5.097084
0
LINE
8
boundary
62
5
39
2
10
416.822985
20
5.097084
11
419.518654
21
4.400799
0
LINE
8
boundary
62
5
39
2
10
419.518654
20
4.400799
11
420.547464
21
4.125181
0
LINE
8
boundary
62
5
39
2
10
420.547464
20
4.125181
11
422.231179
21
3.742949
0
LINE
8
boundary
62
5
39
2
10
422.231179
20
3.742949
11
423.143127
21
3.523332
0
LINE
8
boundary
62
5
39
2
10
423.143127
20
3.523332
11
424.287442
21
3.208133
0
LINE
8
boundary
62
5
39
2
10
424.287442
20
3.208133
11
427.492003
21
2.502145
0
LINE
8
boundary
62
5
39
2
10
427.492003
20
2.502145
11
428.165414
21
2.334461
0
LINE
8
boundary
62
5
39
2
10
428.165414
20
2.334461
11
432.047379
21
1.587500
0
LINE
8
boundary
62
5
39
2
10
432.047379
20
1.587500
11
432.421561
21
2.038858
0
LINE
8
boundary
62
5
39
2
10
432.421561
20
2.038858
11
432.774799
21
2.461704
0
LINE
8
boundary
62
5
39
2
10
432.774799
20
2.461704
11
434.082596
21
4.041359
0
LINE
8
boundary
62
5
39
2
10
434.082596
20
4.041359
11
434.950024
21
5.072449
0
LINE
8
boundary
62
5
39
2
10
434.950024
20
5.072449
11
435.987511
21
6.317967
0
LINE
8
boundary
62
5
39
2
10
435.987511
20
6.317967
11
437.012537
21
7.546130
0
LINE
8
boundary
62
5
39
2
10
437.012537
20
7.546130
11
438.110758
21
8.860519
0
LINE
8
boundary
62
5
39
2
10
438.110758
20
8.860519
11
439.487871
21
10.509206
0
LINE
8
boundary
62
5
39
2
10
439.487871
20
10.509206
11
440.899463
21
12.195757
0
LINE
8
boundary
62
5
39
2
10
440.899463
20
12.195757
11
441.908952
21
13.400118
0
LINE
8
boundary
62
5
39
2
10
441.908952
20
13.400118
11
445.024150
21
17.115851
0
LINE
8
boundary
62
5
39
2
10
445.024150
20
17.115851
11
445.755688
21
17.985778
0
LINE
8
boundary
62
5
39
2
10
445.755688
20
17.985778
11
445.755689
21
37.018175
0
LINE
8
boundary
62
5
39
2
10
445.755689
20
37.018175
11
450.201688
21
37.018175
0
LINE
8
boundary
62
5
39
2
10
450.201688
20
37.018175
11
450.201688
21
24.620803
0
LINE
8
boundary
62
5
39
2
10
450.201688
20
24.620803
11
450.906688
21
24.080903
0
LINE
8
boundary
62
5
39
2
10
450.906688
20
24.080903
11
451.490257
21
24.767878
0
LINE
8
boundary
62
5
39
2
10
451.490257
20
24.767878
11
452.831434
21
26.342847
0
LINE
8
boundary
62
5
39
2
10
452.831434
20
26.342847
11
453.411110
21
27.022275
0
LINE
8
boundary
62
5
39
2
10
453.411110
20
27.022275
11
455.068988
21
28.959423
0
LINE
8
boundary
62
5
39
2
10
455.068988
20
28.959423
11
455.627825
21
29.611220
0
LINE
8
boundary
62
5
39
2
10
455.627825
20
29.611220
11
456.807885
21
30.982857
0
LINE
8
boundary
62
5
39
2
10
456.807885
20
30.982857
11
457.335467
21
31.594816
0
LINE
8
boundary
62
5
39
2
10
457.335467
20
31.594816
11
456.885375
21
32.805810
0
LINE
8
boundary
62
5
39
2
10
456.885375
20
32.805810
11
456.607176
21
33.482395
0
LINE
8
boundary
62
5
39
2
10
456.607176
20
33.482395
11
456.338726
21
34.140090
0
LINE
8
boundary
62
5
39
2
10
456.338726
20
34.140090
11
455.737153
21
35.617939
0
LINE
8
boundary
62
5
39
2
10
455.737153
20
35.617939
11
455.282182
21
36.643306
0
LINE
8
boundary
62
5
39
2
10
455.282182
20
36.643306
11
454.691278
21
38.011746
0
LINE
8
boundary
62
5
39
2
10
454.691278
20
38.011746
11
453.935342
21
39.696005
0
LINE
8
boundary
62
5
39
2
10
453.935342
20
39.696005
11
453.579761
21
40.516990
0
LINE
8
boundary
62
5
39
2
10
453.579761
20
40.516990
11
453.169003
21
41.371532
0
LINE
8
boundary
62
5
39
2
10
453.169003
20
41.371532
11
452.747368
21
42.285978
0
LINE
8
boundary
62
5
39
2
10
452.747368
20
42.285978
11
452.420698
21
43.028398
0
LINE
8
boundary
62
5
39
2
10
452.420698
20
43.028398
11
451.536774
21
44.891953
0
LINE
8
boundary
62
5
39
2
10
451.536774
20
44.891953
11
451.260498
21
45.505086
0
LINE
8
boundary
62
5
39
2
10
451.260498
20
45.505086
11
450.927869
21
46.296062
0
LINE
8
boundary
62
5
39
2
10
450.927869
20
46.296062
11
450.262527
21
47.689610
0
LINE
8
boundary
62
5
39
2
10
450.262527
20
47.689610
11
449.381325
21
49.583501
0
LINE
8
boundary
62
5
39
2
10
449.381325
20
49.583501
11
446.376662
21
56.183052
0
LINE
8
boundary
62
5
39
2
10
446.376662
20
56.183052
11
446.041182
21
56.864974
0
LINE
8
boundary
62
5
39
2
10
446.041182
20
56.864974
11
445.614776
21
57.574058
0
LINE
8
boundary
62
5
39
2
10
445.614776
20
57.574058
11
442.836354
21
63.956244
0
LINE
8
boundary
62
5
39
2
10
442.836354
20
63.956244
11
442.348390
21
65.029883
0
LINE
8
boundary
62
5
39
2
10
442.348390
20
65.029883
11
441.264790
21
67.764393
0
LINE
8
boundary
62
5
39
2
10
441.264790
20
67.764393
11
440.308083
21
69.972260
0
LINE
8
boundary
62
5
39
2
10
440.308083
20
69.972260
11
439.846396
21
71.114176
0
LINE
8
boundary
62
5
39
2
10
439.846396
20
71.114176
11
437.755960
21
77.678238
0
LINE
8
boundary
62
5
39
2
10
437.755960
20
77.678238
11
437.398548
21
78.517467
0
LINE
8
boundary
62
5
39
2
10
437.398548
20
78.517467
11
437.191621
21
79.298928
0
LINE
8
boundary
62
5
39
2
10
437.191621
20
79.298928
11
436.953714
21
80.509683
0
LINE
8
boundary
62
5
39
2
10
436.953714
20
80.509683
11
436.327158
21
83.355220
0
LINE
8
boundary
62
5
39
2
10
436.327158
20
83.355220
11
435.965529
21
86.329441
0
LINE
8
boundary
62
5
39
2
10
435.965529
20
86.329441
11
435.729646
21
93.342143
0
LINE
8
boundary
62
5
39
2
10
435.729646
20
93.342143
11
435.930979
21
96.074567
0
LINE
8
boundary
62
5
39
2
10
435.930979
20
96.074567
11
436.128447
21
99.010127
0
LINE
8
boundary
62
5
39
2
10
436.128447
20
99.010127
11
436.325837
21
102.760227
0
LINE
8
boundary
62
5
39
2
10
436.325837
20
102.760227
11
436.590519
21
106.224169
0
LINE
8
boundary
62
5
39
2
10
436.590519
20
106.224169
11
436.666764
21
107.528161
0
LINE
8
boundary
62
5
39
2
10
436.666764
20
107.528161
11
436.754049
21
109.102317
0
LINE
8
boundary
62
5
39
2
10
436.754049
20
109.102317
11
436.785526
21
109.742186
0
LINE
8
boundary
62
5
39
2
10
436.785526
20
109.742186
11
436.831960
21
111.204542
0
LINE
8
boundary
62
5
39
2
10
436.831960
20
111.204542
11
436.963758
21
116.348599
0
LINE
8
boundary
62
5
39
2
10
436.963758
20
116.348599
11
436.995545
21
119.793768
0
LINE
8
boundary
62
5
39
2
10
436.995545
20
119.793768
11
436.995595
21
120.720748
0
LINE
8
boundary
62
5
39
2
10
436.995595
20
120.720748
11
437.005700
21
123.153075
0
LINE
8
boundary
62
5
39
2
10
437.005700
20
123.153075
11
437.008607
21
124.554950
0
LINE
8
boundary
62
5
39
2
10
437.008607
20
124.554950
11
437.005855
21
126.607197
0
LINE
8
boundary
62
5
39
2
10
437.005855
20
126.607197
11
436.980526
21
128.500434
0
LINE
8
boundary
62
5
39
2
10
436.980526
20
128.500434
11
436.941844
21
129.965091
0
LINE
8
boundary
62
5
39
2
10
436.941844
20
129.965091
11
436.954271
21
137.354199
0
LINE
8
boundary
62
5
39
2
10
436.954271
20
137.354199
11
436.943367
21
141.095964
0
LINE
8
boundary
62
5
39
2
10
436.943367
20
141.095964
11
436.925314
21
145.802579
0
LINE
8
boundary
62
5
39
2
10
436.925314
20
145.802579
11
436.940603
21
146.378332
0
LINE
8
boundary
62
5
39
2
10
436.940603
20
146.378332
11
436.944165
21
147.128259
0
LINE
8
boundary
62
5
39
2
10
436.944165
20
147.128259
11
436.838861
21
154.135520
0
LINE
8
boundary
62
5
39
2
10
436.838861
20
154.135520
11
436.829666
21
155.083584
0
LINE
8
boundary
62
5
39
2
10
436.829666
20
155.083584
11
436.826528
21
155.599678
0
LINE
8
boundary
62
5
39
2
10
436.826528
20
155.599678
11
436.521391
21
162.924555
0
LINE
8
boundary
62
5
39
2
10
436.521391
20
162.924555
11
436.484905
21
165.063651
0
LINE
8
boundary
62
5
39
2
10
436.484905
20
165.063651
11
436.369385
21
167.504202
0
LINE
8
boundary
62
5
39
2
10
436.369385
20
167.504202
11
436.079624
21
172.225189
0
LINE
8
boundary
62
5
39
2
10
436.079624
20
172.225189
11
435.863890
21
174.772342
0
LINE
8
boundary
62
5
39
2
10
435.863890
20
174.772342
11
434.978070
21
182.427574
0
LINE
8
boundary
62
5
39
2
10
434.978070
20
182.427574
11
434.798947
21
184.695152
0
LINE
8
boundary
62
5
39
2
10
434.798947
20
184.695152
11
434.562401
21
186.771510
0
LINE
8
boundary
62
5
39
2
10
434.562401
20
186.771510
11
433.900951
21
190.341657
0
LINE
8
boundary
62
5
39
2
10
433.900951
20
190.341657
11
433.243662
21
193.859456
0
LINE
8
boundary
62
5
39
2
10
433.243662
20
193.859456
11
433.114216
21
194.529125
0
LINE
8
boundary
62
5
39
2
10
433.114216
20
194.529125
11
432.267155
21
198.507600
0
LINE
8
boundary
62
5
39
2
10
432.267155
20
198.507600
11
431.138186
21
203.495231
0
LINE
8
boundary
62
5
39
2
10
431.138186
20
203.495231
11
430.903321
21
204.498053
0
LINE
8
boundary
62
5
39
2
10
430.903321
20
204.498053
11
430.424208
21
206.608929
0
LINE
8
boundary
62
5
39
2
10
430.424208
20
206.608929
11
428.506240
21
214.932723
0
LINE
8
boundary
62
5
39
2
10
428.506240
20
214.932723
11
427.533976
21
219.807758
0
LINE
8
boundary
62
5
39
2
10
427.533976
20
219.807758
11
427.418766
21
220.351350
0
LINE
8
boundary
62
5
39
2
10
427.418766
20
220.351350
11
426.387213
21
225.055849
0
LINE
8
boundary
62
5
39
2
10
426.387213
20
225.055849
11
424.950732
21
231.797247
0
LINE
8
boundary
62
5
39
2
10
424.950732
20
231.797247
11
424.214491
21
235.396075
0
LINE
8
boundary
62
5
39
2
10
424.214491
20
235.396075
11
423.535525
21
238.281121
0
LINE
8
boundary
62
5
39
2
10
423.535525
20
238.281121
11
421.585518
21
243.870670
0
LINE
8
boundary
62
5
39
2
10
421.585518
20
243.870670
11
420.831723
21
245.741209
0
LINE
8
boundary
62
5
39
2
10
420.831723
20
245.741209
11
415.997101
21
252.664373
0
LINE
8
boundary
62
5
39
2
10
415.997101
20
252.664373
11
414.615188
21
254.641282
0
LINE
8
boundary
62
5
39
2
10
414.615188
20
254.641282
11
413.186322
21
255.688684
0
LINE
8
boundary
62
5
39
2
10
413.186322
20
255.688684
11
407.288256
21
259.383406
0
LINE
8
boundary
62
5
39
2
10
407.288256
20
259.383406
11
403.612998
21
260.881995
0
LINE
8
boundary
62
5
39
2
10
403.612998
20
260.881995
11
402.917373
21
261.163238
0
LINE
8
boundary
62
5
39
2
10
402.917373
20
261.163238
11
402.101622
21
261.424568
0
LINE
8
boundary
62
5
39
2
10
402.101622
20
261.424568
11
399.116515
21
262.350126
0
LINE
8
boundary
62
5
39
2
10
399.116515
20
262.350126
11
397.763834
21
262.721143
0
LINE
8
boundary
62
5
39
2
10
397.763834
20
262.721143
11
396.227240
21
263.148045
0
LINE
8
boundary
62
5
39
2
10
396.227240
20
263.148045
11
395.585892
21
263.330499
0
LINE
8
boundary
62
5
39
2
10
395.585892
20
263.330499
11
393.142703
21
263.995037
0
LINE
8
boundary
62
5
39
2
10
393.142703
20
263.995037
11
390.723014
21
264.673173
0
LINE
8
boundary
62
5
39
2
10
390.723014
20
264.673173
11
389.664294
21
264.977793
0
LINE
8
boundary
62
5
39
2
10
389.664294
20
264.977793
11
387.863673
21
265.539784
0
LINE
8
boundary
62
5
39
2
10
387.863673
20
265.539784
11
386.677240
21
265.942877
0
LINE
8
boundary
62
5
39
2
10
386.677240
20
265.942877
11
385.781127
21
266.270858
0
LINE
8
boundary
62
5
39
2
10
385.781127
20
266.270858
11
385.025288
21
266.554966
0
LINE
8
boundary
62
5
39
2
10
385.025288
20
266.554966
11
384.079383
21
266.940533
0
LINE
8
boundary
62
5
39
2
10
384.079383
20
266.940533
11
383.043819
21
267.400807
0
LINE
8
boundary
62
5
39
2
10
383.043819
20
267.400807
11
381.522912
21
268.134596
0
LINE
8
boundary
62
5
39
2
10
381.522912
20
268.134596
11
380.476870
21
268.725189
0
LINE
8
boundary
62
5
39
2
10
380.476870
20
268.725189
11
379.114687
21
269.558907
0
LINE
8
boundary
62
5
39
2
10
379.114687
20
269.558907
11
378.435844
21
269.996342
0
LINE
8
boundary
62
5
39
2
10
378.435844
20
269.996342
11
377.478551
21
270.701536
0
LINE
8
boundary
62
5
39
2
10
377.478551
20
270.701536
11
377.031952
21
271.010637
0
LINE
8
boundary
62
5
39
2
10
377.031952
20
271.010637
11
375.179634
21
272.456184
0
LINE
8
boundary
62
5
39
2
10
375.179634
20
272.456184
11
374.768303
21
272.780845
0
LINE
8
boundary
62
5
39
2
10
374.768303
20
272.780845
11
372.631421
21
274.605788
0
LINE
8
boundary
62
5
39
2
10
372.631421
20
274.605788
11
371.222290
21
275.919556
0
LINE
8
boundary
62
5
39
2
10
371.222290
20
275.919556
11
370.590646
21
276.495594
0
LINE
8
boundary
62
5
39
2
10
370.590646
20
276.495594
11
369.880927
21
277.192769
0
LINE
8
boundary
62
5
39
2
10
369.880927
20
277.192769
11
369.011712
21
278.022743
0
LINE
8
boundary
62
5
39
2
10
369.011712
20
278.022743
11
368.589716
21
278.454771
0
LINE
8
boundary
62
5
39
2
10
368.589716
20
278.454771
11
367.672673
21
279.392619
0
LINE
8
boundary
62
5
39
2
10
367.672673
20
279.392619
11
366.213435
21
280.883544
0
LINE
8
boundary
62
5
39
2
10
366.213435
20
280.883544
11
365.113420
21
282.056672
0
LINE
8
boundary
62
5
39
2
10
365.113420
20
282.056672
11
363.968427
21
283.300211
0
LINE
8
boundary
62
5
39
2
10
363.968427
20
283.300211
11
362.712010
21
284.694365
0
LINE
8
boundary
62
5
39
2
10
362.712010
20
284.694365
11
359.636769
21
288.128205
0
LINE
8
boundary
62
5
39
2
10
359.636769
20
288.128205
11
351.906788
21
296.391071
0
LINE
8
boundary
62
5
39
2
10
351.906788
20
296.391071
11
350.474586
21
297.872078
0
LINE
8
boundary
62
5
39
2
10
350.474586
20
297.872078
11
348.155507
21
300.155844
0
LINE
8
boundary
62
5
39
2
10
348.155507
20
300.155844
11
343.965312
21
304.173691
0
LINE
8
boundary
62
5
39
2
10
343.965312
20
304.173691
11
340.691437
21
307.233742
0
LINE
8
boundary
62
5
39
2
10
340.691437
20
307.233742
11
336.965234
21
310.536630
0
LINE
8
boundary
62
5
39
2
10
336.965234
20
310.536630
11
335.853885
21
311.488949
0
LINE
8
boundary
62
5
39
2
10
335.853885
20
311.488949
11
335.096306
21
312.148415
0
LINE
8
boundary
62
5
39
2
10
335.096306
20
312.148415
11
330.356432
21
316.156967
0
LINE
8
boundary
62
5
39
2
10
330.356432
20
316.156967
11
327.575426
21
318.510278
0
LINE
8
boundary
62
5
39
2
10
327.575426
20
318.510278
11
320.980114
21
324.264272
0
LINE
8
boundary
62
5
39
2
10
320.980114
20
324.264272
11
320.026879
21
325.101217
0
LINE
8
boundary
62
5
39
2
10
320.026879
20
325.101217
11
319.453015
21
325.575686
0
LINE
8
boundary
62
5
39
2
10
319.453015
20
325.575686
11
317.436518
21
327.352542
0
LINE
8
boundary
62
5
39
2
10
317.436518
20
327.352542
11
311.330022
21
332.549022
0
LINE
8
boundary
62
5
39
2
10
311.330022
20
332.549022
11
310.589237
21
333.188901
0
LINE
8
boundary
62
5
39
2
10
310.589237
20
333.188901
11
309.674280
21
334.035960
0
LINE
8
boundary
62
5
39
2
10
309.674280
20
334.035960
11
306.607173
21
336.659761
0
LINE
8
boundary
62
5
39
2
10
306.607173
20
336.659761
11
304.449514
21
338.458637
0
LINE
8
boundary
62
5
39
2
10
304.449514
20
338.458637
11
303.346261
21
339.535178
0
LINE
8
boundary
62
5
39
2
10
303.346261
20
339.535178
11
302.616673
21
340.210193
0
LINE
8
boundary
62
5
39
2
10
302.616673
20
340.210193
11
299.439427
21
343.012653
0
LINE
8
boundary
62
5
39
2
10
299.439427
20
343.012653
11
297.199434
21
344.995128
0
LINE
8
boundary
62
5
39
2
10
297.199434
20
344.995128
11
295.482631
21
346.557684
0
LINE
8
boundary
62
5
39
2
10
295.482631
20
346.557684
11
289.981048
21
351.671815
0
LINE
8
boundary
62
5
39
2
10
289.981048
20
351.671815
11
289.498553
21
352.091417
0
LINE
8
boundary
62
5
39
2
10
289.498553
20
352.091417
11
288.551772
21
353.013416
0
LINE
8
boundary
62
5
39
2
10
288.551772
20
353.013416
11
287.835763
21
353.791200
0
LINE
8
boundary
62
5
39
2
10
287.835763
20
353.791200
11
280.914777
21
361.000895
0
LINE
8
boundary
62
5
39
2
10
280.914777
20
361.000895
11
280.456121
21
361.464996
0
LINE
8
boundary
62
5
39
2
10
280.456121
20
361.464996
11
275.940946
21
367.135593
0
LINE
8
boundary
62
5
39
2
10
275.940946
20
367.135593
11
273.604239
21
370.018639
0
LINE
8
boundary
62
5
39
2
10
273.604239
20
370.018639
11
272.293126
21
371.659945
0
LINE
8
boundary
62
5
39
2
10
272.293126
20
371.659945
11
270.748266
21
373.922465
0
LINE
8
boundary
62
5
39
2
10
270.748266
20
373.922465
11
267.049563
21
379.035846
0
LINE
8
boundary
62
5
39
2
10
267.049563
20
379.035846
11
265.805962
21
380.752281
0
LINE
8
boundary
62
5
39
2
10
265.805962
20
380.752281
11
265.416904
21
381.317722
0
LINE
8
boundary
62
5
39
2
10
265.416904
20
381.317722
11
264.934702
21
382.012813
0
LINE
8
boundary
62
5
39
2
10
264.934702
20
382.012813
11
263.452379
21
384.057036
0
LINE
8
boundary
62
5
39
2
10
263.452379
20
384.057036
11
262.234204
21
385.785663
0
LINE
8
boundary
62
5
39
2
10
262.234204
20
385.785663
11
260.496936
21
387.945542
0
LINE
8
annotation
62
1
39
211
10
23.536388
20
389.562884
11
31.056388
21
389.562884
0
LINE
8
annotation
62
1
39
211
10
31.056388
20
389.562884
11
29.384124
21
391.234677
0
LINE
8
annotation
62
1
39
211
10
76.121614
20
385.389798
11
76.121614
21
388.729610
0
LINE
8
annotation
62
1
39
211
10
76.121614
20
388.729610
11
81.089832
21
385.643514
0
LINE
8
annotation
62
1
39
211
10
81.089832
20
385.643514
11
81.089832
21
385.643514
0
LINE
8
annotation
62
1
39
211
10
81.089832
20
385.643514
11
81.094397
21
385.639825
0
LINE
8
annotation
62
1
39
211
10
81.094397
20
385.639825
11
81.099001
21
385.636287
0
LINE
8
annotation
62
1
39
211
10
81.099001
20
385.636287
11
81.103683
21
385.632877
0
LINE
8
annotation
62
1
39
211
10
81.103683
20
385.632877
11
81.108481
21
385.629572
0
LINE
8
annotation
62
1
39
211
10
81.108481
20
385.629572
11
81.113434
21
385.626349
0
LINE
8
annotation
62
1
39
211
10
81.113434
20
385.626349
11
81.118582
21
385.623184
0
LINE
8
annotation
62
1
39
211
10
81.118582
20
385.623184
11
81.123962
21
385.620053
0
LINE
8
annotation
62
1
39
211
10
81.123962
20
385.620053
11
81.129614
21
385.616934
0
LINE
8
annotation
62
1
39
211
10
81.129614
20
385.616934
11
81.135576
21
385.613804
0
LINE
8
annotation
62
1
39
211
10
81.135576
20
385.613804
11
81.135576
21
385.613804
0
LINE
8
annotation
62
1
39
211
10
81.135576
20
385.613804
11
81.409167
21
385.486380
0
LINE
8
annotation
62
1
39
211
10
81.409167
20
385.486380
11
81.692767
21
385.411941
0
LINE
8
annotation
62
1
39
211
10
81.692767
20
385.411941
11
81.979970
21
385.388663
0
LINE
8
annotation
62
1
39
211
10
81.979970
20
385.388663
11
82.264366
21
385.414721
0
LINE
8
annotation
62
1
39
211
10
82.264366
20
385.414721
11
82.539548
21
385.488292
0
LINE
8
annotation
62
1
39
211
10
82.539548
20
385.488292
11
82.799107
21
385.607551
0
LINE
8
annotation
62
1
39
211
10
82.799107
20
385.607551
11
83.036635
21
385.770674
0
LINE
8
annotation
62
1
39
211
10
83.036635
20
385.770674
11
83.245725
21
385.975836
0
LINE
8
annotation
62
1
39
211
10
83.245725
20
385.975836
11
83.419966
21
386.221214
0
LINE
8
annotation
62
1
39
211
10
83.419966
20
386.221214
11
83.419966
21
386.221214
0
LINE
8
annotation
62
1
39
211
10
83.419966
20
386.221214
11
83.545580
21
386.495565
0
LINE
8
annotation
62
1
39
211
10
83.545580
20
386.495565
11
83.618872
21
386.779601
0
LINE
8
annotation
62
1
39
211
10
83.618872
20
386.779601
11
83.641492
21
387.066970
0
LINE
8
annotation
62
1
39
211
10
83.641492
20
387.066970
11
83.615090
21
387.351324
0
LINE
8
annotation
62
1
39
211
10
83.615090
20
387.351324
11
83.541315
21
387.626311
0
LINE
8
annotation
62
1
39
211
10
83.541315
20
387.626311
11
83.421818
21
387.885583
0
LINE
8
annotation
62
1
39
211
10
83.421818
20
387.885583
11
83.258247
21
388.122789
0
LINE
8
annotation
62
1
39
211
10
83.258247
20
388.122789
11
83.052252
21
388.331580
0
LINE
8
annotation
62
1
39
211
10
83.052252
20
388.331580
11
82.805482
21
388.505604
0
LINE
8
annotation
62
1
39
211
10
82.805482
20
388.505604
11
82.384823
21
388.724894
0
LINE
8
annotation
62
1
39
211
10
128.707199
20
388.305725
11
128.707199
21
386.635819
0
LINE
8
annotation
62
1
39
211
10
128.707199
20
386.635819
11
128.707199
21
386.635819
0
LINE
8
annotation
62
1
39
211
10
128.707199
20
386.635819
11
128.734141
21
386.335482
0
LINE
8
annotation
62
1
39
211
10
128.734141
20
386.335482
11
128.811790
21
386.052876
0
LINE
8
annotation
62
1
39
211
10
128.811790
20
386.052876
11
128.935379
21
385.792700
0
LINE
8
annotation
62
1
39
211
10
128.935379
20
385.792700
11
129.100143
21
385.559656
0
LINE
8
annotation
62
1
39
211
10
129.100143
20
385.559656
11
129.301314
21
385.358443
0
LINE
8
annotation
62
1
39
211
10
129.301314
20
385.358443
11
129.534126
21
385.193762
0
LINE
8
annotation
62
1
39
211
10
129.534126
20
385.193762
11
129.793813
21
385.070313
0
LINE
8
annotation
62
1
39
211
10
129.793813
20
385.070313
11
130.075609
21
384.992796
0
LINE
8
annotation
62
1
39
211
10
130.075609
20
384.992796
11
130.374747
21
384.965913
0
LINE
8
annotation
62
1
39
211
10
130.374747
20
384.965913
11
131.210879
21
384.965913
0
LINE
8
annotation
62
1
39
211
10
131.210879
20
384.965913
11
131.210879
21
384.965913
0
LINE
8
annotation
62
1
39
211
10
131.210879
20
384.965913
11
131.509892
21
384.992796
0
LINE
8
annotation
62
1
39
211
10
131.509892
20
384.992796
11
131.791622
21
385.070313
0
LINE
8
annotation
62
1
39
211
10
131.791622
20
385.070313
11
132.051290
21
385.193762
0
LINE
8
annotation
62
1
39
211
10
132.051290
20
385.193762
11
132.284118
21
385.358443
0
LINE
8
annotation
62
1
39
211
10
132.284118
20
385.358443
11
132.485328
21
385.559656
0
LINE
8
annotation
62
1
39
211
10
132.485328
20
385.559656
11
132.650141
21
385.792700
0
LINE
8
annotation
62
1
39
211
10
132.650141
20
385.792700
11
132.773781
21
386.052876
0
LINE
8
annotation
62
1
39
211
10
132.773781
20
386.052876
11
132.851469
21
386.335482
0
LINE
8
annotation
62
1
39
211
10
132.851469
20
386.335482
11
132.878427
21
386.635819
0
LINE
8
annotation
62
1
39
211
10
132.878427
20
386.635819
11
132.878427
21
387.471951
0
LINE
8
annotation
62
1
39
211
10
132.878427
20
387.471951
11
132.878427
21
386.635819
0
LINE
8
annotation
62
1
39
211
10
132.878427
20
386.635819
11
132.878427
21
386.635819
0
LINE
8
annotation
62
1
39
211
10
132.878427
20
386.635819
11
132.905391
21
386.335482
0
LINE
8
annotation
62
1
39
211
10
132.905391
20
386.335482
11
132.983124
21
386.052876
0
LINE
8
annotation
62
1
39
211
10
132.983124
20
386.052876
11
133.106887
21
385.792700
0
LINE
8
annotation
62
1
39
211
10
133.106887
20
385.792700
11
133.271940
21
385.559656
0
LINE
8
annotation
62
1
39
211
10
133.271940
20
385.559656
11
133.473544
21
385.358443
0
LINE
8
annotation
62
1
39
211
10
133.473544
20
385.358443
11
133.706961
21
385.193762
0
LINE
8
annotation
62
1
39
211
10
133.706961
20
385.193762
11
133.967450
21
385.070313
0
LINE
8
annotation
62
1
39
211
10
133.967450
20
385.070313
11
134.250273
21
384.992796
0
LINE
8
annotation
62
1
39
211
10
134.250273
20
384.992796
11
134.550691
21
384.965913
0
LINE
8
annotation
62
1
39
211
10
134.550691
20
384.965913
11
134.550691
21
384.965913
0
LINE
8
annotation
62
1
39
211
10
134.550691
20
384.965913
11
134.849704
21
384.992796
0
LINE
8
annotation
62
1
39
211
10
134.849704
20
384.992796
11
135.131434
21
385.070313
0
LINE
8
annotation
62
1
39
211
10
135.131434
20
385.070313
11
135.391102
21
385.193762
0
LINE
8
annotation
62
1
39
211
10
135.391102
20
385.193762
11
135.623930
21
385.358443
0
LINE
8
annotation
62
1
39
211
10
135.623930
20
385.358443
11
135.825139
21
385.559656
0
LINE
8
annotation
62
1
39
211
10
135.825139
20
385.559656
11
135.989953
21
385.792700
0
LINE
8
annotation
62
1
39
211
10
135.989953
20
385.792700
11
136.113593
21
386.052876
0
LINE
8
annotation
62
1
39
211
10
136.113593
20
386.052876
11
136.191281
21
386.335482
0
LINE
8
annotation
62
1
39
211
10
136.191281
20
386.335482
11
136.218239
21
386.635819
0
LINE
8
annotation
62
1
39
211
10
136.218239
20
386.635819
11
136.218239
21
388.305725
0
LINE
8
annotation
62
1
39
211
10
182.964043
20
347.197750
11
182.964043
21
351.373222
0
LINE
8
annotation
62
1
39
211
10
182.964043
20
351.373222
11
188.812250
21
349.705674
0
LINE
8
annotation
62
1
39
211
10
181.292250
20
348.449354
11
184.632062
21
348.449354
0
LINE
8
annotation
62
1
39
211
10
233.877538
20
274.695413
11
233.877538
21
273.025508
0
LINE
8
annotation
62
1
39
211
10
233.877538
20
273.025508
11
233.877538
21
273.025508
0
LINE
8
annotation
62
1
39
211
10
233.877538
20
273.025508
11
233.904486
21
272.725792
0
LINE
8
annotation
62
1
39
211
10
233.904486
20
272.725792
11
233.982176
21
272.443516
0
LINE
8
annotation
62
1
39
211
10
233.982176
20
272.443516
11
234.105876
21
272.183437
0
LINE
8
annotation
62
1
39
211
10
234.105876
20
272.183437
11
234.270854
21
271.950315
0
LINE
8
annotation
62
1
39
211
10
234.270854
20
271.950315
11
234.472381
21
271.748908
0
LINE
8
annotation
62
1
39
211
10
234.472381
20
271.748908
11
234.705723
21
271.583974
0
LINE
8
annotation
62
1
39
211
10
234.705723
20
271.583974
11
234.966149
21
271.460273
0
LINE
8
annotation
62
1
39
211
10
234.966149
20
271.460273
11
235.248929
21
271.382563
0
LINE
8
annotation
62
1
39
211
10
235.248929
20
271.382563
11
235.549330
21
271.355602
0
LINE
8
annotation
62
1
39
211
10
235.549330
20
271.355602
11
236.381218
21
271.355602
0
LINE
8
annotation
62
1
39
211
10
236.381218
20
271.355602
11
236.381218
21
271.355602
0
LINE
8
annotation
62
1
39
211
10
236.381218
20
271.355602
11
236.681474
21
271.382547
0
LINE
8
annotation
62
1
39
211
10
236.681474
20
271.382547
11
236.963863
21
271.460219
0
LINE
8
annotation
62
1
39
211
10
236.963863
20
271.460219
11
237.223725
21
271.583869
0
LINE
8
annotation
62
1
39
211
10
237.223725
20
271.583869
11
237.456398
21
271.748752
0
LINE
8
annotation
62
1
39
211
10
237.456398
20
271.748752
11
237.657219
21
271.950121
0
LINE
8
annotation
62
1
39
211
10
237.657219
20
271.950121
11
237.821529
21
272.183227
0
LINE
8
annotation
62
1
39
211
10
237.821529
20
272.183227
11
237.944664
21
272.443325
0
LINE
8
annotation
62
1
39
211
10
237.944664
20
272.443325
11
238.021963
21
272.725668
0
LINE
8
annotation
62
1
39
211
10
238.021963
20
272.725668
11
238.048766
21
273.025508
0
LINE
8
annotation
62
1
39
211
10
238.048766
20
273.025508
11
238.048766
21
274.695413
0
LINE
8
annotation
62
1
39
211
10
238.048766
20
274.695413
11
241.397538
21
274.695413
0
LINE
8
annotation
62
1
39
211
10
241.397538
20
274.695413
11
241.397538
21
271.355602
0
LINE
8
annotation
62
1
39
211
10
293.982826
20
209.850043
11
293.982826
21
209.850043
0
LINE
8
annotation
62
1
39
211
10
293.982826
20
209.850043
11
293.803460
21
210.328429
0
LINE
8
annotation
62
1
39
211
10
293.803460
20
210.328429
11
293.561785
21
210.767411
0
LINE
8
annotation
62
1
39
211
10
293.561785
20
210.767411
11
293.263858
21
211.162482
0
LINE
8
annotation
62
1
39
211
10
293.263858
20
211.162482
11
292.915732
21
211.509137
0
LINE
8
annotation
62
1
39
211
10
292.915732
20
211.509137
11
292.523463
21
211.802869
0
LINE
8
annotation
62
1
39
211
10
292.523463
20
211.802869
11
292.093105
21
212.039171
0
LINE
8
annotation
62
1
39
211
10
292.093105
20
212.039171
11
291.630715
21
212.213538
0
LINE
8
annotation
62
1
39
211
10
291.630715
20
212.213538
11
291.142346
21
212.321462
0
LINE
8
annotation
62
1
39
211
10
291.142346
20
212.321462
11
290.634053
21
212.358439
0
LINE
8
annotation
62
1
39
211
10
290.634053
20
212.358439
11
288.134618
21
212.358439
0
LINE
8
annotation
62
1
39
211
10
288.134618
20
212.358439
11
288.134618
21
212.358439
0
LINE
8
annotation
62
1
39
211
10
288.134618
20
212.358439
11
287.834217
21
212.331478
0
LINE
8
annotation
62
1
39
211
10
287.834217
20
212.331478
11
287.551437
21
212.253767
0
LINE
8
annotation
62
1
39
211
10
287.551437
20
212.253767
11
287.291010
21
212.130066
0
LINE
8
annotation
62
1
39
211
10
287.291010
20
212.130066
11
287.057668
21
211.965132
0
LINE
8
annotation
62
1
39
211
10
287.057668
20
211.965132
11
286.856142
21
211.763725
0
LINE
8
annotation
62
1
39
211
10
286.856142
20
211.763725
11
286.691163
21
211.530603
0
LINE
8
annotation
62
1
39
211
10
286.691163
20
211.530603
11
286.567463
21
211.270525
0
LINE
8
annotation
62
1
39
211
10
286.567463
20
211.270525
11
286.489774
21
210.988248
0
LINE
8
annotation
62
1
39
211
10
286.489774
20
210.988248
11
286.462826
21
210.688533
0
LINE
8
annotation
62
1
39
211
10
286.462826
20
210.688533
11
286.462826
21
210.688533
0
LINE
8
annotation
62
1
39
211
10
286.462826
20
210.688533
11
286.489774
21
210.388196
0
LINE
8
annotation
62
1
39
211
10
286.489774
20
210.388196
11
286.567463
21
210.105590
0
LINE
8
annotation
62
1
39
211
10
286.567463
20
210.105590
11
286.691163
21
209.845414
0
LINE
8
annotation
62
1
39
211
10
286.691163
20
209.845414
11
286.856142
21
209.612370
0
LINE
8
annotation
62
1
39
211
10
286.856142
20
209.612370
11
287.057668
21
209.411157
0
LINE
8
annotation
62
1
39
211
10
287.057668
20
209.411157
11
287.291010
21
209.246475
0
LINE
8
annotation
62
1
39
211
10
287.291010
20
209.246475
11
287.551437
21
209.123026
0
LINE
8
annotation
62
1
39
211
10
287.551437
20
209.123026
11
287.834217
21
209.045510
0
LINE
8
annotation
62
1
39
211
10
287.834217
20
209.045510
11
288.134618
21
209.018627
0
LINE
8
annotation
62
1
39
211
10
288.134618
20
209.018627
11
288.966505
21
209.018627
0
LINE
8
annotation
62
1
39
211
10
288.966505
20
209.018627
11
288.966505
21
209.018627
0
LINE
8
annotation
62
1
39
211
10
288.966505
20
209.018627
11
289.266761
21
209.045510
0
LINE
8
annotation
62
1
39
211
10
289.266761
20
209.045510
11
289.549151
21
209.123026
0
LINE
8
annotation
62
1
39
211
10
289.549151
20
209.123026
11
289.809013
21
209.246475
0
LINE
8
annotation
62
1
39
211
10
289.809013
20
209.246475
11
290.041685
21
209.411157
0
LINE
8
annotation
62
1
39
211
10
290.041685
20
209.411157
11
290.242507
21
209.612370
0
LINE
8
annotation
62
1
39
211
10
290.242507
20
209.612370
11
290.406816
21
209.845414
0
LINE
8
annotation
62
1
39
211
10
290.406816
20
209.845414
11
290.529951
21
210.105590
0
LINE
8
annotation
62
1
39
211
10
290.529951
20
210.105590
11
290.607251
21
210.388196
0
LINE
8
annotation
62
1
39
211
10
290.607251
20
210.388196
11
290.634053
21
210.688533
0
LINE
8
annotation
62
1
39
211
10
290.634053
20
210.688533
11
290.634053
21
212.358439
0
LINE
8
annotation
62
1
39
211
10
285.522826
20
212.567589
11
285.522826
21
208.807589
0
LINE
8
annotation
62
1
39
211
10
339.048113
20
176.235219
11
346.568113
21
174.563426
0
LINE
8
annotation
62
1
39
211
10
346.568113
20
174.563426
11
346.568113
21
177.907482
0
LINE
8
annotation
62
1
39
211
10
343.219341
20
174.563426
11
343.219341
21
176.235219
0
LINE
8
annotation
62
1
39
211
10
393.300713
20
148.604020
11
393.300713
21
148.604020
0
LINE
8
annotation
62
1
39
211
10
393.300713
20
148.604020
11
393.000457
21
148.577059
0
LINE
8
annotation
62
1
39
211
10
393.000457
20
148.577059
11
392.718067
21
148.499349
0
LINE
8
annotation
62
1
39
211
10
392.718067
20
148.499349
11
392.458206
21
148.375647
0
LINE
8
annotation
62
1
39
211
10
392.458206
20
148.375647
11
392.225533
21
148.210714
0
LINE
8
annotation
62
1
39
211
10
392.225533
20
148.210714
11
392.024711
21
148.009307
0
LINE
8
annotation
62
1
39
211
10
392.024711
20
148.009307
11
391.860402
21
147.776185
0
LINE
8
annotation
62
1
39
211
10
391.860402
20
147.776185
11
391.737267
21
147.516106
0
LINE
8
annotation
62
1
39
211
10
391.737267
20
147.516106
11
391.659967
21
147.233830
0
LINE
8
annotation
62
1
39
211
10
391.659967
20
147.233830
11
391.633165
21
146.934114
0
LINE
8
annotation
62
1
39
211
10
391.633165
20
146.934114
11
391.633165
21
146.934114
0
LINE
8
annotation
62
1
39
211
10
391.633165
20
146.934114
11
391.659967
21
146.634398
0
LINE
8
annotation
62
1
39
211
10
391.659967
20
146.634398
11
391.737267
21
146.352122
0
LINE
8
annotation
62
1
39
211
10
391.737267
20
146.352122
11
391.860402
21
146.092044
0
LINE
8
annotation
62
1
39
211
10
391.860402
20
146.092044
11
392.024711
21
145.858921
0
LINE
8
annotation
62
1
39
211
10
392.024711
20
145.858921
11
392.225533
21
145.657514
0
LINE
8
annotation
62
1
39
211
10
392.225533
20
145.657514
11
392.458206
21
145.492581
0
LINE
8
annotation
62
1
39
211
10
392.458206
20
145.492581
11
392.718067
21
145.368879
0
LINE
8
annotation
62
1
39
211
10
392.718067
20
145.368879
11
393.000457
21
145.291169
0
LINE
8
annotation
62
1
39
211
10
393.000457
20
145.291169
11
393.300713
21
145.264208
0
LINE
8
annotation
62
1
39
211
10
393.300713
20
145.264208
11
394.132600
21
145.264208
0
LINE
8
annotation
62
1
39
211
10
394.132600
20
145.264208
11
394.132600
21
145.264208
0
LINE
8
annotation
62
1
39
211
10
394.132600
20
145.264208
11
394.433002
21
145.291154
0
LINE
8
annotation
62
1
39
211
10
394.433002
20
145.291154
11
394.715781
21
145.368825
0
LINE
8
annotation
62
1
39
211
10
394.715781
20
145.368825
11
394.976208
21
145.492476
0
LINE
8
annotation
62
1
39
211
10
394.976208
20
145.492476
11
395.209550
21
145.657359
0
LINE
8
annotation
62
1
39
211
10
395.209550
20
145.657359
11
395.411076
21
145.858727
0
LINE
8
annotation
62
1
39
211
10
395.411076
20
145.858727
11
395.576055
21
146.091834
0
LINE
8
annotation
62
1
39
211
10
395.576055
20
146.091834
11
395.699755
21
146.351932
0
LINE
8
annotation
62
1
39
211
10
395.699755
20
146.351932
11
395.777445
21
146.634274
0
LINE
8
annotation
62
1
39
211
10
395.777445
20
146.634274
11
395.804393
21
146.934114
0
LINE
8
annotation
62
1
39
211
10
395.804393
20
146.934114
11
395.804393
21
146.934114
0
LINE
8
annotation
62
1
39
211
10
395.804393
20
146.934114
11
395.777429
21
147.233954
0
LINE
8
annotation
62
1
39
211
10
395.777429
20
147.233954
11
395.699701
21
147.516296
0
LINE
8
annotation
62
1
39
211
10
395.699701
20
147.516296
11
395.575950
21
147.776394
0
LINE
8
annotation
62
1
39
211
10
395.575950
20
147.776394
11
395.410921
21
148.009501
0
LINE
8
annotation
62
1
39
211
10
395.410921
20
148.009501
11
395.209356
21
148.210869
0
LINE
8
annotation
62
1
39
211
10
395.209356
20
148.210869
11
394.975998
21
148.375752
0
LINE
8
annotation
62
1
39
211
10
394.975998
20
148.375752
11
394.715591
21
148.499403
0
LINE
8
annotation
62
1
39
211
10
394.715591
20
148.499403
11
394.432877
21
148.577075
0
LINE
8
annotation
62
1
39
211
10
394.432877
20
148.577075
11
394.132600
21
148.604020
0
LINE
8
annotation
62
1
39
211
10
394.132600
20
148.604020
11
393.300713
21
148.604020
0
LINE
8
annotation
62
1
39
211
10
397.476657
20
145.264208
11
397.476657
21
145.264208
0
LINE
8
annotation
62
1
39
211
10
397.476657
20
145.264208
11
397.775670
21
145.291154
0
LINE
8
annotation
62
1
39
211
10
397.775670
20
145.291154
11
398.057400
21
145.368825
0
LINE
8
annotation
62
1
39
211
10
398.057400
20
145.368825
11
398.317068
21
145.492476
0
LINE
8
annotation
62
1
39
211
10
398.317068
20
145.492476
11
398.549896
21
145.657359
0
LINE
8
annotation
62
1
39
211
10
398.549896
20
145.657359
11
398.751105
21
145.858727
0
LINE
8
annotation
62
1
39
211
10
398.751105
20
145.858727
11
398.915919
21
146.091834
0
LINE
8
annotation
62
1
39
211
10
398.915919
20
146.091834
11
399.039559
21
146.351932
0
LINE
8
annotation
62
1
39
211
10
399.039559
20
146.351932
11
399.117247
21
146.634274
0
LINE
8
annotation
62
1
39
211
10
399.117247
20
146.634274
11
399.144204
21
146.934114
0
LINE
8
annotation
62
1
39
211
10
399.144204
20
146.934114
11
399.144204
21
146.934114
0
LINE
8
annotation
62
1
39
211
10
399.144204
20
146.934114
11
399.117247
21
147.233954
0
LINE
8
annotation
62
1
39
211
10
399.117247
20
147.233954
11
399.039559
21
147.516296
0
LINE
8
annotation
62
1
39
211
10
399.039559
20
147.516296
11
398.915919
21
147.776394
0
LINE
8
annotation
62
1
39
211
10
398.915919
20
147.776394
11
398.751105
21
148.009501
0
LINE
8
annotation
62
1
39
211
10
398.751105
20
148.009501
11
398.549896
21
148.210869
0
LINE
8
annotation
62
1
39
211
10
398.549896
20
148.210869
11
398.317068
21
148.375752
0
LINE
8
annotation
62
1
39
211
10
398.317068
20
148.375752
11
398.057400
21
148.499403
0
LINE
8
annotation
62
1
39
211
10
398.057400
20
148.499403
11
397.775670
21
148.577075
0
LINE
8
annotation
62
1
39
211
10
397.775670
20
148.577075
11
397.476657
21
148.604020
0
LINE
8
annotation
62
1
39
211
10
397.476657
20
148.604020
11
397.476657
21
148.604020
0
LINE
8
annotation
62
1
39
211
10
397.476657
20
148.604020
11
397.176239
21
148.577059
0
LINE
8
annotation
62
1
39
211
10
397.176239
20
148.577059
11
396.893416
21
148.499349
0
LINE
8
annotation
62
1
39
211
10
396.893416
20
148.499349
11
396.632927
21
148.375647
0
LINE
8
annotation
62
1
39
211
10
396.632927
20
148.375647
11
396.399510
21
148.210714
0
LINE
8
annotation
62
1
39
211
10
396.399510
20
148.210714
11
396.197906
21
148.009307
0
LINE
8
annotation
62
1
39
211
10
396.197906
20
148.009307
11
396.032853
21
147.776185
0
LINE
8
annotation
62
1
39
211
10
396.032853
20
147.776185
11
395.909090
21
147.516106
0
LINE
8
annotation
62
1
39
211
10
395.909090
20
147.516106
11
395.831357
21
147.233830
0
LINE
8
annotation
62
1
39
211
10
395.831357
20
147.233830
11
395.804393
21
146.934114
0
LINE
8
annotation
62
1
39
211
10
395.804393
20
146.934114
11
395.804393
21
146.934114
0
LINE
8
annotation
62
1
39
211
10
395.804393
20
146.934114
11
395.831357
21
146.634398
0
LINE
8
annotation
62
1
39
211
10
395.831357
20
146.634398
11
395.909090
21
146.352122
0
LINE
8
annotation
62
1
39
211
10
395.909090
20
146.352122
11
396.032853
21
146.092044
0
LINE
8
annotation
62
1
39
211
10
396.032853
20
146.092044
11
396.197906
21
145.858921
0
LINE
8
annotation
62
1
39
211
10
396.197906
20
145.858921
11
396.399510
21
145.657514
0
LINE
8
annotation
62
1
39
211
10
396.399510
20
145.657514
11
396.632927
21
145.492581
0
LINE
8
annotation
62
1
39
211
10
396.632927
20
145.492581
11
396.893416
21
145.368879
0
LINE
8
annotation
62
1
39
211
10
396.893416
20
145.368879
11
397.176239
21
145.291169
0
LINE
8
annotation
62
1
39
211
10
397.176239
20
145.291169
11
397.476657
21
145.264208
0
LINE
8
annotation
62
1
39
211
10
445.422915
20
44.103590
11
445.422915
21
44.103590
0
LINE
8
annotation
62
1
39
211
10
445.422915
20
44.103590
11
445.543876
21
43.778991
0
LINE
8
annotation
62
1
39
211
10
445.543876
20
43.778991
11
445.707378
21
43.481049
0
LINE
8
annotation
62
1
39
211
10
445.707378
20
43.481049
11
445.909254
21
43.212843
0
LINE
8
annotation
62
1
39
211
10
445.909254
20
43.212843
11
446.145338
21
42.977453
0
LINE
8
annotation
62
1
39
211
10
446.145338
20
42.977453
11
446.411464
21
42.777956
0
LINE
8
annotation
62
1
39
211
10
446.411464
20
42.777956
11
446.703467
21
42.617433
0
LINE
8
annotation
62
1
39
211
10
446.703467
20
42.617433
11
447.017180
21
42.498961
0
LINE
8
annotation
62
1
39
211
10
447.017180
20
42.498961
11
447.348438
21
42.425620
0
LINE
8
annotation
62
1
39
211
10
447.348438
20
42.425620
11
447.693075
21
42.400489
0
LINE
8
annotation
62
1
39
211
10
447.693075
20
42.400489
11
449.397778
21
42.400489
0
LINE
8
annotation
62
1
39
211
10
449.397778
20
42.400489
11
449.397778
21
42.400489
0
LINE
8
annotation
62
1
39
211
10
449.397778
20
42.400489
11
449.601980
21
42.418763
0
LINE
8
annotation
62
1
39
211
10
449.601980
20
42.418763
11
449.794223
21
42.471453
0
LINE
8
annotation
62
1
39
211
10
449.794223
20
42.471453
11
449.971284
21
42.555364
0
LINE
8
annotation
62
1
39
211
10
449.971284
20
42.555364
11
450.129944
21
42.667302
0
LINE
8
annotation
62
1
39
211
10
450.129944
20
42.667302
11
450.266980
21
42.804072
0
LINE
8
annotation
62
1
39
211
10
450.266980
20
42.804072
11
450.379171
21
42.962479
0
LINE
8
annotation
62
1
39
211
10
450.379171
20
42.962479
11
450.463296
21
43.139327
0
LINE
8
annotation
62
1
39
211
10
450.463296
20
43.139327
11
450.516133
21
43.331423
0
LINE
8
annotation
62
1
39
211
10
450.516133
20
43.331423
11
450.534461
21
43.535569
0
LINE
8
annotation
62
1
39
211
10
450.534461
20
43.535569
11
450.534461
21
43.535569
0
LINE
8
annotation
62
1
39
211
10
450.534461
20
43.535569
11
450.516133
21
43.739294
0
LINE
8
annotation
62
1
39
211
10
450.516133
20
43.739294
11
450.463296
21
43.931165
0
LINE
8
annotation
62
1
39
211
10
450.463296
20
43.931165
11
450.379171
21
44.107947
0
LINE
8
annotation
62
1
39
211
10
450.379171
20
44.107947
11
450.266980
21
44.266407
0
LINE
8
annotation
62
1
39
211
10
450.266980
20
44.266407
11
450.129944
21
44.403309
0
LINE
8
annotation
62
1
39
211
10
450.129944
20
44.403309
11
449.971284
21
44.515418
0
LINE
8
annotation
62
1
39
211
10
449.971284
20
44.515418
11
449.794223
21
44.599501
0
LINE
8
annotation
62
1
39
211
10
449.794223
20
44.599501
11
449.601980
21
44.652323
0
LINE
8
annotation
62
1
39
211
10
449.601980
20
44.652323
11
449.397778
21
44.670649
0
LINE
8
annotation
62
1
39
211
10
449.397778
20
44.670649
11
448.829437
21
44.670649
0
LINE
8
annotation
62
1
39
211
10
448.829437
20
44.670649
11
448.829437
21
44.670649
0
LINE
8
annotation
62
1
39
211
10
448.829437
20
44.670649
11
448.625246
21
44.652323
0
LINE
8
annotation
62
1
39
211
10
448.625246
20
44.652323
11
448.433033
21
44.599501
0
LINE
8
annotation
62
1
39
211
10
448.433033
20
44.599501
11
448.256014
21
44.515418
0
LINE
8
annotation
62
1
39
211
10
448.256014
20
44.515418
11
448.097405
21
44.403309
0
LINE
8
annotation
62
1
39
211
10
448.097405
20
44.403309
11
447.960423
21
44.266407
0
LINE
8
annotation
62
1
39
211
10
447.960423
20
44.266407
11
447.848282
21
44.107947
0
LINE
8
annotation
62
1
39
211
10
447.848282
20
44.107947
11
447.764200
21
43.931165
0
LINE
8
annotation
62
1
39
211
10
447.764200
20
43.931165
11
447.711392
21
43.739294
0
LINE
8
annotation
62
1
39
211
10
447.711392
20
43.739294
11
447.693075
21
43.535569
0
LINE
8
annotation
62
1
39
211
10
447.693075
20
43.535569
11
447.693075
21
42.400489
0
LINE
8
annotation
62
1
39
211
10
444.783971
20
44.812494
11
444.783971
21
42.256721
0
LINE
8
annotation
62
1
39
211
10
345.878426
20
221.303759
11
334.354788
21
204.635871
0
LINE
8
annotation
62
1
39
211
10
334.354788
20
204.635871
11
322.828983
21
221.303759
0
LINE
8
annotation
62
1
39
211
10
334.354788
20
205.977190
11
334.354788
21
186.748012
0
LINE
8
annotation
62
1
39
211
10
377.733658
20
204.025885
11
358.840352
21
204.025885
0
LINE
8
annotation
62
1
39
211
10
390.688000
20
186.749096
11
398.361036
21
186.749096
0
LINE
8
annotation
62
1
39
211
10
398.361036
20
186.749096
11
398.361036
21
186.749096
0
LINE
8
annotation
62
1
39
211
10
398.361036
20
186.749096
11
399.738196
21
186.872919
0
LINE
8
annotation
62
1
39
211
10
399.738196
20
186.872919
11
401.035225
21
187.229895
0
LINE
8
annotation
62
1
39
211
10
401.035225
20
187.229895
11
402.230258
21
187.798282
0
LINE
8
annotation
62
1
39
211
10
402.230258
20
187.798282
11
403.301429
21
188.556342
0
LINE
8
annotation
62
1
39
211
10
403.301429
20
188.556342
11
404.226873
21
189.482333
0
LINE
8
annotation
62
1
39
211
10
404.226873
20
189.482333
11
404.984724
21
190.554514
0
LINE
8
annotation
62
1
39
211
10
404.984724
20
190.554514
11
405.553118
21
191.751146
0
LINE
8
annotation
62
1
39
211
10
405.553118
20
191.751146
11
405.910189
21
193.050488
0
LINE
8
annotation
62
1
39
211
10
405.910189
20
193.050488
11
406.034071
21
194.430799
0
LINE
8
annotation
62
1
39
211
10
406.034071
20
194.430799
11
406.034071
21
198.253232
0
LINE
8
annotation
62
1
39
211
10
406.034071
20
198.253232
11
406.034071
21
198.253232
0
LINE
8
annotation
62
1
39
211
10
406.034071
20
198.253232
11
405.910260
21
199.632874
0
LINE
8
annotation
62
1
39
211
10
405.910260
20
199.632874
11
405.553368
21
200.930423
0
LINE
8
annotation
62
1
39
211
10
405.553368
20
200.930423
11
404.985206
21
202.124460
0
LINE
8
annotation
62
1
39
211
10
404.985206
20
202.124460
11
404.227586
21
203.193565
0
LINE
8
annotation
62
1
39
211
10
404.227586
20
203.193565
11
403.302320
21
204.116319
0
LINE
8
annotation
62
1
39
211
10
403.302320
20
204.116319
11
402.231221
21
204.871302
0
LINE
8
annotation
62
1
39
211
10
402.231221
20
204.871302
11
401.036099
21
205.437095
0
LINE
8
annotation
62
1
39
211
10
401.036099
20
205.437095
11
399.738767
21
205.792278
0
LINE
8
annotation
62
1
39
211
10
399.738767
20
205.792278
11
398.361036
21
205.915433
0
LINE
8
annotation
62
1
39
211
10
398.361036
20
205.915433
11
390.688000
21
205.915433
0
LINE
8
annotation
62
1
39
211
10
390.688000
20
205.915433
11
390.688000
21
221.302675
0
LINE
8
annotation
62
1
39
211
10
390.688000
20
221.302675
11
406.034071
21
221.302675
0
LINE
8
boundary
62
5
39
2
10
469.010821
20
60.784774
11
468.856915
21
59.821790
0
LINE
8
boundary
62
5
39
2
10
468.856915
20
59.821790
11
468.615302
21
58.310045
0
LINE
8
boundary
62
5
39
2
10
468.615302
20
58.310045
11
467.168102
21
49.255163
0
LINE
8
boundary
62
5
39
2
10
467.168102
20
49.255163
11
466.294481
21
43.788911
0
LINE
8
boundary
62
5
39
2
10
466.294481
20
43.788911
11
465.526101
21
38.981229
0
LINE
8
boundary
62
5
39
2
10
465.526101
20
38.981229
11
464.390346
21
31.874904
0
LINE
8
boundary
62
5
39
2
10
464.390346
20
31.874904
11
463.982386
21
29.322341
0
LINE
8
boundary
62
5
39
2
10
463.982386
20
29.322341
11
463.618515
21
27.044856
0
LINE
8
boundary
62
5
39
2
10
463.618515
20
27.044856
11
462.452152
21
19.745927
0
LINE
8
boundary
62
5
39
2
10
462.452152
20
19.745927
11
461.720993
21
15.170803
0
LINE
8
boundary
62
5
39
2
10
461.720993
20
15.170803
11
460.896497
21
10.013839
0
LINE
8
boundary
62
5
39
2
10
460.896497
20
10.013839
11
460.510468
21
7.599642
0
LINE
8
boundary
62
5
39
2
10
460.510468
20
7.599642
11
461.698290
21
7.058245
0
LINE
8
boundary
62
5
39
2
10
461.698290
20
7.058245
11
463.176860
21
6.442587
0
LINE
8
boundary
62
5
39
2
10
463.176860
20
6.442587
11
469.019322
21
4.561564
0
LINE
8
boundary
62
5
39
2
10
469.019322
20
4.561564
11
470.814689
21
3.983221
0
LINE
8
boundary
62
5
39
2
10
470.814689
20
3.983221
11
471.476220
21
3.786086
0
LINE
8
boundary
62
5
39
2
10
471.476220
20
3.786086
11
474.096758
21
3.218851
0
LINE
8
boundary
62
5
39
2
10
474.096758
20
3.218851
11
475.167769
21
3.015645
0
LINE
8
boundary
62
5
39
2
10
475.167769
20
3.015645
11
476.951856
21
2.828438
0
LINE
8
boundary
62
5
39
2
10
476.951856
20
2.828438
11
482.270157
21
2.391716
0
LINE
8
boundary
62
5
39
2
10
482.270157
20
2.391716
11
485.403845
21
1.869775
0
LINE
8
boundary
62
5
39
2
10
485.403845
20
1.869775
11
487.111355
21
1.732867
0
LINE
8
boundary
62
5
39
2
10
487.111355
20
1.732867
11
487.816355
21
2.272767
0
LINE
8
boundary
62
5
39
2
10
487.816355
20
2.272767
11
487.816355
21
101.180449
0
LINE
8
boundary
62
5
39
2
10
487.816355
20
101.180449
11
492.262355
21
101.180449
0
LINE
8
boundary
62
5
39
2
10
492.262355
20
101.180449
11
492.262355
21
2.366938
0
LINE
8
boundary
62
5
39
2
10
492.262355
20
2.366938
11
492.967355
21
1.827038
0
LINE
8
boundary
62
5
39
2
10
492.967355
20
1.827038
11
493.992070
21
1.902722
0
LINE
8
boundary
62
5
39
2
10
493.992070
20
1.902722
11
497.217483
21
2.158034
0
LINE
8
boundary
62
5
39
2
10
497.217483
20
2.158034
11
502.615950
21
3.025090
0
LINE
8
boundary
62
5
39
2
10
502.615950
20
3.025090
11
503.561784
21
3.137551
0
LINE
8
boundary
62
5
39
2
10
503.561784
20
3.137551
11
504.823554
21
3.351199
0
LINE
8
boundary
62
5
39
2
10
504.823554
20
3.351199
11
508.162643
21
4.250433
0
LINE
8
boundary
62
5
39
2
10
508.162643
20
4.250433
11
509.280946
21
4.582916
0
LINE
8
boundary
62
5
39
2
10
509.280946
20
4.582916
11
511.154794
21
5.340773
0
LINE
8
boundary
62
5
39
2
10
511.154794
20
5.340773
11
512.347418
21
5.771471
0
LINE
8
boundary
62
5
39
2
10
512.347418
20
5.771471
11
517.005194
21
7.861777
0
LINE
8
boundary
62
5
39
2
10
517.005194
20
7.861777
11
518.913234
21
8.753983
0
LINE
8
boundary
62
5
39
2
10
518.913234
20
8.753983
11
519.370810
21
9.097099
0
LINE
8
boundary
62
5
39
2
10
519.370810
20
9.097099
11
524.313721
21
12.736901
0
LINE
8
boundary
62
5
39
2
10
524.313721
20
12.736901
11
526.742674
21
14.946549
0
LINE
8
boundary
62
5
39
2
10
526.742674
20
14.946549
11
529.233010
21
17.301682
0
LINE
8
boundary
62
5
39
2
10
529.233010
20
17.301682
11
532.904814
21
22.685389
0
LINE
8
boundary
62
5
39
2
10
532.904814
20
22.685389
11
533.141536
21
23.188229
0
LINE
8
boundary
62
5
39
2
10
533.141536
20
23.188229
11
535.585860
21
28.933445
0
LINE
8
boundary
62
5
39
2
10
535.585860
20
28.933445
11
536.963263
21
34.253941
0
LINE
8
boundary
62
5
39
2
10
536.963263
20
34.253941
11
537.309923
21
35.555637
0
LINE
8
boundary
62
5
39
2
10
537.309923
20
35.555637
11
537.690987
21
37.089310
0
LINE
8
boundary
62
5
39
2
10
537.690987
20
37.089310
11
537.989547
21
38.658476
0
LINE
8
boundary
62
5
39
2
10
537.989547
20
38.658476
11
538.621303
21
42.326094
0
LINE
8
boundary
62
5
39
2
10
538.621303
20
42.326094
11
538.915275
21
44.302686
0
LINE
8
boundary
62
5
39
2
10
538.915275
20
44.302686
11
539.004650
21
45.069023
0
LINE
8
boundary
62
5
39
2
10
539.004650
20
45.069023
11
539.410335
21
47.942592
0
LINE
8
boundary
62
5
39
2
10
539.410335
20
47.942592
11
539.696642
21
49.818700
0
LINE
8
boundary
62
5
39
2
10
539.696642
20
49.818700
11
540.119634
21
53.017368
0
LINE
8
boundary
62
5
39
2
10
540.119634
20
53.017368
11
540.401642
21
55.374210
0
LINE
8
boundary
62
5
39
2
10
540.401642
20
55.374210
11
540.401642
21
132.851640
0
LINE
8
boundary
62
5
39
2
10
540.401642
20
132.851640
11
544.847642
21
132.851640
0
LINE
8
boundary
62
5
39
2
10
544.847642
20
132.851640
11
544.847642
21
85.904573
0
LINE
8
boundary
62
5
39
2
10
544.847642
20
85.904573
11
545.552642
21
85.364673
0
LINE
8
boundary
62
5
39
2
10
545.552642
20
85.364673
11
546.116601
21
86.965391
0
LINE
8
boundary
62
5
39
2
10
546.116601
20
86.965391
11
547.193700
21
90.487810
0
LINE
8
boundary
62
5
39
2
10
547.193700
20
90.487810
11
548.252772
21
94.015133
0
LINE
8
boundary
62
5
39
2
10
548.252772
20
94.015133
11
549.234944
21
97.281837
0
LINE
8
boundary
62
5
39
2
10
549.234944
20
97.281837
11
550.319798
21
100.869440
0
LINE
8
boundary
62
5
39
2
10
550.319798
20
100.869440
11
551.558784
21
104.809499
0
LINE
8
boundary
62
5
39
2
10
551.558784
20
104.809499
11
552.374338
21
107.304760
0
LINE
8
boundary
62
5
39
2
10
552.374338
20
107.304760
11
553.705885
21
111.562674
0
LINE
8
boundary
62
5
39
2
10
553.705885
20
111.562674
11
554.478135
21
114.111382
0
LINE
8
boundary
62
5
39
2
10
554.478135
20
114.111382
11
555.368715
21
117.142528
0
LINE
8
boundary
62
5
39
2
10
555.368715
20
117.142528
11
556.188835
21
120.231493
0
LINE
8
boundary
62
5
39
2
10
556.188835
20
120.231493
11
556.867484
21
122.872608
0
LINE
8
boundary
62
5
39
2
10
556.867484
20
122.872608
11
557.519685
21
125.750742
0
LINE
8
boundary
62
5
39
2
10
557.519685
20
125.750742
11
558.468823
21
130.913525
0
LINE
8
boundary
62
5
39
2
10
558.468823
20
130.913525
11
559.057638
21
134.252628
0
LINE
8
boundary
62
5
39
2
10
559.057638
20
134.252628
11
559.237120
21
136.046042
0
LINE
8
boundary
62
5
39
2
10
559.237120
20
136.046042
11
559.339229
21
137.350373
0
LINE
8
boundary
62
5
39
2
10
559.339229
20
137.350373
11
559.630636
21
143.942461
0
LINE
8
boundary
62
5
39
2
10
559.630636
20
143.942461
11
559.692790
21
145.190873
0
LINE
8
boundary
62
5
39
2
10
559.692790
20
145.190873
11
559.755807
21
146.356604
0
LINE
8
boundary
62
5
39
2
10
559.755807
20
146.356604
11
559.761806
21
148.397607
0
LINE
8
boundary
62
5
39
2
10
559.761806
20
148.397607
11
559.606831
21
155.759218
0
LINE
8
boundary
62
5
39
2
10
559.606831
20
155.759218
11
559.626345
21
157.943451
0
LINE
8
boundary
62
5
39
2
10
559.626345
20
157.943451
11
559.594221
21
160.123348
0
LINE
8
boundary
62
5
39
2
10
559.594221
20
160.123348
11
559.391976
21
166.606781
0
LINE
8
boundary
62
5
39
2
10
559.391976
20
166.606781
11
559.406838
21
169.249157
0
LINE
8
boundary
62
5
39
2
10
559.406838
20
169.249157
11
559.402987
21
169.772560
0
LINE
8
boundary
62
5
39
2
10
559.402987
20
169.772560
11
559.318667
21
173.429786
0
LINE
8
boundary
62
5
39
2
10
559.318667
20
173.429786
11
559.133734
21
176.910888
0
LINE
8
boundary
62
5
39
2
10
559.133734
20
176.910888
11
559.054810
21
179.118080
0
LINE
8
boundary
62
5
39
2
10
559.054810
20
179.118080
11
558.845093
21
181.850689
0
LINE
8
boundary
62
5
39
2
10
558.845093
20
181.850689
11
558.745746
21
182.478148
0
LINE
8
boundary
62
5
39
2
10
558.745746
20
182.478148
11
558.169205
21
185.776019
0
LINE
8
boundary
62
5
39
2
10
558.169205
20
185.776019
11
556.891583
21
189.388170
0
LINE
8
boundary
62
5
39
2
10
556.891583
20
189.388170
11
555.196530
21
195.399978
0
LINE
8
boundary
62
5
39
2
10
555.196530
20
195.399978
11
554.855526
21
195.845820
0
LINE
8
boundary
62
5
39
2
10
554.855526
20
195.845820
11
549.817831
21
202.526523
0
LINE
8
boundary
62
5
39
2
10
549.817831
20
202.526523
11
548.982888
21
203.159668
0
LINE
8
boundary
62
5
39
2
10
548.982888
20
203.159668
11
547.187966
21
204.313688
0
LINE
8
boundary
62
5
39
2
10
547.187966
20
204.313688
11
542.886384
21
207.058439
0
LINE
8
boundary
62
5
39
2
10
542.886384
20
207.058439
11
541.950836
21
207.549123
0
LINE
8
boundary
62
5
39
2
10
541.950836
20
207.549123
11
539.687742
21
208.269815
0
LINE
8
boundary
62
5
39
2
10
539.687742
20
208.269815
11
537.228794
21
208.930024
0
LINE
8
boundary
62
5
39
2
10
537.228794
20
208.930024
11
535.880623
21
209.196765
0
LINE
8
boundary
62
5
39
2
10
535.880623
20
209.196765
11
535.006676
21
209.293015
0
LINE
8
boundary
62
5
39
2
10
535.006676
20
209.293015
11
530.761829
21
209.600186
0
LINE
8
boundary
62
5
39
2
10
530.761829
20
209.600186
11
525.549215
21
209.927553
0
LINE
8
boundary
62
5
39
2
10
525.549215
20
209.927553
11
524.788412
21
209.991005
0
LINE
8
boundary
62
5
39
2
10
524.788412
20
209.991005
11
523.613450
21
209.926124
0
LINE
8
boundary
62
5
39
2
10
523.613450
20
209.926124
11
521.911146
21
209.783355
0
LINE
8
boundary
62
5
39
2
10
521.911146
20
209.783355
11
519.268933
21
209.485995
0
LINE
8
boundary
62
5
39
2
10
519.268933
20
209.485995
11
518.674267
21
209.394185
0
LINE
8
boundary
62
5
39
2
10
518.674267
20
209.394185
11
517.954676
21
209.382749
0
LINE
8
boundary
62
5
39
2
10
517.954676
20
209.382749
11
516.103546
21
208.922776
0
LINE
8
boundary
62
5
39
2
10
516.103546
20
208.922776
11
511.545557
21
207.913653
0
LINE
8
boundary
62
5
39
2
10
511.545557
20
207.913653
11
510.296997
21
207.487923
0
LINE
8
boundary
62
5
39
2
10
510.296997
20
207.487923
11
505.002267
21
206.243664
0
LINE
8
boundary
62
5
39
2
10
505.002267
20
206.243664
11
502.240286
21
204.759121
0
LINE
8
boundary
62
5
39
2
10
502.240286
20
204.759121
11
500.914214
21
204.355054
0
LINE
8
boundary
62
5
39
2
10
500.914214
20
204.355054
11
498.872669
21
203.525822
0
LINE
8
boundary
62
5
39
2
10
498.872669
20
203.525822
11
496.343278
21
202.145517
0
LINE
8
boundary
62
5
39
2
10
496.343278
20
202.145517
11
494.073569
21
201.293143
0
LINE
8
boundary
62
5
39
2
10
494.073569
20
201.293143
11
492.549743
21
201.176210
0
LINE
8
boundary
62
5
39
2
10
492.549743
20
201.176210
11
489.451067
21
199.119831
0
LINE
8
boundary
62
5
39
2
10
489.451067
20
199.119831
11
486.847484
21
197.577153
0
LINE
8
boundary
62
5
39
2
10
486.847484
20
197.577153
11
486.170988
21
196.983482
0
LINE
8
boundary
62
5
39
2
10
486.170988
20
196.983482
11
484.273041
21
195.009514
0
LINE
8
boundary
62
5
39
2
10
484.273041
20
195.009514
11
481.625841
21
192.882915
0
LINE
8
boundary
62
5
39
2
10
481.625841
20
192.882915
11
480.294265
21
191.228829
0
LINE
8
boundary
62
5
39
2
10
480.294265
20
191.228829
11
479.446091
21
190.076545
0
LINE
8
boundary
62
5
39
2
10
479.446091
20
190.076545
11
478.108893
21
187.666584
0
LINE
8
boundary
62
5
39
2
10
478.108893
20
187.666584
11
477.572423
21
186.710578
0
LINE
8
boundary
62
5
39
2
10
477.572423
20
186.710578
11
477.180126
21
185.885513
0
LINE
8
boundary
62
5
39
2
10
477.180126
20
185.885513
11
476.531950
21
184.342826
0
LINE
8
boundary
62
5
39
2
10
476.531950
20
184.342826
11
476.236297
21
183.707592
0
LINE
8
boundary
62
5
39
2
10
476.236297
20
183.707592
11
475.569068
21
181.955376
0
LINE
8
boundary
62
5
39
2
10
475.569068
20
181.955376
11
475.076095
21
180.593071
0
LINE
8
boundary
62
5
39
2
10
475.076095
20
180.593071
11
474.868338
21
179.919227
0
LINE
8
boundary
62
5
39
2
10
474.868338
20
179.919227
11
474.534085
21
178.774078
0
LINE
8
boundary
62
5
39
2
10
474.534085
20
178.774078
11
474.149511
21
177.605695
0
LINE
8
boundary
62
5
39
2
10
474.149511
20
177.605695
11
473.927922
21
176.823647
0
LINE
8
boundary
62
5
39
2
10
473.927922
20
176.823647
11
473.565403
21
175.491073
0
LINE
8
boundary
62
5
39
2
10
473.565403
20
175.491073
11
473.369787
21
174.721725
0
LINE
8
boundary
62
5
39
2
10
473.369787
20
174.721725
11
473.221670
21
174.086196
0
LINE
8
boundary
62
5
39
2
10
473.221670
20
174.086196
11
473.091788
21
173.587268
0
LINE
8
boundary
62
5
39
2
10
473.091788
20
173.587268
11
472.876329
21
172.691138
0
LINE
8
boundary
62
5
39
2
10
472.876329
20
172.691138
11
472.673283
21
171.795159
0
LINE
8
boundary
62
5
39
2
10
472.673283
20
171.795159
11
472.487535
21
170.953682
0
LINE
8
boundary
62
5
39
2
10
472.487535
20
170.953682
11
472.373638
21
170.383932
0
LINE
8
boundary
62
5
39
2
10
472.373638
20
170.383932
11
472.211641
21
169.398944
0
LINE
8
boundary
62
5
39
2
10
472.211641
20
169.398944
11
471.989922
21
168.245345
0
LINE
8
boundary
62
5
39
2
10
471.989922
20
168.245345
11
471.700479
21
166.360887
0
LINE
8
boundary
62
5
39
2
10
471.700479
20
166.360887
11
471.619858
21
165.839729
0
LINE
8
boundary
62
5
39
2
10
471.619858
20
165.839729
11
471.248684
21
162.747444
0
LINE
8
boundary
62
5
39
2
10
471.248684
20
162.747444
11
471.194265
21
162.135573
0
LINE
8
boundary
62
5
39
2
10
471.194265
20
162.135573
11
470.930689
21
159.333997
0
LINE
8
boundary
62
5
39
2
10
470.930689
20
159.333997
11
470.878460
21
158.566919
0
LINE
8
boundary
62
5
39
2
10
470.878460
20
158.566919
11
470.703966
21
156.019872
0
LINE
8
boundary
62
5
39
2
10
470.703966
20
156.019872
11
470.662009
21
155.171239
0
LINE
8
boundary
62
5
39
2
10
470.662009
20
155.171239
11
470.548489
21
152.774819
0
LINE
8
boundary
62
5
39
2
10
470.548489
20
152.774819
11
470.526518
21
151.995809
0
LINE
8
boundary
62
5
39
2
10
470.526518
20
151.995809
11
470.470845
21
149.606286
0
LINE
8
boundary
62
5
39
2
10
470.470845
20
149.606286
11
470.469367
21
148.917386
0
LINE
8
boundary
62
5
39
2
10
470.469367
20
148.917386
11
470.463937
21
146.338360
0
LINE
8
boundary
62
5
39
2
10
470.463937
20
146.338360
11
470.478615
21
144.653847
0
LINE
8
boundary
62
5
39
2
10
470.478615
20
144.653847
11
470.554867
21
142.207473
0
LINE
8
boundary
62
5
39
2
10
470.554867
20
142.207473
11
470.689027
21
140.005570
0
LINE
8
boundary
62
5
39
2
10
470.689027
20
140.005570
11
470.891903
21
137.037911
0
LINE
8
boundary
62
5
39
2
10
470.891903
20
137.037911
11
471.068105
21
135.130436
0
LINE
8
boundary
62
5
39
2
10
471.068105
20
135.130436
11
471.266675
21
133.575134
0
LINE
8
boundary
62
5
39
2
10
471.266675
20
133.575134
11
471.397759
21
132.805282
0
LINE
8
boundary
62
5
39
2
10
471.397759
20
132.805282
11
471.686670
21
131.551725
0
LINE
8
boundary
62
5
39
2
10
471.686670
20
131.551725
11
472.115856
21
129.094359
0
LINE
8
boundary
62
5
39
2
10
472.115856
20
129.094359
11
472.531556
21
127.125201
0
LINE
8
boundary
62
5
39
2
10
472.531556
20
127.125201
11
473.085923
21
124.512434
0
LINE
8
boundary
62
5
39
2
10
473.085923
20
124.512434
11
473.240464
21
123.890443
0
LINE
8
boundary
62
5
39
2
10
473.240464
20
123.890443
11
475.914362
21
116.419856
0
LINE
8
boundary
62
5
39
2
10
475.914362
20
116.419856
11
476.235360
21
115.480772
0
LINE
8
boundary
62
5
39
2
10
476.235360
20
115.480772
11
476.929332
21
113.296573
0
LINE
8
boundary
62
5
39
2
10
476.929332
20
113.296573
11
478.310103
21
108.562445
0
LINE
8
boundary
62
5
39
2
10
478.310103
20
108.562445
11
478.462102
21
107.926859
0
LINE
8
boundary
62
5
39
2
10
478.462102
20
107.926859
11
479.594720
21
102.567147
0
LINE
8
boundary
62
5
39
2
10
479.594720
20
102.567147
11
479.619989
21
101.999788
0
LINE
8
boundary
62
5
39
2
10
479.619989
20
101.999788
11
479.741336
21
97.049765
0
LINE
8
boundary
62
5
39
2
10
479.741336
20
97.049765
11
479.515446
21
96.461124
0
LINE
8
boundary
62
5
39
2
10
479.515446
20
96.461124
11
478.644950
21
94.400440
0
LINE
8
boundary
62
5
39
2
10
478.644950
20
94.400440
11
477.585258
21
93.523633
0
LINE
8
boundary
62
5
39
2
10
477.585258
20
93.523633
11
477.026086
21
92.971926
0
LINE
8
boundary
62
5
39
2
10
477.026086
20
92.971926
11
476.435338
21
92.318230
0
LINE
8
boundary
62
5
39
2
10
476.435338
20
92.318230
11
475.615143
21
91.862255
0
LINE
8
boundary
62
5
39
2
10
475.615143
20
91.862255
11
474.590708
21
91.283022
0
LINE
8
boundary
62
5
39
2
10
474.590708
20
91.283022
11
474.128651
21
91.008931
0
LINE
8
boundary
62
5
39
2
10
474.128651
20
91.008931
11
473.662669
21
89.892766
0
LINE
8
boundary
62
5
39
2
10
473.662669
20
89.892766
11
473.373526
21
88.078919
0
LINE
8
boundary
62
5
39
2
10
473.373526
20
88.078919
11
473.216816
21
87.099150
0
LINE
8
boundary
62
5
39
2
10
473.216816
20
87.099150
11
473.022884
21
85.885838
0
LINE
8
boundary
62
5
39
2
10
473.022884
20
85.885838
11
472.467069
21
82.410306
0
LINE
8
boundary
62
5
39
2
10
472.467069
20
82.410306
11
471.453632
21
76.069239
0
LINE
8
boundary
62
5
39
2
10
471.453632
20
76.069239
11
470.310981
21
68.919834
0
LINE
8
boundary
62
5
39
2
10
470.310981
20
68.919834
11
469.010821
21
60.784774
0
LINE
8
annotation
62
1
39
211
10
493.799355
20
109.869902
11
493.799355
21
109.869902
0
LINE
8
annotation
62
1
39
211
10
493.799355
20
109.869902
11
493.619989
21
110.348288
0
LINE
8
annotation
62
1
39
211
10
493.619989
20
110.348288
11
493.378315
21
110.787270
0
LINE
8
annotation
62
1
39
211
10
493.378315
20
110.787270
11
493.080387
21
111.182341
0
LINE
8
annotation
62
1
39
211
10
493.080387
20
111.182341
11
492.732261
21
111.528996
0
LINE
8
annotation
62
1
39
211
10
492.732261
20
111.528996
11
492.339992
21
111.822728
0
LINE
8
annotation
62
1
39
211
10
492.339992
20
111.822728
11
491.909635
21
112.059030
0
LINE
8
annotation
62
1
39
211
10
491.909635
20
112.059030
11
491.447244
21
112.233397
0
LINE
8
annotation
62
1
39
211
10
491.447244
20
112.233397
11
490.958875
21
112.341322
0
LINE
8
annotation
62
1
39
211
10
490.958875
20
112.341322
11
490.450583
21
112.378298
0
LINE
8
annotation
62
1
39
211
10
490.450583
20
112.378298
11
487.951147
21
112.378298
0
LINE
8
annotation
62
1
39
211
10
487.951147
20
112.378298
11
487.951147
21
112.378298
0
LINE
8
annotation
62
1
39
211
10
487.951147
20
112.378298
11
487.650746
21
112.351337
0
LINE
8
annotation
62
1
39
211
10
487.650746
20
112.351337
11
487.367966
21
112.273626
0
LINE
8
annotation
62
1
39
211
10
487.367966
20
112.273626
11
487.107539
21
112.149925
0
LINE
8
annotation
62
1
39
211
10
487.107539
20
112.149925
11
486.874197
21
111.984992
0
LINE
8
annotation
62
1
39
211
10
486.874197
20
111.984992
11
486.672671
21
111.783585
0
LINE
8
annotation
62
1
39
211
10
486.672671
20
111.783585
11
486.507692
21
111.550462
0
LINE
8
annotation
62
1
39
211
10
486.507692
20
111.550462
11
486.383992
21
111.290384
0
LINE
8
annotation
62
1
39
211
10
486.383992
20
111.290384
11
486.306303
21
111.008107
0
LINE
8
annotation
62
1
39
211
10
486.306303
20
111.008107
11
486.279355
21
110.708392
0
LINE
8
annotation
62
1
39
211
10
486.279355
20
110.708392
11
486.279355
21
110.708392
0
LINE
8
annotation
62
1
39
211
10
486.279355
20
110.708392
11
486.306303
21
110.408055
0
LINE
8
annotation
62
1
39
211
10
486.306303
20
110.408055
11
486.383992
21
110.125449
0
LINE
8
annotation
62
1
39
211
10
486.383992
20
110.125449
11
486.507692
21
109.865273
0
LINE
8
annotation
62
1
39
211
10
486.507692
20
109.865273
11
486.672671
21
109.632229
0
LINE
8
annotation
62
1
39
211
10
486.672671
20
109.632229
11
486.874197
21
109.431016
0
LINE
8
annotation
62
1
39
211
10
486.874197
20
109.431016
11
487.107539
21
109.266335
0
LINE
8
annotation
62
1
39
211
10
487.107539
20
109.266335
11
487.367966
21
109.142886
0
LINE
8
annotation
62
1
39
211
10
487.367966
20
109.142886
11
487.650746
21
109.065369
0
LINE
8
annotation
62
1
39
211
10
487.650746
20
109.065369
11
487.951147
21
109.038486
0
LINE
8
annotation
62
1
39
211
10
487.951147
20
109.038486
11
488.783035
21
109.038486
0
LINE
8
annotation
62
1
39
211
10
488.783035
20
109.038486
11
488.783035
21
109.038486
0
LINE
8
annotation
62
1
39
211
10
488.783035
20
109.038486
11
489.083290
21
109.065369
0
LINE
8
annotation
62
1
39
211
10
489.083290
20
109.065369
11
489.365680
21
109.142886
0
LINE
8
annotation
62
1
39
211
10
489.365680
20
109.142886
11
489.625542
21
109.266335
0
LINE
8
annotation
62
1
39
211
10
489.625542
20
109.266335
11
489.858214
21
109.431016
0
LINE
8
annotation
62
1
39
211
10
489.858214
20
109.431016
11
490.059036
21
109.632229
0
LINE
8
annotation
62
1
39
211
10
490.059036
20
109.632229
11
490.223345
21
109.865273
0
LINE
8
annotation
62
1
39
211
10
490.223345
20
109.865273
11
490.346481
21
110.125449
0
LINE
8
annotation
62
1
39
211
10
490.346481
20
110.125449
11
490.423780
21
110.408055
0
LINE
8
annotation
62
1
39
211
10
490.423780
20
110.408055
11
490.450583
21
110.708392
0
LINE
8
annotation
62
1
39
211
10
490.450583
20
110.708392
11
490.450583
21
112.378298
0
LINE
8
annotation
62
1
39
211
10
485.339355
20
112.587449
11
485.339355
21
108.827449
0
LINE
8
annotation
62
1
39
211
10
538.864642
20
142.379583
11
546.384642
21
140.707791
0
LINE
8
annotation
62
1
39
211
10
546.384642
20
140.707791
11
546.384642
21
144.051847
0
LINE
8
annotation
62
1
39
211
10
543.035870
20
140.707791
11
543.035870
21
142.379583
0
LINE
8
annotation
62
1
39
211
10
496.315723
20
112.797757
11
493.813376
21
109.178341
0
LINE
8
annotation
62
1
39
211
10
493.813376
20
109.178341
11
491.310559
21
112.797757
0
LINE
8
annotation
62
1
39
211
10
493.813376
20
109.469607
11
493.813376
21
105.294010
0
LINE
8
annotation
62
1
39
211
10
503.233056
20
109.045883
11
499.130393
21
109.045883
0
LINE
8
annotation
62
1
39
211
10
507.714389
20
105.294245
11
509.382463
21
112.797521
0
LINE
8
annotation
62
1
39
211
10
509.382463
20
112.797521
11
506.045844
21
112.797521
0
LINE
8
annotation
62
1
39
211
10
509.382463
20
109.456196
11
507.714389
21
109.456196
0
LINE
8
annotation
62
1
39
211
10
516.299796
20
109.045883
11
512.197133
21
109.045883
0
LINE
8
annotation
62
1
39
211
10
522.445770
20
105.294184
11
519.113385
21
105.294184
0
LINE
8
annotation
62
1
39
211
10
519.113385
20
105.294184
11
522.192618
21
110.251353
0
LINE
8
annotation
62
1
39
211
10
522.192618
20
110.251353
11
522.192618
21
110.251353
0
LINE
8
annotation
62
1
39
211
10
522.192618
20
110.251353
11
522.196299
21
110.255908
0
LINE
8
annotation
62
1
39
211
10
522.196299
20
110.255908
11
522.199829
21
110.260502
0
LINE
8
annotation
62
1
39
211
10
522.199829
20
110.260502
11
522.203231
21
110.265173
0
LINE
8
annotation
62
1
39
211
10
522.203231
20
110.265173
11
522.206529
21
110.269960
0
LINE
8
annotation
62
1
39
211
10
522.206529
20
110.269960
11
522.209745
21
110.274903
0
LINE
8
annotation
62
1
39
211
10
522.209745
20
110.274903
11
522.212904
21
110.280039
0
LINE
8
annotation
62
1
39
211
10
522.212904
20
110.280039
11
522.216027
21
110.285407
0
LINE
8
annotation
62
1
39
211
10
522.216027
20
110.285407
11
522.219139
21
110.291046
0
LINE
8
annotation
62
1
39
211
10
522.219139
20
110.291046
11
522.222262
21
110.296996
0
LINE
8
annotation
62
1
39
211
10
522.222262
20
110.296996
11
522.222262
21
110.296996
0
LINE
8
annotation
62
1
39
211
10
522.222262
20
110.296996
11
522.349403
21
110.569978
0
LINE
8
annotation
62
1
39
211
10
522.349403
20
110.569978
11
522.423676
21
110.852947
0
LINE
8
annotation
62
1
39
211
10
522.423676
20
110.852947
11
522.446903
21
111.139511
0
LINE
8
annotation
62
1
39
211
10
522.446903
20
111.139511
11
522.420902
21
111.423275
0
LINE
8
annotation
62
1
39
211
10
522.420902
20
111.423275
11
522.347495
21
111.697845
0
LINE
8
annotation
62
1
39
211
10
522.347495
20
111.697845
11
522.228501
21
111.956827
0
LINE
8
annotation
62
1
39
211
10
522.228501
20
111.956827
11
522.065741
21
112.193827
0
LINE
8
annotation
62
1
39
211
10
522.065741
20
112.193827
11
521.861035
21
112.402451
0
LINE
8
annotation
62
1
39
211
10
521.861035
20
112.402451
11
521.616203
21
112.576305
0
LINE
8
annotation
62
1
39
211
10
521.616203
20
112.576305
11
521.616203
21
112.576305
0
LINE
8
annotation
62
1
39
211
10
521.616203
20
112.576305
11
521.342462
21
112.701639
0
LINE
8
annotation
62
1
39
211
10
521.342462
20
112.701639
11
521.059058
21
112.774768
0
LINE
8
annotation
62
1
39
211
10
521.059058
20
112.774768
11
520.772328
21
112.797338
0
LINE
8
annotation
62
1
39
211
10
520.772328
20
112.797338
11
520.488607
21
112.770995
0
LINE
8
annotation
62
1
39
211
10
520.488607
20
112.770995
11
520.214230
21
112.697384
0
LINE
8
annotation
62
1
39
211
10
520.214230
20
112.697384
11
519.955535
21
112.578153
0
LINE
8
annotation
62
1
39
211
10
519.955535
20
112.578153
11
519.718857
21
112.414945
0
LINE
8
annotation
62
1
39
211
10
519.718857
20
112.414945
11
519.510531
21
112.209408
0
LINE
8
annotation
62
1
39
211
10
519.510531
20
112.209408
11
519.336893
21
111.963188
0
LINE
8
annotation
62
1
39
211
10
519.336893
20
111.963188
11
519.118091
21
111.543464
0
LINE
8
boundary
62
5
39
2
10
468.277929
20
253.902762
11
467.132427
21
253.083366
0
LINE
8
boundary
62
5
39
2
10
467.132427
20
253.083366
11
463.289270
21
250.338485
0
LINE
8
boundary
62
5
39
2
10
463.289270
20
250.338485
11
461.680956
21
249.199179
0
LINE
8
boundary
62
5
39
2
10
461.680956
20
249.199179
11
460.510467
21
248.372641
0
LINE
8
boundary
62
5
39
2
10
460.510467
20
248.372641
11
461.848149
21
245.498412
0
LINE
8
boundary
62
5
39
2
10
461.848149
20
245.498412
11
462.091060
21
245.009727
0
LINE
8
boundary
62
5
39
2
10
462.091060
20
245.009727
11
463.539842
21
242.640055
0
LINE
8
boundary
62
5
39
2
10
463.539842
20
242.640055
11
466.820142
21
238.530870
0
LINE
8
boundary
62
5
39
2
10
466.820142
20
238.530870
11
470.337810
21
233.278688
0
LINE
8
boundary
62
5
39
2
10
470.337810
20
233.278688
11
471.865696
21
231.500206
0
LINE
8
boundary
62
5
39
2
10
471.865696
20
231.500206
11
475.151804
21
228.574534
0
LINE
8
boundary
62
5
39
2
10
475.151804
20
228.574534
11
477.930159
21
226.143501
0
LINE
8
boundary
62
5
39
2
10
477.930159
20
226.143501
11
479.088577
21
225.421071
0
LINE
8
boundary
62
5
39
2
10
479.088577
20
225.421071
11
482.893040
21
223.241551
0
LINE
8
boundary
62
5
39
2
10
482.893040
20
223.241551
11
484.124310
21
222.622490
0
LINE
8
boundary
62
5
39
2
10
484.124310
20
222.622490
11
488.313062
21
219.943749
0
LINE
8
boundary
62
5
39
2
10
488.313062
20
219.943749
11
497.462956
21
216.457250
0
LINE
8
boundary
62
5
39
2
10
497.462956
20
216.457250
11
498.119669
21
216.257052
0
LINE
8
boundary
62
5
39
2
10
498.119669
20
216.257052
11
499.285391
21
215.990091
0
LINE
8
boundary
62
5
39
2
10
499.285391
20
215.990091
11
499.990391
21
216.529991
0
LINE
8
boundary
62
5
39
2
10
499.990391
20
216.529991
11
499.990391
21
247.157379
0
LINE
8
boundary
62
5
39
2
10
499.990391
20
247.157379
11
504.436391
21
247.157379
0
LINE
8
boundary
62
5
39
2
10
504.436391
20
247.157379
11
504.436391
21
215.204265
0
LINE
8
boundary
62
5
39
2
10
504.436391
20
215.204265
11
505.141391
21
214.664365
0
LINE
8
boundary
62
5
39
2
10
505.141391
20
214.664365
11
506.767663
21
214.296197
0
LINE
8
boundary
62
5
39
2
10
506.767663
20
214.296197
11
507.646572
21
214.141432
0
LINE
8
boundary
62
5
39
2
10
507.646572
20
214.141432
11
509.209486
21
213.937322
0
LINE
8
boundary
62
5
39
2
10
509.209486
20
213.937322
11
511.620485
21
213.547222
0
LINE
8
boundary
62
5
39
2
10
511.620485
20
213.547222
11
512.921533
21
213.423893
0
LINE
8
boundary
62
5
39
2
10
512.921533
20
213.423893
11
515.635040
21
213.190803
0
LINE
8
boundary
62
5
39
2
10
515.635040
20
213.190803
11
518.196732
21
213.166005
0
LINE
8
boundary
62
5
39
2
10
518.196732
20
213.166005
11
520.179026
21
213.175660
0
LINE
8
boundary
62
5
39
2
10
520.179026
20
213.175660
11
529.281618
21
213.855129
0
LINE
8
boundary
62
5
39
2
10
529.281618
20
213.855129
11
530.341318
21
213.919797
0
LINE
8
boundary
62
5
39
2
10
530.341318
20
213.919797
11
531.361132
21
213.936266
0
LINE
8
boundary
62
5
39
2
10
531.361132
20
213.936266
11
532.408789
21
214.067570
0
LINE
8
boundary
62
5
39
2
10
532.408789
20
214.067570
11
533.291695
21
214.266060
0
LINE
8
boundary
62
5
39
2
10
533.291695
20
214.266060
11
534.498638
21
214.607727
0
LINE
8
boundary
62
5
39
2
10
534.498638
20
214.607727
11
543.122321
21
217.180656
0
LINE
8
boundary
62
5
39
2
10
543.122321
20
217.180656
11
544.992066
21
217.849712
0
LINE
8
boundary
62
5
39
2
10
544.992066
20
217.849712
11
547.200370
21
218.794700
0
LINE
8
boundary
62
5
39
2
10
547.200370
20
218.794700
11
549.620430
21
219.982733
0
LINE
8
boundary
62
5
39
2
10
549.620430
20
219.982733
11
551.058531
21
220.726739
0
LINE
8
boundary
62
5
39
2
10
551.058531
20
220.726739
11
551.870678
21
221.186310
0
LINE
8
boundary
62
5
39
2
10
551.870678
20
221.186310
11
552.575678
21
221.726209
0
LINE
8
boundary
62
5
39
2
10
552.575678
20
221.726209
11
552.575678
21
270.983170
0
LINE
8
boundary
62
5
39
2
10
552.575678
20
270.983170
11
557.021678
21
270.983170
0
LINE
8
boundary
62
5
39
2
10
557.021678
20
270.983170
11
557.021678
21
225.431789
0
LINE
8
boundary
62
5
39
2
10
557.021678
20
225.431789
11
557.726678
21
224.891889
0
LINE
8
boundary
62
5
39
2
10
557.726678
20
224.891889
11
559.936739
21
226.587839
0
LINE
8
boundary
62
5
39
2
10
559.936739
20
226.587839
11
562.673381
21
229.268206
0
LINE
8
boundary
62
5
39
2
10
562.673381
20
229.268206
11
569.620397
21
237.131058
0
LINE
8
boundary
62
5
39
2
10
569.620397
20
237.131058
11
570.019844
21
237.546173
0
LINE
8
boundary
62
5
39
2
10
570.019844
20
237.546173
11
570.469165
21
238.174542
0
LINE
8
boundary
62
5
39
2
10
570.469165
20
238.174542
11
574.002820
21
243.424136
0
LINE
8
boundary
62
5
39
2
10
574.002820
20
243.424136
11
574.502107
21
244.249769
0
LINE
8
boundary
62
5
39
2
10
574.502107
20
244.249769
11
574.835468
21
244.885467
0
LINE
8
boundary
62
5
39
2
10
574.835468
20
244.885467
11
575.375443
21
246.020187
0
LINE
8
boundary
62
5
39
2
10
575.375443
20
246.020187
11
576.699054
21
248.582320
0
LINE
8
boundary
62
5
39
2
10
576.699054
20
248.582320
11
578.178921
21
251.487909
0
LINE
8
boundary
62
5
39
2
10
578.178921
20
251.487909
11
578.536980
21
252.439416
0
LINE
8
boundary
62
5
39
2
10
578.536980
20
252.439416
11
579.222971
21
254.629338
0
LINE
8
boundary
62
5
39
2
10
579.222971
20
254.629338
11
580.953538
21
259.938684
0
LINE
8
boundary
62
5
39
2
10
580.953538
20
259.938684
11
581.656236
21
263.395587
0
LINE
8
boundary
62
5
39
2
10
581.656236
20
263.395587
11
582.116651
21
265.238440
0
LINE
8
boundary
62
5
39
2
10
582.116651
20
265.238440
11
582.329889
21
266.559177
0
LINE
8
boundary
62
5
39
2
10
582.329889
20
266.559177
11
582.756190
21
269.337936
0
LINE
8
boundary
62
5
39
2
10
582.756190
20
269.337936
11
582.829979
21
270.042207
0
LINE
8
boundary
62
5
39
2
10
582.829979
20
270.042207
11
582.984171
21
272.289992
0
LINE
8
boundary
62
5
39
2
10
582.984171
20
272.289992
11
583.414443
21
280.161784
0
LINE
8
boundary
62
5
39
2
10
583.414443
20
280.161784
11
583.388034
21
281.284718
0
LINE
8
boundary
62
5
39
2
10
583.388034
20
281.284718
11
583.388554
21
282.014821
0
LINE
8
boundary
62
5
39
2
10
583.388554
20
282.014821
11
583.186138
21
284.724021
0
LINE
8
boundary
62
5
39
2
10
583.186138
20
284.724021
11
582.862772
21
290.396350
0
LINE
8
boundary
62
5
39
2
10
582.862772
20
290.396350
11
582.685165
21
292.517093
0
LINE
8
boundary
62
5
39
2
10
582.685165
20
292.517093
11
582.135805
21
296.224583
0
LINE
8
boundary
62
5
39
2
10
582.135805
20
296.224583
11
581.604650
21
299.637066
0
LINE
8
boundary
62
5
39
2
10
581.604650
20
299.637066
11
580.822471
21
302.979208
0
LINE
8
boundary
62
5
39
2
10
580.822471
20
302.979208
11
579.922872
21
308.998135
0
LINE
8
boundary
62
5
39
2
10
579.922872
20
308.998135
11
579.728766
21
309.893379
0
LINE
8
boundary
62
5
39
2
10
579.728766
20
309.893379
11
579.549522
21
310.703548
0
LINE
8
boundary
62
5
39
2
10
579.549522
20
310.703548
11
579.242836
21
312.071630
0
LINE
8
boundary
62
5
39
2
10
579.242836
20
312.071630
11
578.135917
21
316.530386
0
LINE
8
boundary
62
5
39
2
10
578.135917
20
316.530386
11
577.502216
21
319.512924
0
LINE
8
boundary
62
5
39
2
10
577.502216
20
319.512924
11
577.340136
21
320.503797
0
LINE
8
boundary
62
5
39
2
10
577.340136
20
320.503797
11
576.687454
21
323.278998
0
LINE
8
boundary
62
5
39
2
10
576.687454
20
323.278998
11
575.747556
21
326.898887
0
LINE
8
boundary
62
5
39
2
10
575.747556
20
326.898887
11
575.503042
21
327.745015
0
LINE
8
boundary
62
5
39
2
10
575.503042
20
327.745015
11
574.443512
21
331.663207
0
LINE
8
boundary
62
5
39
2
10
574.443512
20
331.663207
11
573.570723
21
334.849866
0
LINE
8
boundary
62
5
39
2
10
573.570723
20
334.849866
11
570.596040
21
332.490776
0
LINE
8
boundary
62
5
39
2
10
570.596040
20
332.490776
11
566.172342
21
328.968645
0
LINE
8
boundary
62
5
39
2
10
566.172342
20
328.968645
11
563.464710
21
326.820325
0
LINE
8
boundary
62
5
39
2
10
563.464710
20
326.820325
11
561.330772
21
325.123411
0
LINE
8
boundary
62
5
39
2
10
561.330772
20
325.123411
11
554.469463
21
319.728115
0
LINE
8
boundary
62
5
39
2
10
554.469463
20
319.728115
11
551.556641
21
317.417720
0
LINE
8
boundary
62
5
39
2
10
551.556641
20
317.417720
11
546.714166
21
313.597474
0
LINE
8
boundary
62
5
39
2
10
546.714166
20
313.597474
11
545.233665
21
312.433628
0
LINE
8
boundary
62
5
39
2
10
545.233665
20
312.433628
11
537.744774
21
306.576045
0
LINE
8
boundary
62
5
39
2
10
537.744774
20
306.576045
11
527.770731
21
298.774351
0
LINE
8
boundary
62
5
39
2
10
527.770731
20
298.774351
11
526.516579
21
297.795672
0
LINE
8
boundary
62
5
39
2
10
526.516579
20
297.795672
11
525.294282
21
296.840943
0
LINE
8
boundary
62
5
39
2
10
525.294282
20
296.840943
11
514.216672
21
288.266030
0
LINE
8
boundary
62
5
39
2
10
514.216672
20
288.266030
11
511.800112
21
286.408798
0
LINE
8
boundary
62
5
39
2
10
511.800112
20
286.408798
11
505.447672
21
281.533906
0
LINE
8
boundary
62
5
39
2
10
505.447672
20
281.533906
11
505.004647
21
281.196163
0
LINE
8
boundary
62
5
39
2
10
505.004647
20
281.196163
11
498.647940
21
276.357969
0
LINE
8
boundary
62
5
39
2
10
498.647940
20
276.357969
11
497.774413
21
275.696887
0
LINE
8
boundary
62
5
39
2
10
497.774413
20
275.696887
11
492.929688
21
272.052406
0
LINE
8
boundary
62
5
39
2
10
492.929688
20
272.052406
11
488.541726
21
268.768245
0
LINE
8
boundary
62
5
39
2
10
488.541726
20
268.768245
11
486.572188
21
267.303029
0
LINE
8
boundary
62
5
39
2
10
486.572188
20
267.303029
11
484.879306
21
266.040577
0
LINE
8
boundary
62
5
39
2
10
484.879306
20
266.040577
11
481.318663
21
263.399812
0
LINE
8
boundary
62
5
39
2
10
481.318663
20
263.399812
11
478.449050
21
261.293099
0
LINE
8
boundary
62
5
39
2
10
478.449050
20
261.293099
11
475.823769
21
259.366915
0
LINE
8
boundary
62
5
39
2
10
475.823769
20
259.366915
11
473.820378
21
257.908144
0
LINE
8
boundary
62
5
39
2
10
473.820378
20
257.908144
11
469.450968
21
254.748769
0
LINE
8
boundary
62
5
39
2
10
469.450968
20
254.748769
11
468.643748
21
254.165993
0
LINE
8
boundary
62
5
39
2
10
468.643748
20
254.165993
11
468.277929
21
253.902762
0
LINE
8
annotation
62
1
39
211
10
498.453627
20
258.355228
11
498.453627
21
256.685322
0
LINE
8
annotation
62
1
39
211
10
498.453627
20
256.685322
11
498.453627
21
256.685322
0
LINE
8
annotation
62
1
39
211
10
498.453627
20
256.685322
11
498.480569
21
256.384986
0
LINE
8
annotation
62
1
39
211
10
498.480569
20
256.384986
11
498.558218
21
256.102380
0
LINE
8
annotation
62
1
39
211
10
498.558218
20
256.102380
11
498.681807
21
255.842204
0
LINE
8
annotation
62
1
39
211
10
498.681807
20
255.842204
11
498.846571
21
255.609159
0
LINE
8
annotation
62
1
39
211
10
498.846571
20
255.609159
11
499.047742
21
255.407946
0
LINE
8
annotation
62
1
39
211
10
499.047742
20
255.407946
11
499.280554
21
255.243265
0
LINE
8
annotation
62
1
39
211
10
499.280554
20
255.243265
11
499.540241
21
255.119816
0
LINE
8
annotation
62
1
39
211
10
499.540241
20
255.119816
11
499.822037
21
255.042300
0
LINE
8
annotation
62
1
39
211
10
499.822037
20
255.042300
11
500.121175
21
255.015417
0
LINE
8
annotation
62
1
39
211
10
500.121175
20
255.015417
11
500.957307
21
255.015417
0
LINE
8
annotation
62
1
39
211
10
500.957307
20
255.015417
11
500.957307
21
255.015417
0
LINE
8
annotation
62
1
39
211
10
500.957307
20
255.015417
11
501.256320
21
255.042300
0
LINE
8
annotation
62
1
39
211
10
501.256320
20
255.042300
11
501.538050
21
255.119816
0
LINE
8
annotation
62
1
39
211
10
501.538050
20
255.119816
11
501.797718
21
255.243265
0
LINE
8
annotation
62
1
39
211
10
501.797718
20
255.243265
11
502.030546
21
255.407946
0
LINE
8
annotation
62
1
39
211
10
502.030546
20
255.407946
11
502.231756
21
255.609159
0
LINE
8
annotation
62
1
39
211
10
502.231756
20
255.609159
11
502.396569
21
255.842204
0
LINE
8
annotation
62
1
39
211
10
502.396569
20
255.842204
11
502.520209
21
256.102380
0
LINE
8
annotation
62
1
39
211
10
502.520209
20
256.102380
11
502.597897
21
256.384986
0
LINE
8
annotation
62
1
39
211
10
502.597897
20
256.384986
11
502.624855
21
256.685322
0
LINE
8
annotation
62
1
39
211
10
502.624855
20
256.685322
11
502.624855
21
257.521454
0
LINE
8
annotation
62
1
39
211
10
502.624855
20
257.521454
11
502.624855
21
256.685322
0
LINE
8
annotation
62
1
39
211
10
502.624855
20
256.685322
11
502.624855
21
256.685322
0
LINE
8
annotation
62
1
39
211
10
502.624855
20
256.685322
11
502.651819
21
256.384986
0
LINE
8
annotation
62
1
39
211
10
502.651819
20
256.384986
11
502.729552
21
256.102380
0
LINE
8
annotation
62
1
39
211
10
502.729552
20
256.102380
11
502.853315
21
255.842204
0
LINE
8
annotation
62
1
39
211
10
502.853315
20
255.842204
11
503.018368
21
255.609159
0
LINE
8
annotation
62
1
39
211
10
503.018368
20
255.609159
11
503.219972
21
255.407946
0
LINE
8
annotation
62
1
39
211
10
503.219972
20
255.407946
11
503.453389
21
255.243265
0
LINE
8
annotation
62
1
39
211
10
503.453389
20
255.243265
11
503.713878
21
255.119816
0
LINE
8
annotation
62
1
39
211
10
503.713878
20
255.119816
11
503.996701
21
255.042300
0
LINE
8
annotation
62
1
39
211
10
503.996701
20
255.042300
11
504.297119
21
255.015417
0
LINE
8
annotation
62
1
39
211
10
504.297119
20
255.015417
11
504.297119
21
255.015417
0
LINE
8
annotation
62
1
39
211
10
504.297119
20
255.015417
11
504.596132
21
255.042300
0
LINE
8
annotation
62
1
39
211
10
504.596132
20
255.042300
11
504.877862
21
255.119816
0
LINE
8
annotation
62
1
39
211
10
504.877862
20
255.119816
11
505.137530
21
255.243265
0
LINE
8
annotation
62
1
39
211
10
505.137530
20
255.243265
11
505.370358
21
255.407946
0
LINE
8
annotation
62
1
39
211
10
505.370358
20
255.407946
11
505.571567
21
255.609159
0
LINE
8
annotation
62
1
39
211
10
505.571567
20
255.609159
11
505.736381
21
255.842204
0
LINE
8
annotation
62
1
39
211
10
505.736381
20
255.842204
11
505.860021
21
256.102380
0
LINE
8
annotation
62
1
39
211
10
505.860021
20
256.102380
11
505.937709
21
256.384986
0
LINE
8
annotation
62
1
39
211
10
505.937709
20
256.384986
11
505.964666
21
256.685322
0
LINE
8
annotation
62
1
39
211
10
505.964666
20
256.685322
11
505.964666
21
258.355228
0
LINE
8
annotation
62
1
39
211
10
552.710471
20
278.423377
11
552.710471
21
282.598849
0
LINE
8
annotation
62
1
39
211
10
552.710471
20
282.598849
11
558.558678
21
280.931301
0
LINE
8
annotation
62
1
39
211
10
551.038678
20
279.674981
11
554.378490
21
279.674981
0
LINE
8
annotation
62
1
39
211
10
522.066731
20
259.519597
11
517.639525
21
253.116050
0
LINE
8
annotation
62
1
39
211
10
517.639525
20
253.116050
11
513.211487
21
259.519597
0
LINE
8
annotation
62
1
39
211
10
517.639525
20
253.631364
11
517.639525
21
246.243808
0
LINE
8
annotation
62
1
39
211
10
534.305024
20
252.881703
11
527.046504
21
252.881703
0
LINE
8
annotation
62
1
39
211
10
542.233493
20
246.244224
11
542.233493
21
259.519181
0
LINE
8
annotation
62
1
39
211
10
542.233493
20
259.519181
11
539.282300
21
256.567156
0
LINE
8
boundary
62
5
39
2
10
472.154585
20
344.426714
11
474.599371
21
341.875936
0
LINE
8
boundary
62
5
39
2
10
474.599371
20
341.875936
11
475.920287
21
340.649646
0
LINE
8
boundary
62
5
39
2
10
475.920287
20
340.649646
11
476.601319
21
340.108036
0
LINE
8
boundary
62
5
39
2
10
476.601319
20
340.108036
11
479.089404
21
338.024866
0
LINE
8
boundary
62
5
39
2
10
479.089404
20
338.024866
11
479.712792
21
338.649437
0
LINE
8
boundary
62
5
39
2
10
479.712792
20
338.649437
11
481.038628
21
339.973544
0
LINE
8
boundary
62
5
39
2
10
481.038628
20
339.973544
11
481.857258
21
340.790524
0
LINE
8
boundary
62
5
39
2
10
481.857258
20
340.790524
11
482.828611
21
341.761025
0
LINE
8
boundary
62
5
39
2
10
482.828611
20
341.761025
11
485.120749
21
344.033299
0
LINE
8
boundary
62
5
39
2
10
485.120749
20
344.033299
11
487.098620
21
345.991879
0
LINE
8
boundary
62
5
39
2
10
487.098620
20
345.991879
11
488.819970
21
347.692646
0
LINE
8
boundary
62
5
39
2
10
488.819970
20
347.692646
11
496.212238
21
354.924189
0
LINE
8
boundary
62
5
39
2
10
496.212238
20
354.924189
11
497.209453
21
355.900081
0
LINE
8
boundary
62
5
39
2
10
497.209453
20
355.900081
11
497.827268
21
356.502592
0
LINE
8
boundary
62
5
39
2
10
497.827268
20
356.502592
11
500.871315
21
359.449247
0
LINE
8
boundary
62
5
39
2
10
500.871315
20
359.449247
11
506.340369
21
364.731635
0
LINE
8
boundary
62
5
39
2
10
506.340369
20
364.731635
11
506.532826
21
365.896986
0
LINE
8
boundary
62
5
39
2
10
506.532826
20
365.896986
11
485.734925
21
378.286007
0
LINE
8
boundary
62
5
39
2
10
485.734925
20
378.286007
11
488.010246
21
382.105671
0
LINE
8
boundary
62
5
39
2
10
488.010246
20
382.105671
11
510.205130
21
368.884487
0
LINE
8
boundary
62
5
39
2
10
510.205130
20
368.884487
11
511.029767
21
369.213865
0
LINE
8
boundary
62
5
39
2
10
511.029767
20
369.213865
11
514.017960
21
372.062551
0
LINE
8
boundary
62
5
39
2
10
514.017960
20
372.062551
11
518.288068
21
376.111430
0
LINE
8
boundary
62
5
39
2
10
518.288068
20
376.111430
11
522.074316
21
379.676927
0
LINE
8
boundary
62
5
39
2
10
522.074316
20
379.676927
11
529.311861
21
386.462338
0
LINE
8
boundary
62
5
39
2
10
529.311861
20
386.462338
11
531.530449
21
388.531390
0
LINE
8
boundary
62
5
39
2
10
531.530449
20
388.531390
11
532.581088
21
389.501512
0
LINE
8
boundary
62
5
39
2
10
532.581088
20
389.501512
11
537.273495
21
393.819130
0
LINE
8
boundary
62
5
39
2
10
537.273495
20
393.819130
11
537.726036
21
394.234951
0
LINE
8
boundary
62
5
39
2
10
537.726036
20
394.234951
11
537.675465
21
395.121494
0
LINE
8
boundary
62
5
39
2
10
537.675465
20
395.121494
11
516.505559
21
409.498130
0
LINE
8
boundary
62
5
39
2
10
516.505559
20
409.498130
11
519.003344
21
413.176171
0
LINE
8
boundary
62
5
39
2
10
519.003344
20
413.176171
11
541.316874
21
398.022892
0
LINE
8
boundary
62
5
39
2
10
541.316874
20
398.022892
11
542.159590
21
398.302799
0
LINE
8
boundary
62
5
39
2
10
542.159590
20
398.302799
11
546.913524
21
402.642237
0
LINE
8
boundary
62
5
39
2
10
546.913524
20
402.642237
11
551.147308
21
406.469779
0
LINE
8
boundary
62
5
39
2
10
551.147308
20
406.469779
11
555.505260
21
410.404487
0
LINE
8
boundary
62
5
39
2
10
555.505260
20
410.404487
11
560.414990
21
414.811025
0
LINE
8
boundary
62
5
39
2
10
560.414990
20
414.811025
11
564.225944
21
418.208683
0
LINE
8
boundary
62
5
39
2
10
564.225944
20
418.208683
11
564.326909
21
419.159777
0
LINE
8
boundary
62
5
39
2
10
564.326909
20
419.159777
11
551.701607
21
429.505183
0
LINE
8
boundary
62
5
39
2
10
551.701607
20
429.505183
11
554.519530
21
432.944112
0
LINE
8
boundary
62
5
39
2
10
554.519530
20
432.944112
11
567.871318
21
422.003408
0
LINE
8
boundary
62
5
39
2
10
567.871318
20
422.003408
11
568.735761
21
422.206523
0
LINE
8
boundary
62
5
39
2
10
568.735761
20
422.206523
11
573.124794
21
426.108531
0
LINE
8
boundary
62
5
39
2
10
573.124794
20
426.108531
11
576.809758
21
429.352433
0
LINE
8
boundary
62
5
39
2
10
576.809758
20
429.352433
11
580.238442
21
432.348099
0
LINE
8
boundary
62
5
39
2
10
580.238442
20
432.348099
11
584.349909
21
435.925195
0
LINE
8
boundary
62
5
39
2
10
584.349909
20
435.925195
11
585.521560
21
436.945234
0
LINE
8
boundary
62
5
39
2
10
585.521560
20
436.945234
11
586.197749
21
437.532540
0
LINE
8
boundary
62
5
39
2
10
586.197749
20
437.532540
11
584.676793
21
437.996796
0
LINE
8
boundary
62
5
39
2
10
584.676793
20
437.996796
11
581.986937
21
438.698151
0
LINE
8
boundary
62
5
39
2
10
581.986937
20
438.698151
11
577.886336
21
439.769646
0
LINE
8
boundary
62
5
39
2
10
577.886336
20
439.769646
11
575.762840
21
440.315678
0
LINE
8
boundary
62
5
39
2
10
575.762840
20
440.315678
11
574.715335
21
440.573292
0
LINE
8
boundary
62
5
39
2
10
574.715335
20
440.573292
11
567.366052
21
441.690999
0
LINE
8
boundary
62
5
39
2
10
567.366052
20
441.690999
11
565.122475
21
442.235462
0
LINE
8
boundary
62
5
39
2
10
565.122475
20
442.235462
11
564.169096
21
442.424812
0
LINE
8
boundary
62
5
39
2
10
564.169096
20
442.424812
11
562.691183
21
442.623104
0
LINE
8
boundary
62
5
39
2
10
562.691183
20
442.623104
11
561.927664
21
442.703116
0
LINE
8
boundary
62
5
39
2
10
561.927664
20
442.703116
11
558.877182
21
442.843909
0
LINE
8
boundary
62
5
39
2
10
558.877182
20
442.843909
11
557.830040
21
442.872359
0
LINE
8
boundary
62
5
39
2
10
557.830040
20
442.872359
11
555.772193
21
442.814004
0
LINE
8
boundary
62
5
39
2
10
555.772193
20
442.814004
11
551.573666
21
442.609678
0
LINE
8
boundary
62
5
39
2
10
551.573666
20
442.609678
11
549.195383
21
442.389131
0
LINE
8
boundary
62
5
39
2
10
549.195383
20
442.389131
11
545.625779
21
442.037237
0
LINE
8
boundary
62
5
39
2
10
545.625779
20
442.037237
11
541.471363
21
441.537882
0
LINE
8
boundary
62
5
39
2
10
541.471363
20
441.537882
11
539.923129
21
441.271782
0
LINE
8
boundary
62
5
39
2
10
539.923129
20
441.271782
11
535.822830
21
440.501718
0
LINE
8
boundary
62
5
39
2
10
535.822830
20
440.501718
11
532.270605
21
439.565600
0
LINE
8
boundary
62
5
39
2
10
532.270605
20
439.565600
11
529.807662
21
439.028901
0
LINE
8
boundary
62
5
39
2
10
529.807662
20
439.028901
11
526.016591
21
438.281151
0
LINE
8
boundary
62
5
39
2
10
526.016591
20
438.281151
11
524.777596
21
438.007757
0
LINE
8
boundary
62
5
39
2
10
524.777596
20
438.007757
11
522.459569
21
437.369759
0
LINE
8
boundary
62
5
39
2
10
522.459569
20
437.369759
11
519.428556
21
436.408289
0
LINE
8
boundary
62
5
39
2
10
519.428556
20
436.408289
11
518.403877
21
436.073567
0
LINE
8
boundary
62
5
39
2
10
518.403877
20
436.073567
11
516.219298
21
435.241534
0
LINE
8
boundary
62
5
39
2
10
516.219298
20
435.241534
11
507.977906
21
431.951225
0
LINE
8
boundary
62
5
39
2
10
507.977906
20
431.951225
11
506.413986
21
431.391866
0
LINE
8
boundary
62
5
39
2
10
506.413986
20
431.391866
11
505.262071
21
430.907594
0
LINE
8
boundary
62
5
39
2
10
505.262071
20
430.907594
11
500.104002
21
428.454889
0
LINE
8
boundary
62
5
39
2
10
500.104002
20
428.454889
11
496.357708
21
426.585486
0
LINE
8
boundary
62
5
39
2
10
496.357708
20
426.585486
11
495.526812
21
426.097356
0
LINE
8
boundary
62
5
39
2
10
495.526812
20
426.097356
11
489.891847
21
422.769930
0
LINE
8
boundary
62
5
39
2
10
489.891847
20
422.769930
11
488.254872
21
421.584533
0
LINE
8
boundary
62
5
39
2
10
488.254872
20
421.584533
11
486.603730
21
420.368902
0
LINE
8
boundary
62
5
39
2
10
486.603730
20
420.368902
11
485.520740
21
419.502193
0
LINE
8
boundary
62
5
39
2
10
485.520740
20
419.502193
11
483.436127
21
417.783410
0
LINE
8
boundary
62
5
39
2
10
483.436127
20
417.783410
11
482.107994
21
416.611565
0
LINE
8
boundary
62
5
39
2
10
482.107994
20
416.611565
11
477.692494
21
412.525363
0
LINE
8
boundary
62
5
39
2
10
477.692494
20
412.525363
11
476.506794
21
411.273203
0
LINE
8
boundary
62
5
39
2
10
476.506794
20
411.273203
11
472.195669
21
406.323465
0
LINE
8
boundary
62
5
39
2
10
472.195669
20
406.323465
11
469.574542
21
402.777704
0
LINE
8
boundary
62
5
39
2
10
469.574542
20
402.777704
11
467.483424
21
399.939461
0
LINE
8
boundary
62
5
39
2
10
467.483424
20
399.939461
11
465.543987
21
396.261057
0
LINE
8
boundary
62
5
39
2
10
465.543987
20
396.261057
11
462.815361
21
389.165513
0
LINE
8
boundary
62
5
39
2
10
462.815361
20
389.165513
11
461.529029
21
385.368282
0
LINE
8
boundary
62
5
39
2
10
461.529029
20
385.368282
11
461.162421
21
383.658518
0
LINE
8
boundary
62
5
39
2
10
461.162421
20
383.658518
11
460.939514
21
379.827791
0
LINE
8
boundary
62
5
39
2
10
460.939514
20
379.827791
11
460.618471
21
377.134119
0
LINE
8
boundary
62
5
39
2
10
460.618471
20
377.134119
11
460.510467
21
374.700687
0
LINE
8
boundary
62
5
39
2
10
460.510467
20
374.700687
11
460.657744
21
368.883895
0
LINE
8
boundary
62
5
39
2
10
460.657744
20
368.883895
11
460.733519
21
368.309335
0
LINE
8
boundary
62
5
39
2
10
460.733519
20
368.309335
11
461.369726
21
366.128744
0
LINE
8
boundary
62
5
39
2
10
461.369726
20
366.128744
11
463.498025
21
358.634218
0
LINE
8
boundary
62
5
39
2
10
463.498025
20
358.634218
11
463.678915
21
357.986462
0
LINE
8
boundary
62
5
39
2
10
463.678915
20
357.986462
11
464.121658
21
356.753146
0
LINE
8
boundary
62
5
39
2
10
464.121658
20
356.753146
11
465.340097
21
354.457434
0
LINE
8
boundary
62
5
39
2
10
465.340097
20
354.457434
11
468.008500
21
349.950323
0
LINE
8
boundary
62
5
39
2
10
468.008500
20
349.950323
11
468.722035
21
348.767890
0
LINE
8
boundary
62
5
39
2
10
468.722035
20
348.767890
11
469.240965
21
347.946533
0
LINE
8
boundary
62
5
39
2
10
469.240965
20
347.946533
11
472.154585
21
344.426714
0
LINE
8
annotation
62
1
39
211
10
479.411850
20
382.209470
11
475.824603
21
384.346343
0
LINE
8
annotation
62
1
39
211
10
475.824603
20
384.346343
11
480.250158
21
388.517279
0
LINE
8
annotation
62
1
39
211
10
477.480997
20
381.413725
11
479.190206
21
384.283036
0
LINE
8
annotation
62
1
39
211
10
506.378423
20
414.517623
11
507.759885
21
413.579461
0
LINE
8
annotation
62
1
39
211
10
507.759885
20
413.579461
11
507.759885
21
413.579461
0
LINE
8
annotation
62
1
39
211
10
507.759885
20
413.579461
11
508.022971
21
413.433373
0
LINE
8
annotation
62
1
39
211
10
508.022971
20
413.433373
11
508.300136
21
413.339059
0
LINE
8
annotation
62
1
39
211
10
508.300136
20
413.339059
11
508.584786
21
413.295279
0
LINE
8
annotation
62
1
39
211
10
508.584786
20
413.295279
11
508.870327
21
413.300792
0
LINE
8
annotation
62
1
39
211
10
508.870327
20
413.300792
11
509.150163
21
413.354357
0
LINE
8
annotation
62
1
39
211
10
509.150163
20
413.354357
11
509.417701
21
413.454733
0
LINE
8
annotation
62
1
39
211
10
509.417701
20
413.454733
11
509.666344
21
413.600680
0
LINE
8
annotation
62
1
39
211
10
509.666344
20
413.600680
11
509.889498
21
413.790957
0
LINE
8
annotation
62
1
39
211
10
509.889498
20
413.790957
11
510.080569
21
414.024323
0
LINE
8
annotation
62
1
39
211
10
510.080569
20
414.024323
11
510.547928
21
414.712519
0
LINE
8
annotation
62
1
39
211
10
510.547928
20
414.712519
11
510.547928
21
414.712519
0
LINE
8
annotation
62
1
39
211
10
510.547928
20
414.712519
11
510.694322
21
414.976049
0
LINE
8
annotation
62
1
39
211
10
510.694322
20
414.976049
11
510.788714
21
415.253298
0
LINE
8
annotation
62
1
39
211
10
510.788714
20
415.253298
11
510.832413
21
415.537741
0
LINE
8
annotation
62
1
39
211
10
510.832413
20
415.537741
11
510.826727
21
415.822856
0
LINE
8
annotation
62
1
39
211
10
510.826727
20
415.822856
11
510.772964
21
416.102120
0
LINE
8
annotation
62
1
39
211
10
510.772964
20
416.102120
11
510.672431
21
416.369008
0
LINE
8
annotation
62
1
39
211
10
510.672431
20
416.369008
11
510.526438
21
416.616999
0
LINE
8
annotation
62
1
39
211
10
510.526438
20
416.616999
11
510.336292
21
416.839568
0
LINE
8
annotation
62
1
39
211
10
510.336292
20
416.839568
11
510.103302
21
417.030192
0
LINE
8
annotation
62
1
39
211
10
510.103302
20
417.030192
11
508.721839
21
417.968353
0
LINE
8
annotation
62
1
39
211
10
508.721839
20
417.968353
11
510.603195
21
420.738691
0
LINE
8
annotation
62
1
39
211
10
510.603195
20
420.738691
11
513.366121
21
418.862369
0
LINE
8
annotation
62
1
39
211
10
548.987823
20
439.217130
11
548.987823
21
439.217130
0
LINE
8
annotation
62
1
39
211
10
548.987823
20
439.217130
11
548.528678
21
439.373247
0
LINE
8
annotation
62
1
39
211
10
548.528678
20
439.373247
11
548.060977
21
439.459909
0
LINE
8
annotation
62
1
39
211
10
548.060977
20
439.459909
11
547.591673
21
439.478853
0
LINE
8
annotation
62
1
39
211
10
547.591673
20
439.478853
11
547.127716
21
439.431812
0
LINE
8
annotation
62
1
39
211
10
547.127716
20
439.431812
11
546.676058
21
439.320521
0
LINE
8
annotation
62
1
39
211
10
546.676058
20
439.320521
11
546.243650
21
439.146714
0
LINE
8
annotation
62
1
39
211
10
546.243650
20
439.146714
11
545.837444
21
438.912127
0
LINE
8
annotation
62
1
39
211
10
545.837444
20
438.912127
11
545.464391
21
438.618493
0
LINE
8
annotation
62
1
39
211
10
545.464391
20
438.618493
11
545.131442
21
438.267546
0
LINE
8
annotation
62
1
39
211
10
545.131442
20
438.267546
11
543.627724
21
436.432443
0
LINE
8
annotation
62
1
39
211
10
543.627724
20
436.432443
11
543.627724
21
436.432443
0
LINE
8
annotation
62
1
39
211
10
543.627724
20
436.432443
11
543.466790
21
436.195666
0
LINE
8
annotation
62
1
39
211
10
543.466790
20
436.195666
11
543.353719
21
435.941294
0
LINE
8
annotation
62
1
39
211
10
543.353719
20
435.941294
11
543.287863
21
435.675666
0
LINE
8
annotation
62
1
39
211
10
543.287863
20
435.675666
11
543.268574
21
435.405116
0
LINE
8
annotation
62
1
39
211
10
543.268574
20
435.405116
11
543.295206
21
435.135983
0
LINE
8
annotation
62
1
39
211
10
543.295206
20
435.135983
11
543.367111
21
434.874603
0
LINE
8
annotation
62
1
39
211
10
543.367111
20
434.874603
11
543.483642
21
434.627312
0
LINE
8
annotation
62
1
39
211
10
543.483642
20
434.627312
11
543.644151
21
434.400448
0
LINE
8
annotation
62
1
39
211
10
543.644151
20
434.400448
11
543.847992
21
434.200347
0
LINE
8
annotation
62
1
39
211
10
543.847992
20
434.200347
11
543.847992
21
434.200347
0
LINE
8
annotation
62
1
39
211
10
543.847992
20
434.200347
11
544.084714
21
434.039443
0
LINE
8
annotation
62
1
39
211
10
544.084714
20
434.039443
11
544.338945
21
433.926461
0
LINE
8
annotation
62
1
39
211
10
544.338945
20
433.926461
11
544.604389
21
433.860754
0
LINE
8
annotation
62
1
39
211
10
544.604389
20
433.860754
11
544.874747
21
433.841678
0
LINE
8
annotation
62
1
39
211
10
544.874747
20
433.841678
11
545.143722
21
433.868586
0
LINE
8
annotation
62
1
39
211
10
545.143722
20
433.868586
11
545.405016
21
433.940831
0
LINE
8
annotation
62
1
39
211
10
545.405016
20
433.940831
11
545.652332
21
434.057768
0
LINE
8
annotation
62
1
39
211
10
545.652332
20
434.057768
11
545.879372
21
434.218752
0
LINE
8
annotation
62
1
39
211
10
545.879372
20
434.218752
11
546.079838
21
434.423135
0
LINE
8
annotation
62
1
39
211
10
546.079838
20
434.423135
11
546.580321
21
435.033913
0
LINE
8
annotation
62
1
39
211
10
546.580321
20
435.033913
11
546.580321
21
435.033913
0
LINE
8
annotation
62
1
39
211
10
546.580321
20
435.033913
11
546.741224
21
435.270536
0
LINE
8
annotation
62
1
39
211
10
546.741224
20
435.270536
11
546.854203
21
435.524504
0
LINE
8
annotation
62
1
39
211
10
546.854203
20
435.524504
11
546.919904
21
435.789567
0
LINE
8
annotation
62
1
39
211
10
546.919904
20
435.789567
11
546.938975
21
436.059473
0
LINE
8
annotation
62
1
39
211
10
546.938975
20
436.059473
11
546.912062
21
436.327972
0
LINE
8
annotation
62
1
39
211
10
546.912062
20
436.327972
11
546.839811
21
436.588814
0
LINE
8
annotation
62
1
39
211
10
546.839811
20
436.588814
11
546.722870
21
436.835748
0
LINE
8
annotation
62
1
39
211
10
546.722870
20
436.835748
11
546.561883
21
437.062525
0
LINE
8
annotation
62
1
39
211
10
546.561883
20
437.062525
11
546.357499
21
437.262893
0
LINE
8
annotation
62
1
39
211
10
546.357499
20
437.262893
11
545.131442
21
438.267546
0
LINE
8
annotation
62
1
39
211
10
541.902849
20
434.640676
11
544.663469
21
432.378573
0
LINE
8
annotation
62
1
39
211
10
495.205353
20
387.588941
11
487.667524
21
387.588941
0
LINE
8
annotation
62
1
39
211
10
487.667524
20
387.588941
11
495.205353
21
401.164525
0
LINE
8
annotation
62
1
39
211
10
495.205353
20
401.164525
11
487.667524
21
401.164525
0
LINE
8
annotation
62
1
39
211
10
507.720371
20
394.376733
11
500.297474
21
394.376733
0
LINE
8
annotation
62
1
39
211
10
515.828389
20
387.588941
11
515.828389
21
401.164525
0
LINE
8
annotation
62
1
39
211
10
515.828389
20
401.164525
11
512.810363
21
398.145647
0
LINE
8
boundary
62
5
39
2
10
160.619779
20
498.316065
11
166.678968
21
495.269193
0
LINE
8
boundary
62
5
39
2
10
166.678968
20
495.269193
11
167.328876
21
494.942844
0
LINE
8
boundary
62
5
39
2
10
167.328876
20
494.942844
11
174.977966
21
491.787352
0
LINE
8
boundary
62
5
39
2
10
174.977966
20
491.787352
11
182.178358
21
489.185876
0
LINE
8
boundary
62
5
39
2
10
182.178358
20
489.185876
11
183.066503
21
488.931263
0
LINE
8
boundary
62
5
39
2
10
183.066503
20
488.931263
11
187.814091
21
487.475286
0
LINE
8
boundary
62
5
39
2
10
187.814091
20
487.475286
11
189.406116
21
487.031006
0
LINE
8
boundary
62
5
39
2
10
189.406116
20
487.031006
11
190.439390
21
486.781564
0
LINE
8
boundary
62
5
39
2
10
190.439390
20
486.781564
11
196.625367
21
485.348634
0
LINE
8
boundary
62
5
39
2
10
196.625367
20
485.348634
11
198.666216
21
485.123274
0
LINE
8
boundary
62
5
39
2
10
198.666216
20
485.123274
11
201.901990
21
484.810479
0
LINE
8
boundary
62
5
39
2
10
201.901990
20
484.810479
11
203.708182
21
484.625337
0
LINE
8
boundary
62
5
39
2
10
203.708182
20
484.625337
11
207.486790
21
484.785249
0
LINE
8
boundary
62
5
39
2
10
207.486790
20
484.785249
11
210.438234
21
484.980904
0
LINE
8
boundary
62
5
39
2
10
210.438234
20
484.980904
11
215.694772
21
486.248114
0
LINE
8
boundary
62
5
39
2
10
215.694772
20
486.248114
11
215.562827
21
487.126241
0
LINE
8
boundary
62
5
39
2
10
215.562827
20
487.126241
11
138.929436
21
529.430648
0
LINE
8
boundary
62
5
39
2
10
138.929436
20
529.430648
11
141.078129
21
533.322953
0
LINE
8
boundary
62
5
39
2
10
141.078129
20
533.322953
11
221.289562
21
489.043337
0
LINE
8
boundary
62
5
39
2
10
221.289562
20
489.043337
11
222.102941
21
489.399611
0
LINE
8
boundary
62
5
39
2
10
222.102941
20
489.399611
11
227.963203
21
492.639903
0
LINE
8
boundary
62
5
39
2
10
227.963203
20
492.639903
11
235.614812
21
500.119145
0
LINE
8
boundary
62
5
39
2
10
235.614812
20
500.119145
11
237.188478
21
501.902622
0
LINE
8
boundary
62
5
39
2
10
237.188478
20
501.902622
11
238.300503
21
503.433591
0
LINE
8
boundary
62
5
39
2
10
238.300503
20
503.433591
11
240.073492
21
506.114491
0
LINE
8
boundary
62
5
39
2
10
240.073492
20
506.114491
11
241.304417
21
508.031963
0
LINE
8
boundary
62
5
39
2
10
241.304417
20
508.031963
11
242.077027
21
509.322102
0
LINE
8
boundary
62
5
39
2
10
242.077027
20
509.322102
11
242.853089
21
510.691871
0
LINE
8
boundary
62
5
39
2
10
242.853089
20
510.691871
11
243.173054
21
511.291273
0
LINE
8
boundary
62
5
39
2
10
243.173054
20
511.291273
11
244.288012
21
513.396237
0
LINE
8
boundary
62
5
39
2
10
244.288012
20
513.396237
11
244.825489
21
514.537758
0
LINE
8
boundary
62
5
39
2
10
244.825489
20
514.537758
11
245.612341
21
516.236959
0
LINE
8
boundary
62
5
39
2
10
245.612341
20
516.236959
11
247.124910
21
519.604995
0
LINE
8
boundary
62
5
39
2
10
247.124910
20
519.604995
11
248.034413
21
521.927352
0
LINE
8
boundary
62
5
39
2
10
248.034413
20
521.927352
11
247.931369
21
522.809338
0
LINE
8
boundary
62
5
39
2
10
247.931369
20
522.809338
11
133.080692
21
591.224291
0
LINE
8
boundary
62
5
39
2
10
133.080692
20
591.224291
11
135.356012
21
595.043955
0
LINE
8
boundary
62
5
39
2
10
135.356012
20
595.043955
11
249.258902
21
527.193585
0
LINE
8
boundary
62
5
39
2
10
249.258902
20
527.193585
11
250.083540
21
527.522964
0
LINE
8
boundary
62
5
39
2
10
250.083540
20
527.522964
11
251.399368
21
531.761942
0
LINE
8
boundary
62
5
39
2
10
251.399368
20
531.761942
11
251.708688
21
532.762764
0
LINE
8
boundary
62
5
39
2
10
251.708688
20
532.762764
11
251.895666
21
533.468816
0
LINE
8
boundary
62
5
39
2
10
251.895666
20
533.468816
11
252.855436
21
537.317463
0
LINE
8
boundary
62
5
39
2
10
252.855436
20
537.317463
11
253.369045
21
539.607391
0
LINE
8
boundary
62
5
39
2
10
253.369045
20
539.607391
11
253.683547
21
541.592763
0
LINE
8
boundary
62
5
39
2
10
253.683547
20
541.592763
11
253.772301
21
544.303775
0
LINE
8
boundary
62
5
39
2
10
253.772301
20
544.303775
11
254.565533
21
550.158989
0
LINE
8
boundary
62
5
39
2
10
254.565533
20
550.158989
11
254.573912
21
551.498177
0
LINE
8
boundary
62
5
39
2
10
254.573912
20
551.498177
11
254.646212
21
554.232807
0
LINE
8
boundary
62
5
39
2
10
254.646212
20
554.232807
11
254.502012
21
557.104556
0
LINE
8
boundary
62
5
39
2
10
254.502012
20
557.104556
11
254.536744
21
558.079981
0
LINE
8
boundary
62
5
39
2
10
254.536744
20
558.079981
11
254.482547
21
558.962819
0
LINE
8
boundary
62
5
39
2
10
254.482547
20
558.962819
11
254.241030
21
562.015666
0
LINE
8
boundary
62
5
39
2
10
254.241030
20
562.015666
11
254.044838
21
564.001388
0
LINE
8
boundary
62
5
39
2
10
254.044838
20
564.001388
11
253.794394
21
566.014171
0
LINE
8
boundary
62
5
39
2
10
253.794394
20
566.014171
11
253.370643
21
568.158931
0
LINE
8
boundary
62
5
39
2
10
253.370643
20
568.158931
11
253.227125
21
569.234255
0
LINE
8
boundary
62
5
39
2
10
253.227125
20
569.234255
11
253.154528
21
570.089911
0
LINE
8
boundary
62
5
39
2
10
253.154528
20
570.089911
11
253.022190
21
571.240652
0
LINE
8
boundary
62
5
39
2
10
253.022190
20
571.240652
11
127.393862
21
656.555754
0
LINE
8
boundary
62
5
39
2
10
127.393862
20
656.555754
11
129.891646
21
660.233795
0
LINE
8
boundary
62
5
39
2
10
129.891646
20
660.233795
11
251.655001
21
577.543424
0
LINE
8
boundary
62
5
39
2
10
251.655001
20
577.543424
11
252.497716
21
577.823330
0
LINE
8
boundary
62
5
39
2
10
252.497716
20
577.823330
11
252.032699
21
584.047907
0
LINE
8
boundary
62
5
39
2
10
252.032699
20
584.047907
11
251.994638
21
585.138207
0
LINE
8
boundary
62
5
39
2
10
251.994638
20
585.138207
11
251.951389
21
586.389047
0
LINE
8
boundary
62
5
39
2
10
251.951389
20
586.389047
11
251.804578
21
591.039315
0
LINE
8
boundary
62
5
39
2
10
251.804578
20
591.039315
11
251.758601
21
592.614944
0
LINE
8
boundary
62
5
39
2
10
251.758601
20
592.614944
11
251.666599
21
595.835518
0
LINE
8
boundary
62
5
39
2
10
251.666599
20
595.835518
11
251.593557
21
598.535212
0
LINE
8
boundary
62
5
39
2
10
251.593557
20
598.535212
11
251.571581
21
599.292406
0
LINE
8
boundary
62
5
39
2
10
251.571581
20
599.292406
11
251.405516
21
604.062130
0
LINE
8
boundary
62
5
39
2
10
251.405516
20
604.062130
11
251.222301
21
609.308697
0
LINE
8
boundary
62
5
39
2
10
251.222301
20
609.308697
11
250.704913
21
616.963111
0
LINE
8
boundary
62
5
39
2
10
250.704913
20
616.963111
11
250.647700
21
617.675707
0
LINE
8
boundary
62
5
39
2
10
250.647700
20
617.675707
11
250.557596
21
618.244782
0
LINE
8
boundary
62
5
39
2
10
250.557596
20
618.244782
11
249.777210
21
625.068420
0
LINE
8
boundary
62
5
39
2
10
249.777210
20
625.068420
11
249.663026
21
626.073438
0
LINE
8
boundary
62
5
39
2
10
249.663026
20
626.073438
11
133.531197
21
721.234016
0
LINE
8
boundary
62
5
39
2
10
133.531197
20
721.234016
11
136.349119
21
724.672945
0
LINE
8
boundary
62
5
39
2
10
136.349119
20
724.672945
11
247.620547
21
633.495070
0
LINE
8
boundary
62
5
39
2
10
247.620547
20
633.495070
11
248.484990
21
633.698185
0
LINE
8
boundary
62
5
39
2
10
248.484990
20
633.698185
11
248.278453
21
635.013333
0
LINE
8
boundary
62
5
39
2
10
248.278453
20
635.013333
11
248.171034
21
635.801526
0
LINE
8
boundary
62
5
39
2
10
248.171034
20
635.801526
11
246.975051
21
641.947631
0
LINE
8
boundary
62
5
39
2
10
246.975051
20
641.947631
11
246.658936
21
643.543632
0
LINE
8
boundary
62
5
39
2
10
246.658936
20
643.543632
11
246.239469
21
645.766733
0
LINE
8
boundary
62
5
39
2
10
246.239469
20
645.766733
11
244.717342
21
652.097539
0
LINE
8
boundary
62
5
39
2
10
244.717342
20
652.097539
11
244.326523
21
653.726966
0
LINE
8
boundary
62
5
39
2
10
244.326523
20
653.726966
11
243.687102
21
656.350528
0
LINE
8
boundary
62
5
39
2
10
243.687102
20
656.350528
11
242.785640
21
659.470233
0
LINE
8
boundary
62
5
39
2
10
242.785640
20
659.470233
11
242.389085
21
660.644453
0
LINE
8
boundary
62
5
39
2
10
242.389085
20
660.644453
11
241.412643
21
663.136913
0
LINE
8
boundary
62
5
39
2
10
241.412643
20
663.136913
11
239.545141
21
669.126658
0
LINE
8
boundary
62
5
39
2
10
239.545141
20
669.126658
11
239.291193
21
669.756187
0
LINE
8
boundary
62
5
39
2
10
239.291193
20
669.756187
11
238.515135
21
671.599473
0
LINE
8
boundary
62
5
39
2
10
238.515135
20
671.599473
11
236.583273
21
675.962941
0
LINE
8
boundary
62
5
39
2
10
236.583273
20
675.962941
11
236.039454
21
677.460584
0
LINE
8
boundary
62
5
39
2
10
236.039454
20
677.460584
11
234.621218
21
680.611541
0
LINE
8
boundary
62
5
39
2
10
234.621218
20
680.611541
11
233.935523
21
682.029480
0
LINE
8
boundary
62
5
39
2
10
233.935523
20
682.029480
11
233.135534
21
683.625336
0
LINE
8
boundary
62
5
39
2
10
233.135534
20
683.625336
11
232.697211
21
684.477968
0
LINE
8
boundary
62
5
39
2
10
232.697211
20
684.477968
11
232.058442
21
685.642642
0
LINE
8
boundary
62
5
39
2
10
232.058442
20
685.642642
11
229.992769
21
689.690600
0
LINE
8
boundary
62
5
39
2
10
229.992769
20
689.690600
11
227.959646
21
693.590288
0
LINE
8
boundary
62
5
39
2
10
227.959646
20
693.590288
11
227.618724
21
694.265828
0
LINE
8
boundary
62
5
39
2
10
227.618724
20
694.265828
11
225.482353
21
698.366964
0
LINE
8
boundary
62
5
39
2
10
225.482353
20
698.366964
11
223.562398
21
701.941823
0
LINE
8
boundary
62
5
39
2
10
223.562398
20
701.941823
11
221.940923
21
705.175857
0
LINE
8
boundary
62
5
39
2
10
221.940923
20
705.175857
11
220.558932
21
708.101319
0
LINE
8
boundary
62
5
39
2
10
220.558932
20
708.101319
11
219.522241
21
710.144264
0
LINE
8
boundary
62
5
39
2
10
219.522241
20
710.144264
11
219.160992
21
710.739595
0
LINE
8
boundary
62
5
39
2
10
219.160992
20
710.739595
11
218.804851
21
711.429451
0
LINE
8
boundary
62
5
39
2
10
218.804851
20
711.429451
11
217.901553
21
713.579573
0
LINE
8
boundary
62
5
39
2
10
217.901553
20
713.579573
11
216.300430
21
717.082302
0
LINE
8
boundary
62
5
39
2
10
216.300430
20
717.082302
11
215.807610
21
718.405099
0
LINE
8
boundary
62
5
39
2
10
215.807610
20
718.405099
11
215.541365
21
719.340854
0
LINE
8
boundary
62
5
39
2
10
215.541365
20
719.340854
11
215.123718
21
720.808727
0
LINE
8
boundary
62
5
39
2
10
215.123718
20
720.808727
11
143.798252
21
796.245223
0
LINE
8
boundary
62
5
39
2
10
143.798252
20
796.245223
11
147.028844
21
799.299758
0
LINE
8
boundary
62
5
39
2
10
147.028844
20
799.299758
11
210.019337
21
732.678645
0
LINE
8
boundary
62
5
39
2
10
210.019337
20
732.678645
11
210.902537
21
732.770694
0
LINE
8
boundary
62
5
39
2
10
210.902537
20
732.770694
11
210.743353
21
733.393835
0
LINE
8
boundary
62
5
39
2
10
210.743353
20
733.393835
11
209.997116
21
736.373447
0
LINE
8
boundary
62
5
39
2
10
209.997116
20
736.373447
11
209.602760
21
737.679930
0
LINE
8
boundary
62
5
39
2
10
209.602760
20
737.679930
11
209.229383
21
739.431781
0
LINE
8
boundary
62
5
39
2
10
209.229383
20
739.431781
11
208.528262
21
741.967942
0
LINE
8
boundary
62
5
39
2
10
208.528262
20
741.967942
11
208.367219
21
742.759607
0
LINE
8
boundary
62
5
39
2
10
208.367219
20
742.759607
11
208.138140
21
743.535729
0
LINE
8
boundary
62
5
39
2
10
208.138140
20
743.535729
11
207.059728
21
746.616810
0
LINE
8
boundary
62
5
39
2
10
207.059728
20
746.616810
11
206.394004
21
748.276831
0
LINE
8
boundary
62
5
39
2
10
206.394004
20
748.276831
11
205.394788
21
750.597316
0
LINE
8
boundary
62
5
39
2
10
205.394788
20
750.597316
11
204.946329
21
751.632031
0
LINE
8
boundary
62
5
39
2
10
204.946329
20
751.632031
11
203.680594
21
754.035017
0
LINE
8
boundary
62
5
39
2
10
203.680594
20
754.035017
11
203.056519
21
755.127213
0
LINE
8
boundary
62
5
39
2
10
203.056519
20
755.127213
11
201.130209
21
758.144226
0
LINE
8
boundary
62
5
39
2
10
201.130209
20
758.144226
11
199.141188
21
760.816638
0
LINE
8
boundary
62
5
39
2
10
199.141188
20
760.816638
11
197.718973
21
762.525482
0
LINE
8
boundary
62
5
39
2
10
197.718973
20
762.525482
11
196.556693
21
763.928650
0
LINE
8
boundary
62
5
39
2
10
196.556693
20
763.928650
11
195.898957
21
764.674837
0
LINE
8
boundary
62
5
39
2
10
195.898957
20
764.674837
11
194.155236
21
766.389224
0
LINE
8
boundary
62
5
39
2
10
194.155236
20
766.389224
11
192.986071
21
767.449383
0
LINE
8
boundary
62
5
39
2
10
192.986071
20
767.449383
11
191.731648
21
768.751915
0
LINE
8
boundary
62
5
39
2
10
191.731648
20
768.751915
11
190.325031
21
769.964356
0
LINE
8
boundary
62
5
39
2
10
190.325031
20
769.964356
11
189.287690
21
770.993691
0
LINE
8
boundary
62
5
39
2
10
189.287690
20
770.993691
11
187.648333
21
772.532632
0
LINE
8
boundary
62
5
39
2
10
187.648333
20
772.532632
11
186.891187
21
773.161658
0
LINE
8
boundary
62
5
39
2
10
186.891187
20
773.161658
11
185.965750
21
773.936521
0
LINE
8
boundary
62
5
39
2
10
185.965750
20
773.936521
11
184.868645
21
774.856897
0
LINE
8
boundary
62
5
39
2
10
184.868645
20
774.856897
11
183.359014
21
776.084599
0
LINE
8
boundary
62
5
39
2
10
183.359014
20
776.084599
11
181.063518
21
778.156009
0
LINE
8
boundary
62
5
39
2
10
181.063518
20
778.156009
11
180.178730
21
778.902704
0
LINE
8
boundary
62
5
39
2
10
180.178730
20
778.902704
11
178.954402
21
779.908600
0
LINE
8
boundary
62
5
39
2
10
178.954402
20
779.908600
11
177.593335
21
781.003544
0
LINE
8
boundary
62
5
39
2
10
177.593335
20
781.003544
11
176.167204
21
782.115763
0
LINE
8
boundary
62
5
39
2
10
176.167204
20
782.115763
11
174.771574
21
783.170465
0
LINE
8
boundary
62
5
39
2
10
174.771574
20
783.170465
11
173.985068
21
783.754039
0
LINE
8
boundary
62
5
39
2
10
173.985068
20
783.754039
11
172.414422
21
784.946863
0
LINE
8
boundary
62
5
39
2
10
172.414422
20
784.946863
11
170.694491
21
786.209562
0
LINE
8
boundary
62
5
39
2
10
170.694491
20
786.209562
11
169.074811
21
787.390305
0
LINE
8
boundary
62
5
39
2
10
169.074811
20
787.390305
11
167.977794
21
788.161919
0
LINE
8
boundary
62
5
39
2
10
167.977794
20
788.161919
11
167.034369
21
788.824335
0
LINE
8
boundary
62
5
39
2
10
167.034369
20
788.824335
11
164.100385
21
790.846762
0
LINE
8
boundary
62
5
39
2
10
164.100385
20
790.846762
11
162.950308
21
791.715609
0
LINE
8
boundary
62
5
39
2
10
162.950308
20
791.715609
11
161.697700
21
792.630679
0
LINE
8
boundary
62
5
39
2
10
161.697700
20
792.630679
11
160.842227
21
793.340160
0
LINE
8
boundary
62
5
39
2
10
160.842227
20
793.340160
11
159.803689
21
794.162183
0
LINE
8
boundary
62
5
39
2
10
159.803689
20
794.162183
11
158.596540
21
795.042314
0
LINE
8
boundary
62
5
39
2
10
158.596540
20
795.042314
11
157.549942
21
796.051039
0
LINE
8
boundary
62
5
39
2
10
157.549942
20
796.051039
11
156.401120
21
797.182978
0
LINE
8
boundary
62
5
39
2
10
156.401120
20
797.182978
11
156.002079
21
797.572983
0
LINE
8
boundary
62
5
39
2
10
156.002079
20
797.572983
11
152.737575
21
800.751265
0
LINE
8
boundary
62
5
39
2
10
152.737575
20
800.751265
11
151.889812
21
801.766279
0
LINE
8
boundary
62
5
39
2
10
151.889812
20
801.766279
11
151.517498
21
802.253160
0
LINE
8
boundary
62
5
39
2
10
151.517498
20
802.253160
11
148.739565
21
806.136365
0
LINE
8
boundary
62
5
39
2
10
148.739565
20
806.136365
11
148.359376
21
807.530616
0
LINE
8
boundary
62
5
39
2
10
148.359376
20
807.530616
11
148.091724
21
809.580259
0
LINE
8
boundary
62
5
39
2
10
148.091724
20
809.580259
11
148.136326
21
810.164193
0
LINE
8
boundary
62
5
39
2
10
148.136326
20
810.164193
11
148.124109
21
811.636759
0
LINE
8
boundary
62
5
39
2
10
148.124109
20
811.636759
11
148.255525
21
812.738540
0
LINE
8
boundary
62
5
39
2
10
148.255525
20
812.738540
11
148.292630
21
813.292815
0
LINE
8
boundary
62
5
39
2
10
148.292630
20
813.292815
11
148.470821
21
814.878374
0
LINE
8
boundary
62
5
39
2
10
148.470821
20
814.878374
11
148.598257
21
815.966106
0
LINE
8
boundary
62
5
39
2
10
148.598257
20
815.966106
11
148.683790
21
816.521594
0
LINE
8
boundary
62
5
39
2
10
148.683790
20
816.521594
11
148.778297
21
817.569214
0
LINE
8
boundary
62
5
39
2
10
148.778297
20
817.569214
11
148.920063
21
818.662644
0
LINE
8
boundary
62
5
39
2
10
148.920063
20
818.662644
11
148.995470
21
819.423349
0
LINE
8
boundary
62
5
39
2
10
148.995470
20
819.423349
11
149.050516
21
819.973305
0
LINE
8
boundary
62
5
39
2
10
149.050516
20
819.973305
11
149.098168
21
820.543628
0
LINE
8
boundary
62
5
39
2
10
149.098168
20
820.543628
11
149.146658
21
821.073463
0
LINE
8
boundary
62
5
39
2
10
149.146658
20
821.073463
11
148.756703
21
821.666858
0
LINE
8
boundary
62
5
39
2
10
148.756703
20
821.666858
11
148.024052
21
822.781745
0
LINE
8
boundary
62
5
39
2
10
148.024052
20
822.781745
11
147.379551
21
823.758384
0
LINE
8
boundary
62
5
39
2
10
147.379551
20
823.758384
11
146.931363
21
824.444571
0
LINE
8
boundary
62
5
39
2
10
146.931363
20
824.444571
11
146.532276
21
825.051805
0
LINE
8
boundary
62
5
39
2
10
146.532276
20
825.051805
11
145.936529
21
825.957498
0
LINE
8
boundary
62
5
39
2
10
145.936529
20
825.957498
11
145.369753
21
826.820674
0
LINE
8
boundary
62
5
39
2
10
145.369753
20
826.820674
11
144.970036
21
827.428890
0
LINE
8
boundary
62
5
39
2
10
144.970036
20
827.428890
11
144.134955
21
828.699512
0
LINE
8
boundary
62
5
39
2
10
144.134955
20
828.699512
11
143.543733
21
829.599077
0
LINE
8
boundary
62
5
39
2
10
143.543733
20
829.599077
11
142.945195
21
830.509807
0
LINE
8
boundary
62
5
39
2
10
142.945195
20
830.509807
11
142.208789
21
831.630341
0
LINE
8
boundary
62
5
39
2
10
142.208789
20
831.630341
11
141.691760
21
832.417028
0
LINE
8
boundary
62
5
39
2
10
141.691760
20
832.417028
11
140.757300
21
833.838886
0
LINE
8
boundary
62
5
39
2
10
140.757300
20
833.838886
11
140.332703
21
834.484944
0
LINE
8
boundary
62
5
39
2
10
140.332703
20
834.484944
11
140.022099
21
834.957573
0
LINE
8
boundary
62
5
39
2
10
140.022099
20
834.957573
11
138.893758
21
836.674475
0
LINE
8
boundary
62
5
39
2
10
138.893758
20
836.674475
11
138.206408
21
837.720294
0
LINE
8
boundary
62
5
39
2
10
138.206408
20
837.720294
11
137.146377
21
839.333230
0
LINE
8
boundary
62
5
39
2
10
137.146377
20
839.333230
11
135.502689
21
841.834255
0
LINE
8
boundary
62
5
39
2
10
135.502689
20
841.834255
11
135.146970
21
842.375516
0
LINE
8
boundary
62
5
39
2
10
135.146970
20
842.375516
11
134.152045
21
843.889374
0
LINE
8
boundary
62
5
39
2
10
134.152045
20
843.889374
11
132.789060
21
845.963260
0
LINE
8
boundary
62
5
39
2
10
132.789060
20
845.963260
11
132.471857
21
846.445712
0
LINE
8
boundary
62
5
39
2
10
132.471857
20
846.445712
11
131.926955
21
847.274519
0
LINE
8
boundary
62
5
39
2
10
131.926955
20
847.274519
11
129.309989
21
851.255520
0
LINE
8
boundary
62
5
39
2
10
129.309989
20
851.255520
11
126.978578
21
854.804021
0
LINE
8
boundary
62
5
39
2
10
126.978578
20
854.804021
11
126.554172
21
855.448990
0
LINE
8
boundary
62
5
39
2
10
126.554172
20
855.448990
11
125.213306
21
857.490412
0
LINE
8
boundary
62
5
39
2
10
125.213306
20
857.490412
11
123.482084
21
860.124601
0
LINE
8
boundary
62
5
39
2
10
123.482084
20
860.124601
11
122.577127
21
861.501571
0
LINE
8
boundary
62
5
39
2
10
122.577127
20
861.501571
11
120.141641
21
865.207922
0
LINE
8
boundary
62
5
39
2
10
120.141641
20
865.207922
11
118.454653
21
867.775383
0
LINE
8
boundary
62
5
39
2
10
118.454653
20
867.775383
11
116.757625
21
870.357492
0
LINE
8
boundary
62
5
39
2
10
116.757625
20
870.357492
11
114.357495
21
871.149535
0
LINE
8
boundary
62
5
39
2
10
114.357495
20
871.149535
11
112.041021
21
871.884695
0
LINE
8
boundary
62
5
39
2
10
112.041021
20
871.884695
11
109.020083
21
872.586289
0
LINE
8
boundary
62
5
39
2
10
109.020083
20
872.586289
11
107.522050
21
872.818645
0
LINE
8
boundary
62
5
39
2
10
107.522050
20
872.818645
11
103.477980
21
873.414466
0
LINE
8
boundary
62
5
39
2
10
103.477980
20
873.414466
11
98.556794
21
873.830660
0
LINE
8
boundary
62
5
39
2
10
98.556794
20
873.830660
11
94.730181
21
873.926952
0
LINE
8
boundary
62
5
39
2
10
94.730181
20
873.926952
11
93.271417
21
873.826931
0
LINE
8
boundary
62
5
39
2
10
93.271417
20
873.826931
11
89.439940
21
873.406396
0
LINE
8
boundary
62
5
39
2
10
89.439940
20
873.406396
11
85.259607
21
872.627000
0
LINE
8
boundary
62
5
39
2
10
85.259607
20
872.627000
11
80.432343
21
871.445323
0
LINE
8
boundary
62
5
39
2
10
80.432343
20
871.445323
11
76.374735
21
870.142946
0
LINE
8
boundary
62
5
39
2
10
76.374735
20
870.142946
11
75.537958
21
869.842059
0
LINE
8
boundary
62
5
39
2
10
75.537958
20
869.842059
11
71.737132
21
868.084907
0
LINE
8
boundary
62
5
39
2
10
71.737132
20
868.084907
11
70.102571
21
867.007651
0
LINE
8
boundary
62
5
39
2
10
70.102571
20
867.007651
11
69.157889
21
866.462688
0
LINE
8
boundary
62
5
39
2
10
69.157889
20
866.462688
11
67.872254
21
865.697221
0
LINE
8
boundary
62
5
39
2
10
67.872254
20
865.697221
11
63.001091
21
863.303956
0
LINE
8
boundary
62
5
39
2
10
63.001091
20
863.303956
11
62.286117
21
862.814601
0
LINE
8
boundary
62
5
39
2
10
62.286117
20
862.814601
11
58.004364
21
859.772600
0
LINE
8
boundary
62
5
39
2
10
58.004364
20
859.772600
11
55.656122
21
858.121539
0
LINE
8
boundary
62
5
39
2
10
55.656122
20
858.121539
11
54.758469
21
857.428564
0
LINE
8
boundary
62
5
39
2
10
54.758469
20
857.428564
11
50.610906
21
853.717876
0
LINE
8
boundary
62
5
39
2
10
50.610906
20
853.717876
11
48.473602
21
851.781366
0
LINE
8
boundary
62
5
39
2
10
48.473602
20
851.781366
11
45.692787
21
848.614457
0
LINE
8
boundary
62
5
39
2
10
45.692787
20
848.614457
11
41.721030
21
844.916452
0
LINE
8
boundary
62
5
39
2
10
41.721030
20
844.916452
11
40.551427
21
843.566453
0
LINE
8
boundary
62
5
39
2
10
40.551427
20
843.566453
11
37.123480
21
839.618694
0
LINE
8
boundary
62
5
39
2
10
37.123480
20
839.618694
11
35.830240
21
838.086568
0
LINE
8
boundary
62
5
39
2
10
35.830240
20
838.086568
11
35.296159
21
837.568981
0
LINE
8
boundary
62
5
39
2
10
35.296159
20
837.568981
11
34.328709
21
836.433660
0
LINE
8
boundary
62
5
39
2
10
34.328709
20
836.433660
11
31.091719
21
832.450952
0
LINE
8
boundary
62
5
39
2
10
31.091719
20
832.450952
11
30.617907
21
831.883661
0
LINE
8
boundary
62
5
39
2
10
30.617907
20
831.883661
11
29.912529
21
830.959541
0
LINE
8
boundary
62
5
39
2
10
29.912529
20
830.959541
11
29.075871
21
829.963212
0
LINE
8
boundary
62
5
39
2
10
29.075871
20
829.963212
11
26.556212
21
826.527435
0
LINE
8
boundary
62
5
39
2
10
26.556212
20
826.527435
11
22.881857
21
822.228554
0
LINE
8
boundary
62
5
39
2
10
22.881857
20
822.228554
11
22.350634
21
821.536126
0
LINE
8
boundary
62
5
39
2
10
22.350634
20
821.536126
11
21.397243
21
820.407067
0
LINE
8
boundary
62
5
39
2
10
21.397243
20
820.407067
11
20.554284
21
819.328290
0
LINE
8
boundary
62
5
39
2
10
20.554284
20
819.328290
11
17.402312
21
815.254343
0
LINE
8
boundary
62
5
39
2
10
17.402312
20
815.254343
11
16.749635
21
814.357526
0
LINE
8
boundary
62
5
39
2
10
16.749635
20
814.357526
11
16.319004
21
813.692463
0
LINE
8
boundary
62
5
39
2
10
16.319004
20
813.692463
11
11.298685
21
806.171171
0
LINE
8
boundary
62
5
39
2
10
11.298685
20
806.171171
11
7.331072
21
797.884304
0
LINE
8
boundary
62
5
39
2
10
7.331072
20
797.884304
11
7.058240
21
797.174830
0
LINE
8
boundary
62
5
39
2
10
7.058240
20
797.174830
11
4.309887
21
788.212441
0
LINE
8
boundary
62
5
39
2
10
4.309887
20
788.212441
11
4.013300
21
786.997911
0
LINE
8
boundary
62
5
39
2
10
4.013300
20
786.997911
11
3.076942
21
782.368860
0
LINE
8
boundary
62
5
39
2
10
3.076942
20
782.368860
11
2.918752
21
780.769064
0
LINE
8
boundary
62
5
39
2
10
2.918752
20
780.769064
11
2.800605
21
779.806644
0
LINE
8
boundary
62
5
39
2
10
2.800605
20
779.806644
11
2.391031
21
774.908797
0
LINE
8
boundary
62
5
39
2
10
2.391031
20
774.908797
11
1.870842
21
770.849285
0
LINE
8
boundary
62
5
39
2
10
1.870842
20
770.849285
11
1.695220
21
769.172029
0
LINE
8
boundary
62
5
39
2
10
1.695220
20
769.172029
11
1.641829
21
768.598450
0
LINE
8
boundary
62
5
39
2
10
1.641829
20
768.598450
11
1.589606
21
767.229653
0
LINE
8
boundary
62
5
39
2
10
1.589606
20
767.229653
11
1.587500
21
765.054595
0
LINE
8
boundary
62
5
39
2
10
1.587500
20
765.054595
11
1.610848
21
764.102592
0
LINE
8
boundary
62
5
39
2
10
1.610848
20
764.102592
11
1.717264
21
762.769096
0
LINE
8
boundary
62
5
39
2
10
1.717264
20
762.769096
11
2.362785
21
755.086838
0
LINE
8
boundary
62
5
39
2
10
2.362785
20
755.086838
11
2.454689
21
753.992221
0
LINE
8
boundary
62
5
39
2
10
2.454689
20
753.992221
11
2.640418
21
752.082284
0
LINE
8
boundary
62
5
39
2
10
2.640418
20
752.082284
11
3.434190
21
747.358886
0
LINE
8
boundary
62
5
39
2
10
3.434190
20
747.358886
11
4.007299
21
743.939601
0
LINE
8
boundary
62
5
39
2
10
4.007299
20
743.939601
11
4.123942
21
743.248065
0
LINE
8
boundary
62
5
39
2
10
4.123942
20
743.248065
11
4.648994
21
740.722400
0
LINE
8
boundary
62
5
39
2
10
4.648994
20
740.722400
11
5.501117
21
736.715884
0
LINE
8
boundary
62
5
39
2
10
5.501117
20
736.715884
11
5.914025
21
735.041409
0
LINE
8
boundary
62
5
39
2
10
5.914025
20
735.041409
11
6.418117
21
732.813550
0
LINE
8
boundary
62
5
39
2
10
6.418117
20
732.813550
11
8.084474
21
726.176887
0
LINE
8
boundary
62
5
39
2
10
8.084474
20
726.176887
11
8.340118
21
725.125461
0
LINE
8
boundary
62
5
39
2
10
8.340118
20
725.125461
11
8.633660
21
723.984381
0
LINE
8
boundary
62
5
39
2
10
8.633660
20
723.984381
11
8.968926
21
722.755585
0
LINE
8
boundary
62
5
39
2
10
8.968926
20
722.755585
11
9.461482
21
721.023578
0
LINE
8
boundary
62
5
39
2
10
9.461482
20
721.023578
11
9.879704
21
719.601882
0
LINE
8
boundary
62
5
39
2
10
9.879704
20
719.601882
11
10.055661
21
719.043596
0
LINE
8
boundary
62
5
39
2
10
10.055661
20
719.043596
11
10.557018
21
717.407669
0
LINE
8
boundary
62
5
39
2
10
10.557018
20
717.407669
11
12.064955
21
712.844772
0
LINE
8
boundary
62
5
39
2
10
12.064955
20
712.844772
11
13.284420
21
708.764605
0
LINE
8
boundary
62
5
39
2
10
13.284420
20
708.764605
11
13.861688
21
707.074322
0
LINE
8
boundary
62
5
39
2
10
13.861688
20
707.074322
11
14.359769
21
705.510063
0
LINE
8
boundary
62
5
39
2
10
14.359769
20
705.510063
11
15.119012
21
703.271506
0
LINE
8
boundary
62
5
39
2
10
15.119012
20
703.271506
11
15.401616
21
702.373989
0
LINE
8
boundary
62
5
39
2
10
15.401616
20
702.373989
11
16.057003
21
700.215076
0
LINE
8
boundary
62
5
39
2
10
16.057003
20
700.215076
11
18.000733
21
693.981741
0
LINE
8
boundary
62
5
39
2
10
18.000733
20
693.981741
11
18.445141
21
691.668150
0
LINE
8
boundary
62
5
39
2
10
18.445141
20
691.668150
11
19.016068
21
689.563689
0
LINE
8
boundary
62
5
39
2
10
19.016068
20
689.563689
11
19.735110
21
685.366355
0
LINE
8
boundary
62
5
39
2
10
19.735110
20
685.366355
11
19.885408
21
683.869916
0
LINE
8
boundary
62
5
39
2
10
19.885408
20
683.869916
11
19.868624
21
683.048480
0
LINE
8
boundary
62
5
39
2
10
19.868624
20
683.048480
11
19.726586
21
679.859245
0
LINE
8
boundary
62
5
39
2
10
19.726586
20
679.859245
11
20.142787
21
674.310193
0
LINE
8
boundary
62
5
39
2
10
20.142787
20
674.310193
11
20.182264
21
672.718250
0
LINE
8
boundary
62
5
39
2
10
20.182264
20
672.718250
11
20.138879
21
672.128089
0
LINE
8
boundary
62
5
39
2
10
20.138879
20
672.128089
11
20.070922
21
670.019379
0
LINE
8
boundary
62
5
39
2
10
20.070922
20
670.019379
11
19.847841
21
665.484178
0
LINE
8
boundary
62
5
39
2
10
19.847841
20
665.484178
11
19.929143
21
663.680109
0
LINE
8
boundary
62
5
39
2
10
19.929143
20
663.680109
11
19.930866
21
662.667149
0
LINE
8
boundary
62
5
39
2
10
19.930866
20
662.667149
11
19.914205
21
661.262917
0
LINE
8
boundary
62
5
39
2
10
19.914205
20
661.262917
11
19.618176
21
656.185329
0
LINE
8
boundary
62
5
39
2
10
19.618176
20
656.185329
11
19.625084
21
655.447275
0
LINE
8
boundary
62
5
39
2
10
19.625084
20
655.447275
11
19.646985
21
653.982029
0
LINE
8
boundary
62
5
39
2
10
19.646985
20
653.982029
11
19.764459
21
649.584373
0
LINE
8
boundary
62
5
39
2
10
19.764459
20
649.584373
11
19.823837
21
647.804261
0
LINE
8
boundary
62
5
39
2
10
19.823837
20
647.804261
11
20.028930
21
645.939913
0
LINE
8
boundary
62
5
39
2
10
20.028930
20
645.939913
11
20.703275
21
640.531502
0
LINE
8
boundary
62
5
39
2
10
20.703275
20
640.531502
11
21.037173
21
639.188358
0
LINE
8
boundary
62
5
39
2
10
21.037173
20
639.188358
11
22.819388
21
632.586756
0
LINE
8
boundary
62
5
39
2
10
22.819388
20
632.586756
11
23.347086
21
630.913244
0
LINE
8
boundary
62
5
39
2
10
23.347086
20
630.913244
11
23.872766
21
629.196959
0
LINE
8
boundary
62
5
39
2
10
23.872766
20
629.196959
11
25.096249
21
626.130529
0
LINE
8
boundary
62
5
39
2
10
25.096249
20
626.130529
11
25.731356
21
624.484187
0
LINE
8
boundary
62
5
39
2
10
25.731356
20
624.484187
11
26.464512
21
622.976261
0
LINE
8
boundary
62
5
39
2
10
26.464512
20
622.976261
11
27.119861
21
621.745773
0
LINE
8
boundary
62
5
39
2
10
27.119861
20
621.745773
11
28.385995
21
619.339550
0
LINE
8
boundary
62
5
39
2
10
28.385995
20
619.339550
11
30.187024
21
615.350526
0
LINE
8
boundary
62
5
39
2
10
30.187024
20
615.350526
11
30.538344
21
614.636971
0
LINE
8
boundary
62
5
39
2
10
30.538344
20
614.636971
11
31.142542
21
613.649807
0
LINE
8
boundary
62
5
39
2
10
31.142542
20
613.649807
11
33.887863
21
608.993677
0
LINE
8
boundary
62
5
39
2
10
33.887863
20
608.993677
11
34.447722
21
608.048319
0
LINE
8
boundary
62
5
39
2
10
34.447722
20
608.048319
11
37.574860
21
603.534080
0
LINE
8
boundary
62
5
39
2
10
37.574860
20
603.534080
11
38.529810
21
602.095374
0
LINE
8
boundary
62
5
39
2
10
38.529810
20
602.095374
11
39.022930
21
601.478679
0
LINE
8
boundary
62
5
39
2
10
39.022930
20
601.478679
11
40.277886
21
599.727533
0
LINE
8
boundary
62
5
39
2
10
40.277886
20
599.727533
11
44.498931
21
594.459693
0
LINE
8
boundary
62
5
39
2
10
44.498931
20
594.459693
11
46.689497
21
591.753746
0
LINE
8
boundary
62
5
39
2
10
46.689497
20
591.753746
11
47.460050
21
590.894416
0
LINE
8
boundary
62
5
39
2
10
47.460050
20
590.894416
11
49.979870
21
588.092482
0
LINE
8
boundary
62
5
39
2
10
49.979870
20
588.092482
11
52.330336
21
585.793292
0
LINE
8
boundary
62
5
39
2
10
52.330336
20
585.793292
11
55.629163
21
581.964137
0
LINE
8
boundary
62
5
39
2
10
55.629163
20
581.964137
11
57.049096
21
580.537538
0
LINE
8
boundary
62
5
39
2
10
57.049096
20
580.537538
11
60.533318
21
576.850013
0
LINE
8
boundary
62
5
39
2
10
60.533318
20
576.850013
11
61.375515
21
576.047939
0
LINE
8
boundary
62
5
39
2
10
61.375515
20
576.047939
11
61.976148
21
575.562630
0
LINE
8
boundary
62
5
39
2
10
61.976148
20
575.562630
11
65.096122
21
572.471658
0
LINE
8
boundary
62
5
39
2
10
65.096122
20
572.471658
11
66.945646
21
570.666219
0
LINE
8
boundary
62
5
39
2
10
66.945646
20
570.666219
11
72.167894
21
566.079886
0
LINE
8
boundary
62
5
39
2
10
72.167894
20
566.079886
11
73.328149
21
564.873900
0
LINE
8
boundary
62
5
39
2
10
73.328149
20
564.873900
11
75.062817
21
563.352573
0
LINE
8
boundary
62
5
39
2
10
75.062817
20
563.352573
11
77.368668
21
561.504928
0
LINE
8
boundary
62
5
39
2
10
77.368668
20
561.504928
11
79.594676
21
559.685137
0
LINE
8
boundary
62
5
39
2
10
79.594676
20
559.685137
11
82.704673
21
557.176241
0
LINE
8
boundary
62
5
39
2
10
82.704673
20
557.176241
11
86.020450
21
554.763589
0
LINE
8
boundary
62
5
39
2
10
86.020450
20
554.763589
11
88.299315
21
553.124553
0
LINE
8
boundary
62
5
39
2
10
88.299315
20
553.124553
11
90.618523
21
551.417150
0
LINE
8
boundary
62
5
39
2
10
90.618523
20
551.417150
11
92.545114
21
550.078198
0
LINE
8
boundary
62
5
39
2
10
92.545114
20
550.078198
11
98.475905
21
545.955573
0
LINE
8
boundary
62
5
39
2
10
98.475905
20
545.955573
11
99.106785
21
545.567308
0
LINE
8
boundary
62
5
39
2
10
99.106785
20
545.567308
11
99.538086
21
545.282972
0
LINE
8
boundary
62
5
39
2
10
99.538086
20
545.282972
11
101.593646
21
543.737794
0
LINE
8
boundary
62
5
39
2
10
101.593646
20
543.737794
11
105.596596
21
541.075759
0
LINE
8
boundary
62
5
39
2
10
105.596596
20
541.075759
11
106.155349
21
540.659820
0
LINE
8
boundary
62
5
39
2
10
106.155349
20
540.659820
11
110.769832
21
537.439927
0
LINE
8
boundary
62
5
39
2
10
110.769832
20
537.439927
11
113.437386
21
535.242306
0
LINE
8
boundary
62
5
39
2
10
113.437386
20
535.242306
11
118.129687
21
531.848938
0
LINE
8
boundary
62
5
39
2
10
118.129687
20
531.848938
11
120.594112
21
529.902955
0
LINE
8
boundary
62
5
39
2
10
120.594112
20
529.902955
11
121.593944
21
529.158455
0
LINE
8
boundary
62
5
39
2
10
121.593944
20
529.158455
11
124.094613
21
526.979034
0
LINE
8
boundary
62
5
39
2
10
124.094613
20
526.979034
11
125.832821
21
525.180089
0
LINE
8
boundary
62
5
39
2
10
125.832821
20
525.180089
11
127.283638
21
523.905791
0
LINE
8
boundary
62
5
39
2
10
127.283638
20
523.905791
11
130.177907
21
521.483636
0
LINE
8
boundary
62
5
39
2
10
130.177907
20
521.483636
11
131.094702
21
520.760500
0
LINE
8
boundary
62
5
39
2
10
131.094702
20
520.760500
11
131.732034
21
520.235326
0
LINE
8
boundary
62
5
39
2
10
131.732034
20
520.235326
11
134.002549
21
518.143304
0
LINE
8
boundary
62
5
39
2
10
134.002549
20
518.143304
11
135.063948
21
517.131241
0
LINE
8
boundary
62
5
39
2
10
135.063948
20
517.131241
11
137.242866
21
515.016512
0
LINE
8
boundary
62
5
39
2
10
137.242866
20
515.016512
11
138.352319
21
514.060149
0
LINE
8
boundary
62
5
39
2
10
138.352319
20
514.060149
11
140.616056
21
512.285445
0
LINE
8
boundary
62
5
39
2
10
140.616056
20
512.285445
11
142.115230
21
511.185256
0
LINE
8
boundary
62
5
39
2
10
142.115230
20
511.185256
11
146.832155
21
507.465171
0
LINE
8
boundary
62
5
39
2
10
146.832155
20
507.465171
11
147.374997
21
507.052330
0
LINE
8
boundary
62
5
39
2
10
147.374997
20
507.052330
11
151.357859
21
504.069672
0
LINE
8
boundary
62
5
39
2
10
151.357859
20
504.069672
11
153.794583
21
502.522354
0
LINE
8
boundary
62
5
39
2
10
153.794583
20
502.522354
11
160.619779
21
498.316065
0
LINE
8
annotation
62
1
39
211
10
128.383445
20
533.497042
11
129.845385
21
532.689999
0
LINE
8
annotation
62
1
39
211
10
129.845385
20
532.689999
11
129.845385
21
532.689999
0
LINE
8
annotation
62
1
39
211
10
129.845385
20
532.689999
11
130.121339
21
532.568437
0
LINE
8
annotation
62
1
39
211
10
130.121339
20
532.568437
11
130.406277
21
532.499836
0
LINE
8
annotation
62
1
39
211
10
130.406277
20
532.499836
11
130.693780
21
532.482294
0
LINE
8
annotation
62
1
39
211
10
130.693780
20
532.482294
11
130.977429
21
532.513911
0
LINE
8
annotation
62
1
39
211
10
130.977429
20
532.513911
11
131.250807
21
532.592785
0
LINE
8
annotation
62
1
39
211
10
131.250807
20
532.592785
11
131.507494
21
532.717015
0
LINE
8
annotation
62
1
39
211
10
131.507494
20
532.717015
11
131.741072
21
532.884700
0
LINE
8
annotation
62
1
39
211
10
131.741072
20
532.884700
11
131.945123
21
533.093939
0
LINE
8
annotation
62
1
39
211
10
131.945123
20
533.093939
11
132.113228
21
533.342830
0
LINE
8
annotation
62
1
39
211
10
132.113228
20
533.342830
11
132.517319
21
534.074832
0
LINE
8
annotation
62
1
39
211
10
132.517319
20
534.074832
11
132.517319
21
534.074832
0
LINE
8
annotation
62
1
39
211
10
132.517319
20
534.074832
11
132.638294
21
534.349599
0
LINE
8
annotation
62
1
39
211
10
132.638294
20
534.349599
11
132.706587
21
534.633706
0
LINE
8
annotation
62
1
39
211
10
132.706587
20
534.633706
11
132.724006
21
534.920696
0
LINE
8
annotation
62
1
39
211
10
132.724006
20
534.920696
11
132.692357
21
535.204117
0
LINE
8
annotation
62
1
39
211
10
132.692357
20
535.204117
11
132.613444
21
535.477512
0
LINE
8
annotation
62
1
39
211
10
132.613444
20
535.477512
11
132.489075
21
535.734427
0
LINE
8
annotation
62
1
39
211
10
132.489075
20
535.734427
11
132.321055
21
535.968409
0
LINE
8
annotation
62
1
39
211
10
132.321055
20
535.968409
11
132.111189
21
536.173001
0
LINE
8
annotation
62
1
39
211
10
132.111189
20
536.173001
11
131.861284
21
536.341751
0
LINE
8
annotation
62
1
39
211
10
131.861284
20
536.341751
11
131.129282
21
536.745842
0
LINE
8
annotation
62
1
39
211
10
131.129282
20
536.745842
11
131.861284
21
536.341751
0
LINE
8
annotation
62
1
39
211
10
131.861284
20
536.341751
11
131.861284
21
536.341751
0
LINE
8
annotation
62
1
39
211
10
131.861284
20
536.341751
11
132.137249
21
536.220208
0
LINE
8
annotation
62
1
39
211
10
132.137249
20
536.220208
11
132.422227
21
536.151680
0
LINE
8
annotation
62
1
39
211
10
132.422227
20
536.151680
11
132.709814
21
536.134291
0
LINE
8
annotation
62
1
39
211
10
132.709814
20
536.134291
11
132.993604
21
536.166161
0
LINE
8
annotation
62
1
39
211
10
132.993604
20
536.166161
11
133.267191
21
536.245414
0
LINE
8
annotation
62
1
39
211
10
133.267191
20
536.245414
11
133.524170
21
536.370173
0
LINE
8
annotation
62
1
39
211
10
133.524170
20
536.370173
11
133.758136
21
536.538561
0
LINE
8
annotation
62
1
39
211
10
133.758136
20
536.538561
11
133.962683
21
536.748699
0
LINE
8
annotation
62
1
39
211
10
133.962683
20
536.748699
11
134.131406
21
536.998711
0
LINE
8
annotation
62
1
39
211
10
134.131406
20
536.998711
11
134.131406
21
536.998711
0
LINE
8
annotation
62
1
39
211
10
134.131406
20
536.998711
11
134.252380
21
537.273478
0
LINE
8
annotation
62
1
39
211
10
134.252380
20
537.273478
11
134.320674
21
537.557585
0
LINE
8
annotation
62
1
39
211
10
134.320674
20
537.557585
11
134.338093
21
537.844575
0
LINE
8
annotation
62
1
39
211
10
134.338093
20
537.844575
11
134.306444
21
538.127995
0
LINE
8
annotation
62
1
39
211
10
134.306444
20
538.127995
11
134.227531
21
538.401390
0
LINE
8
annotation
62
1
39
211
10
134.227531
20
538.401390
11
134.103162
21
538.658306
0
LINE
8
annotation
62
1
39
211
10
134.103162
20
538.658306
11
133.935142
21
538.892287
0
LINE
8
annotation
62
1
39
211
10
133.935142
20
538.892287
11
133.725276
21
539.096880
0
LINE
8
annotation
62
1
39
211
10
133.725276
20
539.096880
11
133.475371
21
539.265629
0
LINE
8
annotation
62
1
39
211
10
133.475371
20
539.265629
11
132.013432
21
540.072673
0
LINE
8
annotation
62
1
39
211
10
126.757616
20
595.147755
11
123.170369
21
597.284628
0
LINE
8
annotation
62
1
39
211
10
123.170369
20
597.284628
11
127.595925
21
601.455564
0
LINE
8
annotation
62
1
39
211
10
124.826763
20
594.352009
11
126.535972
21
597.221321
0
LINE
8
annotation
62
1
39
211
10
117.266726
20
661.575246
11
118.648188
21
660.637085
0
LINE
8
annotation
62
1
39
211
10
118.648188
20
660.637085
11
118.648188
21
660.637085
0
LINE
8
annotation
62
1
39
211
10
118.648188
20
660.637085
11
118.911273
21
660.490996
0
LINE
8
annotation
62
1
39
211
10
118.911273
20
660.490996
11
119.188439
21
660.396683
0
LINE
8
annotation
62
1
39
211
10
119.188439
20
660.396683
11
119.473089
21
660.352902
0
LINE
8
annotation
62
1
39
211
10
119.473089
20
660.352902
11
119.758630
21
660.358415
0
LINE
8
annotation
62
1
39
211
10
119.758630
20
660.358415
11
120.038466
21
660.411980
0
LINE
8
annotation
62
1
39
211
10
120.038466
20
660.411980
11
120.306004
21
660.512357
0
LINE
8
annotation
62
1
39
211
10
120.306004
20
660.512357
11
120.554647
21
660.658304
0
LINE
8
annotation
62
1
39
211
10
120.554647
20
660.658304
11
120.777801
21
660.848581
0
LINE
8
annotation
62
1
39
211
10
120.777801
20
660.848581
11
120.968872
21
661.081947
0
LINE
8
annotation
62
1
39
211
10
120.968872
20
661.081947
11
121.436231
21
661.770142
0
LINE
8
annotation
62
1
39
211
10
121.436231
20
661.770142
11
121.436231
21
661.770142
0
LINE
8
annotation
62
1
39
211
10
121.436231
20
661.770142
11
121.582625
21
662.033673
0
LINE
8
annotation
62
1
39
211
10
121.582625
20
662.033673
11
121.677017
21
662.310922
0
LINE
8
annotation
62
1
39
211
10
121.677017
20
662.310922
11
121.720716
21
662.595365
0
LINE
8
annotation
62
1
39
211
10
121.720716
20
662.595365
11
121.715030
21
662.880480
0
LINE
8
annotation
62
1
39
211
10
121.715030
20
662.880480
11
121.661267
21
663.159744
0
LINE
8
annotation
62
1
39
211
10
121.661267
20
663.159744
11
121.560734
21
663.426632
0
LINE
8
annotation
62
1
39
211
10
121.560734
20
663.426632
11
121.414741
21
663.674622
0
LINE
8
annotation
62
1
39
211
10
121.414741
20
663.674622
11
121.224595
21
663.897191
0
LINE
8
annotation
62
1
39
211
10
121.224595
20
663.897191
11
120.991604
21
664.087816
0
LINE
8
annotation
62
1
39
211
10
120.991604
20
664.087816
11
119.610142
21
665.025977
0
LINE
8
annotation
62
1
39
211
10
119.610142
20
665.025977
11
121.491498
21
667.796315
0
LINE
8
annotation
62
1
39
211
10
121.491498
20
667.796315
11
124.254424
21
665.919992
0
LINE
8
annotation
62
1
39
211
10
130.602096
20
731.369264
11
130.602096
21
731.369264
0
LINE
8
annotation
62
1
39
211
10
130.602096
20
731.369264
11
130.118386
21
731.533733
0
LINE
8
annotation
62
1
39
211
10
130.118386
20
731.533733
11
129.625663
21
731.625032
0
LINE
8
annotation
62
1
39
211
10
129.625663
20
731.625032
11
129.131250
21
731.644990
0
LINE
8
annotation
62
1
39
211
10
129.131250
20
731.644990
11
128.642471
21
731.595432
0
LINE
8
annotation
62
1
39
211
10
128.642471
20
731.595432
11
128.166648
21
731.478187
0
LINE
8
annotation
62
1
39
211
10
128.166648
20
731.478187
11
127.711106
21
731.295081
0
LINE
8
annotation
62
1
39
211
10
127.711106
20
731.295081
11
127.283167
21
731.047943
0
LINE
8
annotation
62
1
39
211
10
127.283167
20
731.047943
11
126.890155
21
730.738599
0
LINE
8
annotation
62
1
39
211
10
126.890155
20
730.738599
11
126.539394
21
730.368877
0
LINE
8
annotation
62
1
39
211
10
126.539394
20
730.368877
11
124.955225
21
728.435592
0
LINE
8
annotation
62
1
39
211
10
124.955225
20
728.435592
11
124.955225
21
728.435592
0
LINE
8
annotation
62
1
39
211
10
124.955225
20
728.435592
11
124.785681
21
728.186147
0
LINE
8
annotation
62
1
39
211
10
124.785681
20
728.186147
11
124.666560
21
727.918167
0
LINE
8
annotation
62
1
39
211
10
124.666560
20
727.918167
11
124.597181
21
727.638327
0
LINE
8
annotation
62
1
39
211
10
124.597181
20
727.638327
11
124.576860
21
727.353303
0
LINE
8
annotation
62
1
39
211
10
124.576860
20
727.353303
11
124.604917
21
727.069771
0
LINE
8
annotation
62
1
39
211
10
124.604917
20
727.069771
11
124.680669
21
726.794406
0
LINE
8
annotation
62
1
39
211
10
124.680669
20
726.794406
11
124.803434
21
726.533885
0
LINE
8
annotation
62
1
39
211
10
124.803434
20
726.533885
11
124.972531
21
726.294884
0
LINE
8
annotation
62
1
39
211
10
124.972531
20
726.294884
11
125.187278
21
726.084077
0
LINE
8
annotation
62
1
39
211
10
125.187278
20
726.084077
11
125.187278
21
726.084077
0
LINE
8
annotation
62
1
39
211
10
125.187278
20
726.084077
11
125.436664
21
725.914564
0
LINE
8
annotation
62
1
39
211
10
125.436664
20
725.914564
11
125.704497
21
725.795537
0
LINE
8
annotation
62
1
39
211
10
125.704497
20
725.795537
11
125.984143
21
725.726316
0
LINE
8
annotation
62
1
39
211
10
125.984143
20
725.726316
11
126.268965
21
725.706219
0
LINE
8
annotation
62
1
39
211
10
126.268965
20
725.706219
11
126.552330
21
725.734566
0
LINE
8
annotation
62
1
39
211
10
126.552330
20
725.734566
11
126.827604
21
725.810677
0
LINE
8
annotation
62
1
39
211
10
126.827604
20
725.810677
11
127.088152
21
725.933870
0
LINE
8
annotation
62
1
39
211
10
127.088152
20
725.933870
11
127.327338
21
726.103466
0
LINE
8
annotation
62
1
39
211
10
127.327338
20
726.103466
11
127.538530
21
726.318784
0
LINE
8
annotation
62
1
39
211
10
127.538530
20
726.318784
11
128.065789
21
726.962239
0
LINE
8
annotation
62
1
39
211
10
128.065789
20
726.962239
11
128.065789
21
726.962239
0
LINE
8
annotation
62
1
39
211
10
128.065789
20
726.962239
11
128.235300
21
727.211523
0
LINE
8
annotation
62
1
39
211
10
128.235300
20
727.211523
11
128.354324
21
727.479078
0
LINE
8
annotation
62
1
39
211
10
128.354324
20
727.479078
11
128.423541
21
727.758322
0
LINE
8
annotation
62
1
39
211
10
128.423541
20
727.758322
11
128.443632
21
728.042668
0
LINE
8
annotation
62
1
39
211
10
128.443632
20
728.042668
11
128.415279
21
728.325532
0
LINE
8
annotation
62
1
39
211
10
128.415279
20
728.325532
11
128.339163
21
728.600330
0
LINE
8
annotation
62
1
39
211
10
128.339163
20
728.600330
11
128.215965
21
728.860475
0
LINE
8
annotation
62
1
39
211
10
128.215965
20
728.860475
11
128.046365
21
729.099384
0
LINE
8
annotation
62
1
39
211
10
128.046365
20
729.099384
11
127.831046
21
729.310472
0
LINE
8
annotation
62
1
39
211
10
127.831046
20
729.310472
11
126.539394
21
730.368877
0
LINE
8
annotation
62
1
39
211
10
123.138067
20
726.547964
11
126.046383
21
724.164836
0
LINE
8
annotation
62
1
39
211
10
136.135439
20
802.112536
11
142.748260
21
806.064230
0
LINE
8
annotation
62
1
39
211
10
142.748260
20
806.064230
11
140.450792
21
808.494118
0
LINE
8
annotation
62
1
39
211
10
140.314945
20
803.763523
11
139.166374
21
804.978295
0
LINE
8
annotation
62
1
39
211
10
62.827284
20
707.844007
11
47.262257
21
707.844007
0
LINE
8
annotation
62
1
39
211
10
47.262257
20
707.844007
11
62.827284
21
735.876526
0
LINE
8
annotation
62
1
39
211
10
62.827284
20
735.876526
11
47.262257
21
735.876526
0
LINE
8
annotation
62
1
39
211
10
88.669818
20
721.860267
11
73.342116
21
721.860267
0
LINE
8
annotation
62
1
39
211
10
108.529994
20
735.876526
11
108.529994
21
735.876526
0
LINE
8
annotation
62
1
39
211
10
108.529994
20
735.876526
11
106.746701
21
735.207899
0
LINE
8
annotation
62
1
39
211
10
106.746701
20
735.207899
11
105.110296
21
734.307003
0
LINE
8
annotation
62
1
39
211
10
105.110296
20
734.307003
11
103.637576
21
733.196410
0
LINE
8
annotation
62
1
39
211
10
103.637576
20
733.196410
11
102.345341
21
731.898691
0
LINE
8
annotation
62
1
39
211
10
102.345341
20
731.898691
11
101.250389
21
730.436418
0
LINE
8
annotation
62
1
39
211
10
101.250389
20
730.436418
11
100.369518
21
728.832163
0
LINE
8
annotation
62
1
39
211
10
100.369518
20
728.832163
11
99.719527
21
727.108496
0
LINE
8
annotation
62
1
39
211
10
99.719527
20
727.108496
11
99.317213
21
725.287988
0
LINE
8
annotation
62
1
39
211
10
99.317213
20
725.287988
11
99.179375
21
723.393212
0
LINE
8
annotation
62
1
39
211
10
99.179375
20
723.393212
11
99.179375
21
714.075995
0
LINE
8
annotation
62
1
39
211
10
99.179375
20
714.075995
11
99.179375
21
714.075995
0
LINE
8
annotation
62
1
39
211
10
99.179375
20
714.075995
11
99.279878
21
712.956180
0
LINE
8
annotation
62
1
39
211
10
99.279878
20
712.956180
11
99.569562
21
711.902055
0
LINE
8
annotation
62
1
39
211
10
99.569562
20
711.902055
11
100.030687
21
710.931255
0
LINE
8
annotation
62
1
39
211
10
100.030687
20
710.931255
11
100.645514
21
710.061419
0
LINE
8
annotation
62
1
39
211
10
100.645514
20
710.061419
11
101.396305
21
709.310184
0
LINE
8
annotation
62
1
39
211
10
101.396305
20
709.310184
11
102.265321
21
708.695188
0
LINE
8
annotation
62
1
39
211
10
102.265321
20
708.695188
11
103.234824
21
708.234068
0
LINE
8
annotation
62
1
39
211
10
103.234824
20
708.234068
11
104.287073
21
707.944462
0
LINE
8
annotation
62
1
39
211
10
104.287073
20
707.944462
11
105.404332
21
707.844007
0
LINE
8
annotation
62
1
39
211
10
105.404332
20
707.844007
11
105.404332
21
707.844007
0
LINE
8
annotation
62
1
39
211
10
105.404332
20
707.844007
11
106.523905
21
707.944462
0
LINE
8
annotation
62
1
39
211
10
106.523905
20
707.944462
11
107.577384
21
708.234068
0
LINE
8
annotation
62
1
39
211
10
107.577384
20
708.234068
11
108.547248
21
708.695188
0
LINE
8
annotation
62
1
39
211
10
108.547248
20
708.695188
11
109.415975
21
709.310184
0
LINE
8
annotation
62
1
39
211
10
109.415975
20
709.310184
11
110.166043
21
710.061419
0
LINE
8
annotation
62
1
39
211
10
110.166043
20
710.061419
11
110.779930
21
710.931255
0
LINE
8
annotation
62
1
39
211
10
110.779930
20
710.931255
11
111.240114
21
711.902055
0
LINE
8
annotation
62
1
39
211
10
111.240114
20
711.902055
11
111.529074
21
712.956180
0
LINE
8
annotation
62
1
39
211
10
111.529074
20
712.956180
11
111.629288
21
714.075995
0
LINE
8
annotation
62
1
39
211
10
111.629288
20
714.075995
11
111.629288
21
717.177046
0
LINE
8
annotation
62
1
39
211
10
111.629288
20
717.177046
11
111.629288
21
717.177046
0
LINE
8
annotation
62
1
39
211
10
111.629288
20
717.177046
11
111.529074
21
718.296318
0
LINE
8
annotation
62
1
39
211
10
111.529074
20
718.296318
11
111.240114
21
719.348990
0
LINE
8
annotation
62
1
39
211
10
111.240114
20
719.348990
11
110.779930
21
720.317684
0
LINE
8
annotation
62
1
39
211
10
110.779930
20
720.317684
11
110.166043
21
721.185024
0
LINE
8
annotation
62
1
39
211
10
110.166043
20
721.185024
11
109.415975
21
721.933633
0
LINE
8
annotation
62
1
39
211
10
109.415975
20
721.933633
11
108.547248
21
722.546134
0
LINE
8
annotation
62
1
39
211
10
108.547248
20
722.546134
11
107.577384
21
723.005148
0
LINE
8
annotation
62
1
39
211
10
107.577384
20
723.005148
11
106.523905
21
723.293300
0
LINE
8
annotation
62
1
39
211
10
106.523905
20
723.293300
11
105.404332
21
723.393212
0
LINE
8
annotation
62
1
39
211
10
105.404332
20
723.393212
11
99.179375
21
723.393212
0
LINE
8
annotation
62
1
39
211
10
98.399718
20
704.339942
11
112.415977
21
704.339942
0
LINE
8
boundary
62
5
39
2
10
388.502684
20
507.668876
11
388.932747
21
507.354196
0
LINE
8
boundary
62
5
39
2
10
388.932747
20
507.354196
11
389.544857
21
506.865211
0
LINE
8
boundary
62
5
39
2
10
389.544857
20
506.865211
11
395.649440
21
502.738904
0
LINE
8
boundary
62
5
39
2
10
395.649440
20
502.738904
11
397.297611
21
501.620940
0
LINE
8
boundary
62
5
39
2
10
397.297611
20
501.620940
11
400.308499
21
499.833472
0
LINE
8
boundary
62
5
39
2
10
400.308499
20
499.833472
11
400.879998
21
499.496799
0
LINE
8
boundary
62
5
39
2
10
400.879998
20
499.496799
11
401.874070
21
499.044709
0
LINE
8
boundary
62
5
39
2
10
401.874070
20
499.044709
11
402.716872
21
498.567814
0
LINE
8
boundary
62
5
39
2
10
402.716872
20
498.567814
11
407.138441
21
496.589840
0
LINE
8
boundary
62
5
39
2
10
407.138441
20
496.589840
11
410.070869
21
494.802887
0
LINE
8
boundary
62
5
39
2
10
410.070869
20
494.802887
11
411.322885
21
494.205358
0
LINE
8
boundary
62
5
39
2
10
411.322885
20
494.205358
11
411.917162
21
493.854322
0
LINE
8
boundary
62
5
39
2
10
411.917162
20
493.854322
11
413.566888
21
493.095093
0
LINE
8
boundary
62
5
39
2
10
413.566888
20
493.095093
11
414.099844
21
492.841800
0
LINE
8
boundary
62
5
39
2
10
414.099844
20
492.841800
11
417.685847
21
491.432353
0
LINE
8
boundary
62
5
39
2
10
417.685847
20
491.432353
11
422.486768
21
489.412440
0
LINE
8
boundary
62
5
39
2
10
422.486768
20
489.412440
11
425.577371
21
488.520437
0
LINE
8
boundary
62
5
39
2
10
425.577371
20
488.520437
11
426.610117
21
488.209933
0
LINE
8
boundary
62
5
39
2
10
426.610117
20
488.209933
11
428.626618
21
487.574411
0
LINE
8
boundary
62
5
39
2
10
428.626618
20
487.574411
11
430.687408
21
486.903529
0
LINE
8
boundary
62
5
39
2
10
430.687408
20
486.903529
11
431.674791
21
486.669785
0
LINE
8
boundary
62
5
39
2
10
431.674791
20
486.669785
11
433.791052
21
486.248965
0
LINE
8
boundary
62
5
39
2
10
433.791052
20
486.248965
11
438.794136
21
485.191994
0
LINE
8
boundary
62
5
39
2
10
438.794136
20
485.191994
11
442.405302
21
484.942600
0
LINE
8
boundary
62
5
39
2
10
442.405302
20
484.942600
11
443.872788
21
484.730205
0
LINE
8
boundary
62
5
39
2
10
443.872788
20
484.730205
11
444.587479
21
484.698533
0
LINE
8
boundary
62
5
39
2
10
444.587479
20
484.698533
11
446.443159
21
484.625337
0
LINE
8
boundary
62
5
39
2
10
446.443159
20
484.625337
11
447.589915
21
484.724932
0
LINE
8
boundary
62
5
39
2
10
447.589915
20
484.724932
11
451.537638
21
485.095198
0
LINE
8
boundary
62
5
39
2
10
451.537638
20
485.095198
11
453.666218
21
485.285022
0
LINE
8
boundary
62
5
39
2
10
453.666218
20
485.285022
11
458.406489
21
486.473201
0
LINE
8
boundary
62
5
39
2
10
458.406489
20
486.473201
11
460.336637
21
486.990939
0
LINE
8
boundary
62
5
39
2
10
460.336637
20
486.990939
11
461.363338
21
487.496988
0
LINE
8
boundary
62
5
39
2
10
461.363338
20
487.496988
11
466.487098
21
490.776230
0
LINE
8
boundary
62
5
39
2
10
466.487098
20
490.776230
11
466.350910
21
491.653710
0
LINE
8
boundary
62
5
39
2
10
466.350910
20
491.653710
11
408.442632
21
523.256970
0
LINE
8
boundary
62
5
39
2
10
408.442632
20
523.256970
11
410.572488
21
527.159614
0
LINE
8
boundary
62
5
39
2
10
410.572488
20
527.159614
11
471.099654
21
494.127104
0
LINE
8
boundary
62
5
39
2
10
471.099654
20
494.127104
11
471.911302
21
494.487305
0
LINE
8
boundary
62
5
39
2
10
471.911302
20
494.487305
11
474.719300
21
497.847788
0
LINE
8
boundary
62
5
39
2
10
474.719300
20
497.847788
11
476.204802
21
499.971813
0
LINE
8
boundary
62
5
39
2
10
476.204802
20
499.971813
11
477.966256
21
503.142506
0
LINE
8
boundary
62
5
39
2
10
477.966256
20
503.142506
11
478.283892
21
503.781277
0
LINE
8
boundary
62
5
39
2
10
478.283892
20
503.781277
11
478.692035
21
504.730181
0
LINE
8
boundary
62
5
39
2
10
478.692035
20
504.730181
11
479.792622
21
507.280300
0
LINE
8
boundary
62
5
39
2
10
479.792622
20
507.280300
11
480.133070
21
508.304582
0
LINE
8
boundary
62
5
39
2
10
480.133070
20
508.304582
11
480.514538
21
509.401414
0
LINE
8
boundary
62
5
39
2
10
480.514538
20
509.401414
11
480.740840
21
510.502052
0
LINE
8
boundary
62
5
39
2
10
480.740840
20
510.502052
11
482.452785
21
516.262628
0
LINE
8
boundary
62
5
39
2
10
482.452785
20
516.262628
11
482.808457
21
519.211146
0
LINE
8
boundary
62
5
39
2
10
482.808457
20
519.211146
11
483.269911
21
521.300774
0
LINE
8
boundary
62
5
39
2
10
483.269911
20
521.300774
11
484.241359
21
526.660425
0
LINE
8
boundary
62
5
39
2
10
484.241359
20
526.660425
11
484.360042
21
527.606573
0
LINE
8
boundary
62
5
39
2
10
484.360042
20
527.606573
11
485.496836
21
534.894480
0
LINE
8
boundary
62
5
39
2
10
485.496836
20
534.894480
11
485.796305
21
536.666307
0
LINE
8
boundary
62
5
39
2
10
485.796305
20
536.666307
11
485.909496
21
537.272659
0
LINE
8
boundary
62
5
39
2
10
485.909496
20
537.272659
11
486.014267
21
537.889172
0
LINE
8
boundary
62
5
39
2
10
486.014267
20
537.889172
11
485.882323
21
538.767298
0
LINE
8
boundary
62
5
39
2
10
485.882323
20
538.767298
11
404.722689
21
583.570356
0
LINE
8
boundary
62
5
39
2
10
404.722689
20
583.570356
11
406.871382
21
587.462660
0
LINE
8
boundary
62
5
39
2
10
406.871382
20
587.462660
11
486.279433
21
543.626540
0
LINE
8
boundary
62
5
39
2
10
486.279433
20
543.626540
11
487.092813
21
543.982814
0
LINE
8
boundary
62
5
39
2
10
487.092813
20
543.982814
11
487.492437
21
546.145065
0
LINE
8
boundary
62
5
39
2
10
487.492437
20
546.145065
11
487.797649
21
547.447743
0
LINE
8
boundary
62
5
39
2
10
487.797649
20
547.447743
11
488.473738
21
550.225265
0
LINE
8
boundary
62
5
39
2
10
488.473738
20
550.225265
11
488.962039
21
552.234200
0
LINE
8
boundary
62
5
39
2
10
488.962039
20
552.234200
11
489.445295
21
554.138077
0
LINE
8
boundary
62
5
39
2
10
489.445295
20
554.138077
11
489.838178
21
555.562622
0
LINE
8
boundary
62
5
39
2
10
489.838178
20
555.562622
11
490.245628
21
556.854848
0
LINE
8
boundary
62
5
39
2
10
490.245628
20
556.854848
11
491.212084
21
560.069109
0
LINE
8
boundary
62
5
39
2
10
491.212084
20
560.069109
11
492.655484
21
564.681516
0
LINE
8
boundary
62
5
39
2
10
492.655484
20
564.681516
11
492.911908
21
565.479751
0
LINE
8
boundary
62
5
39
2
10
492.911908
20
565.479751
11
494.436909
21
570.267898
0
LINE
8
boundary
62
5
39
2
10
494.436909
20
570.267898
11
494.690498
21
571.106260
0
LINE
8
boundary
62
5
39
2
10
494.690498
20
571.106260
11
495.756758
21
574.770932
0
LINE
8
boundary
62
5
39
2
10
495.756758
20
574.770932
11
497.738104
21
582.759439
0
LINE
8
boundary
62
5
39
2
10
497.738104
20
582.759439
11
497.650918
21
583.709794
0
LINE
8
boundary
62
5
39
2
10
497.650918
20
583.709794
11
403.447750
21
639.825312
0
LINE
8
boundary
62
5
39
2
10
403.447750
20
639.825312
11
405.723071
21
643.644976
0
LINE
8
boundary
62
5
39
2
10
405.723071
20
643.644976
11
498.103137
21
588.615454
0
LINE
8
boundary
62
5
39
2
10
498.103137
20
588.615454
11
498.927775
21
588.944832
0
LINE
8
boundary
62
5
39
2
10
498.927775
20
588.944832
11
499.791572
21
593.727875
0
LINE
8
boundary
62
5
39
2
10
499.791572
20
593.727875
11
499.935235
21
594.896957
0
LINE
8
boundary
62
5
39
2
10
499.935235
20
594.896957
11
500.112984
21
596.057518
0
LINE
8
boundary
62
5
39
2
10
500.112984
20
596.057518
11
500.402425
21
598.151053
0
LINE
8
boundary
62
5
39
2
10
500.402425
20
598.151053
11
500.771085
21
601.062322
0
LINE
8
boundary
62
5
39
2
10
500.771085
20
601.062322
11
501.068227
21
603.550775
0
LINE
8
boundary
62
5
39
2
10
501.068227
20
603.550775
11
501.182404
21
604.822953
0
LINE
8
boundary
62
5
39
2
10
501.182404
20
604.822953
11
501.891855
21
613.393217
0
LINE
8
boundary
62
5
39
2
10
501.891855
20
613.393217
11
502.041177
21
615.699253
0
LINE
8
boundary
62
5
39
2
10
502.041177
20
615.699253
11
502.166910
21
620.688876
0
LINE
8
boundary
62
5
39
2
10
502.166910
20
620.688876
11
502.204804
21
623.147339
0
LINE
8
boundary
62
5
39
2
10
502.204804
20
623.147339
11
502.255566
21
627.581753
0
LINE
8
boundary
62
5
39
2
10
502.255566
20
627.581753
11
502.204996
21
628.468296
0
LINE
8
boundary
62
5
39
2
10
502.204996
20
628.468296
11
380.286056
21
711.264326
0
LINE
8
boundary
62
5
39
2
10
380.286056
20
711.264326
11
382.783840
21
714.942367
0
LINE
8
boundary
62
5
39
2
10
382.783840
20
714.942367
11
501.457785
21
634.350036
0
LINE
8
boundary
62
5
39
2
10
501.457785
20
634.350036
11
502.300501
21
634.629943
0
LINE
8
boundary
62
5
39
2
10
502.300501
20
634.629943
11
502.254136
21
636.083656
0
LINE
8
boundary
62
5
39
2
10
502.254136
20
636.083656
11
502.037117
21
641.864471
0
LINE
8
boundary
62
5
39
2
10
502.037117
20
641.864471
11
501.993751
21
642.438189
0
LINE
8
boundary
62
5
39
2
10
501.993751
20
642.438189
11
501.444803
21
650.196989
0
LINE
8
boundary
62
5
39
2
10
501.444803
20
650.196989
11
501.394027
21
650.839015
0
LINE
8
boundary
62
5
39
2
10
501.394027
20
650.839015
11
501.235296
21
652.764235
0
LINE
8
boundary
62
5
39
2
10
501.235296
20
652.764235
11
500.752975
21
657.392709
0
LINE
8
boundary
62
5
39
2
10
500.752975
20
657.392709
11
500.505975
21
659.560614
0
LINE
8
boundary
62
5
39
2
10
500.505975
20
659.560614
11
500.381174
21
660.335078
0
LINE
8
boundary
62
5
39
2
10
500.381174
20
660.335078
11
499.086896
21
667.358577
0
LINE
8
boundary
62
5
39
2
10
499.086896
20
667.358577
11
498.926979
21
668.193796
0
LINE
8
boundary
62
5
39
2
10
498.926979
20
668.193796
11
498.356409
21
670.677402
0
LINE
8
boundary
62
5
39
2
10
498.356409
20
670.677402
11
497.208101
21
674.406464
0
LINE
8
boundary
62
5
39
2
10
497.208101
20
674.406464
11
496.441461
21
676.745722
0
LINE
8
boundary
62
5
39
2
10
496.441461
20
676.745722
11
496.032704
21
677.803877
0
LINE
8
boundary
62
5
39
2
10
496.032704
20
677.803877
11
495.312272
21
679.481229
0
LINE
8
boundary
62
5
39
2
10
495.312272
20
679.481229
11
387.438680
21
767.874854
0
LINE
8
boundary
62
5
39
2
10
387.438680
20
767.874854
11
390.256602
21
771.313783
0
LINE
8
boundary
62
5
39
2
10
390.256602
20
771.313783
11
489.360068
21
690.106561
0
LINE
8
boundary
62
5
39
2
10
489.360068
20
690.106561
11
490.224511
21
690.309676
0
LINE
8
boundary
62
5
39
2
10
490.224511
20
690.309676
11
489.872447
21
690.981063
0
LINE
8
boundary
62
5
39
2
10
489.872447
20
690.981063
11
488.680449
21
693.221850
0
LINE
8
boundary
62
5
39
2
10
488.680449
20
693.221850
11
488.442259
21
693.694947
0
LINE
8
boundary
62
5
39
2
10
488.442259
20
693.694947
11
484.798949
21
699.948494
0
LINE
8
boundary
62
5
39
2
10
484.798949
20
699.948494
11
484.438111
21
700.562689
0
LINE
8
boundary
62
5
39
2
10
484.438111
20
700.562689
11
483.541821
21
702.124103
0
LINE
8
boundary
62
5
39
2
10
483.541821
20
702.124103
11
482.942258
21
703.121583
0
LINE
8
boundary
62
5
39
2
10
482.942258
20
703.121583
11
479.346590
21
708.946863
0
LINE
8
boundary
62
5
39
2
10
479.346590
20
708.946863
11
478.409766
21
710.478414
0
LINE
8
boundary
62
5
39
2
10
478.409766
20
710.478414
11
476.799754
21
713.025983
0
LINE
8
boundary
62
5
39
2
10
476.799754
20
713.025983
11
476.361228
21
713.731999
0
LINE
8
boundary
62
5
39
2
10
476.361228
20
713.731999
11
475.186577
21
715.556342
0
LINE
8
boundary
62
5
39
2
10
475.186577
20
715.556342
11
472.610035
21
719.336466
0
LINE
8
boundary
62
5
39
2
10
472.610035
20
719.336466
11
470.615133
21
722.746829
0
LINE
8
boundary
62
5
39
2
10
470.615133
20
722.746829
11
469.912916
21
723.808854
0
LINE
8
boundary
62
5
39
2
10
469.912916
20
723.808854
11
469.496558
21
724.520869
0
LINE
8
boundary
62
5
39
2
10
469.496558
20
724.520869
11
468.718593
21
725.723154
0
LINE
8
boundary
62
5
39
2
10
468.718593
20
725.723154
11
467.896404
21
727.068385
0
LINE
8
boundary
62
5
39
2
10
467.896404
20
727.068385
11
466.054449
21
729.874564
0
LINE
8
boundary
62
5
39
2
10
466.054449
20
729.874564
11
462.577548
21
735.410504
0
LINE
8
boundary
62
5
39
2
10
462.577548
20
735.410504
11
461.456582
21
736.942514
0
LINE
8
boundary
62
5
39
2
10
461.456582
20
736.942514
11
460.652031
21
738.075327
0
LINE
8
boundary
62
5
39
2
10
460.652031
20
738.075327
11
456.872795
21
743.672384
0
LINE
8
boundary
62
5
39
2
10
456.872795
20
743.672384
11
455.952638
21
744.878954
0
LINE
8
boundary
62
5
39
2
10
455.952638
20
744.878954
11
452.335852
21
749.750510
0
LINE
8
boundary
62
5
39
2
10
452.335852
20
749.750510
11
451.881653
21
750.298050
0
LINE
8
boundary
62
5
39
2
10
451.881653
20
750.298050
11
450.601670
21
752.082078
0
LINE
8
boundary
62
5
39
2
10
450.601670
20
752.082078
11
446.303477
21
757.236489
0
LINE
8
boundary
62
5
39
2
10
446.303477
20
757.236489
11
445.612118
21
758.152363
0
LINE
8
boundary
62
5
39
2
10
445.612118
20
758.152363
11
444.969877
21
758.892584
0
LINE
8
boundary
62
5
39
2
10
444.969877
20
758.892584
11
443.724330
21
760.424129
0
LINE
8
boundary
62
5
39
2
10
443.724330
20
760.424129
11
441.897106
21
762.590871
0
LINE
8
boundary
62
5
39
2
10
441.897106
20
762.590871
11
440.787106
21
763.724407
0
LINE
8
boundary
62
5
39
2
10
440.787106
20
763.724407
11
438.986443
21
765.821340
0
LINE
8
boundary
62
5
39
2
10
438.986443
20
765.821340
11
437.688719
21
767.379121
0
LINE
8
boundary
62
5
39
2
10
437.688719
20
767.379121
11
435.374573
21
770.500031
0
LINE
8
boundary
62
5
39
2
10
435.374573
20
770.500031
11
434.721396
21
771.219684
0
LINE
8
boundary
62
5
39
2
10
434.721396
20
771.219684
11
432.402720
21
773.936019
0
LINE
8
boundary
62
5
39
2
10
432.402720
20
773.936019
11
429.649703
21
777.184032
0
LINE
8
boundary
62
5
39
2
10
429.649703
20
777.184032
11
428.548219
21
778.514278
0
LINE
8
boundary
62
5
39
2
10
428.548219
20
778.514278
11
425.689586
21
781.692328
0
LINE
8
boundary
62
5
39
2
10
425.689586
20
781.692328
11
423.722395
21
783.881654
0
LINE
8
boundary
62
5
39
2
10
423.722395
20
783.881654
11
419.997493
21
787.943490
0
LINE
8
boundary
62
5
39
2
10
419.997493
20
787.943490
11
417.489242
21
790.473215
0
LINE
8
boundary
62
5
39
2
10
417.489242
20
790.473215
11
416.918702
21
791.030977
0
LINE
8
boundary
62
5
39
2
10
416.918702
20
791.030977
11
416.009446
21
791.903840
0
LINE
8
boundary
62
5
39
2
10
416.009446
20
791.903840
11
410.961922
21
796.635796
0
LINE
8
boundary
62
5
39
2
10
410.961922
20
796.635796
11
410.384227
21
797.115635
0
LINE
8
boundary
62
5
39
2
10
410.384227
20
797.115635
11
405.062491
21
801.516544
0
LINE
8
boundary
62
5
39
2
10
405.062491
20
801.516544
11
403.718257
21
802.639468
0
LINE
8
boundary
62
5
39
2
10
403.718257
20
802.639468
11
401.371697
21
804.579299
0
LINE
8
boundary
62
5
39
2
10
401.371697
20
804.579299
11
396.354190
21
808.358259
0
LINE
8
boundary
62
5
39
2
10
396.354190
20
808.358259
11
393.321152
21
810.627110
0
LINE
8
boundary
62
5
39
2
10
393.321152
20
810.627110
11
391.226523
21
812.222310
0
LINE
8
boundary
62
5
39
2
10
391.226523
20
812.222310
11
388.748436
21
813.963617
0
LINE
8
boundary
62
5
39
2
10
388.748436
20
813.963617
11
387.777880
21
814.550344
0
LINE
8
boundary
62
5
39
2
10
387.777880
20
814.550344
11
387.275476
21
814.878089
0
LINE
8
boundary
62
5
39
2
10
387.275476
20
814.878089
11
386.623921
21
815.309006
0
LINE
8
boundary
62
5
39
2
10
386.623921
20
815.309006
11
382.830700
21
818.102010
0
LINE
8
boundary
62
5
39
2
10
382.830700
20
818.102010
11
381.335755
21
819.158964
0
LINE
8
boundary
62
5
39
2
10
381.335755
20
819.158964
11
380.867129
21
819.497390
0
LINE
8
boundary
62
5
39
2
10
380.867129
20
819.497390
11
379.794525
21
820.283651
0
LINE
8
boundary
62
5
39
2
10
379.794525
20
820.283651
11
372.691796
21
825.078537
0
LINE
8
boundary
62
5
39
2
10
372.691796
20
825.078537
11
371.314506
21
826.009230
0
LINE
8
boundary
62
5
39
2
10
371.314506
20
826.009230
11
369.344439
21
827.368524
0
LINE
8
boundary
62
5
39
2
10
369.344439
20
827.368524
11
366.267334
21
829.533006
0
LINE
8
boundary
62
5
39
2
10
366.267334
20
829.533006
11
364.659775
21
830.630175
0
LINE
8
boundary
62
5
39
2
10
364.659775
20
830.630175
11
364.196695
21
830.931779
0
LINE
8
boundary
62
5
39
2
10
364.196695
20
830.931779
11
361.461451
21
832.802134
0
LINE
8
boundary
62
5
39
2
10
361.461451
20
832.802134
11
357.284024
21
835.663366
0
LINE
8
boundary
62
5
39
2
10
357.284024
20
835.663366
11
356.164197
21
836.426957
0
LINE
8
boundary
62
5
39
2
10
356.164197
20
836.426957
11
355.330825
21
836.991588
0
LINE
8
boundary
62
5
39
2
10
355.330825
20
836.991588
11
354.683452
21
837.426928
0
LINE
8
boundary
62
5
39
2
10
354.683452
20
837.426928
11
352.883849
21
838.700375
0
LINE
8
boundary
62
5
39
2
10
352.883849
20
838.700375
11
349.703982
21
840.963885
0
LINE
8
boundary
62
5
39
2
10
349.703982
20
840.963885
11
345.226960
21
844.086870
0
LINE
8
boundary
62
5
39
2
10
345.226960
20
844.086870
11
342.801781
21
845.741264
0
LINE
8
boundary
62
5
39
2
10
342.801781
20
845.741264
11
338.938394
21
848.316423
0
LINE
8
boundary
62
5
39
2
10
338.938394
20
848.316423
11
337.575433
21
849.285436
0
LINE
8
boundary
62
5
39
2
10
337.575433
20
849.285436
11
335.850231
21
850.498911
0
LINE
8
boundary
62
5
39
2
10
335.850231
20
850.498911
11
333.597989
21
852.084611
0
LINE
8
boundary
62
5
39
2
10
333.597989
20
852.084611
11
332.733990
21
852.670242
0
LINE
8
boundary
62
5
39
2
10
332.733990
20
852.670242
11
329.314084
21
854.794031
0
LINE
8
boundary
62
5
39
2
10
329.314084
20
854.794031
11
324.636622
21
857.556136
0
LINE
8
boundary
62
5
39
2
10
324.636622
20
857.556136
11
322.227467
21
858.832928
0
LINE
8
boundary
62
5
39
2
10
322.227467
20
858.832928
11
321.459671
21
859.147538
0
LINE
8
boundary
62
5
39
2
10
321.459671
20
859.147538
11
320.188718
21
859.628272
0
LINE
8
boundary
62
5
39
2
10
320.188718
20
859.628272
11
313.546015
21
861.588573
0
LINE
8
boundary
62
5
39
2
10
313.546015
20
861.588573
11
311.537163
21
861.994533
0
LINE
8
boundary
62
5
39
2
10
311.537163
20
861.994533
11
306.854682
21
862.307108
0
LINE
8
boundary
62
5
39
2
10
306.854682
20
862.307108
11
300.560732
21
862.077802
0
LINE
8
boundary
62
5
39
2
10
300.560732
20
862.077802
11
297.375585
21
861.773307
0
LINE
8
boundary
62
5
39
2
10
297.375585
20
861.773307
11
296.723166
21
861.643058
0
LINE
8
boundary
62
5
39
2
10
296.723166
20
861.643058
11
291.494755
21
860.370579
0
LINE
8
boundary
62
5
39
2
10
291.494755
20
860.370579
11
286.868393
21
858.480732
0
LINE
8
boundary
62
5
39
2
10
286.868393
20
858.480732
11
286.007093
21
858.131155
0
LINE
8
boundary
62
5
39
2
10
286.007093
20
858.131155
11
285.076821
21
857.637220
0
LINE
8
boundary
62
5
39
2
10
285.076821
20
857.637220
11
280.881275
21
855.441360
0
LINE
8
boundary
62
5
39
2
10
280.881275
20
855.441360
11
277.165390
21
852.924244
0
LINE
8
boundary
62
5
39
2
10
277.165390
20
852.924244
11
275.917727
21
852.102509
0
LINE
8
boundary
62
5
39
2
10
275.917727
20
852.102509
11
275.336774
21
851.659685
0
LINE
8
boundary
62
5
39
2
10
275.336774
20
851.659685
11
274.825540
21
851.225092
0
LINE
8
boundary
62
5
39
2
10
274.825540
20
851.225092
11
271.323545
21
848.246574
0
LINE
8
boundary
62
5
39
2
10
271.323545
20
848.246574
11
267.085299
21
843.764311
0
LINE
8
boundary
62
5
39
2
10
267.085299
20
843.764311
11
263.468102
21
838.356156
0
LINE
8
boundary
62
5
39
2
10
263.468102
20
838.356156
11
262.114269
21
835.686678
0
LINE
8
boundary
62
5
39
2
10
262.114269
20
835.686678
11
260.575902
21
832.205284
0
LINE
8
boundary
62
5
39
2
10
260.575902
20
832.205284
11
259.993648
21
830.437025
0
LINE
8
boundary
62
5
39
2
10
259.993648
20
830.437025
11
259.676105
21
829.438169
0
LINE
8
boundary
62
5
39
2
10
259.676105
20
829.438169
11
259.433617
21
828.223046
0
LINE
8
boundary
62
5
39
2
10
259.433617
20
828.223046
11
259.194634
21
827.327863
0
LINE
8
boundary
62
5
39
2
10
259.194634
20
827.327863
11
258.721966
21
825.244045
0
LINE
8
boundary
62
5
39
2
10
258.721966
20
825.244045
11
257.948621
21
818.854408
0
LINE
8
boundary
62
5
39
2
10
257.948621
20
818.854408
11
257.821213
21
817.544010
0
LINE
8
boundary
62
5
39
2
10
257.821213
20
817.544010
11
257.916575
21
815.949953
0
LINE
8
boundary
62
5
39
2
10
257.916575
20
815.949953
11
257.896093
21
814.120160
0
LINE
8
boundary
62
5
39
2
10
257.896093
20
814.120160
11
257.964321
21
811.579868
0
LINE
8
boundary
62
5
39
2
10
257.964321
20
811.579868
11
258.022220
21
810.375736
0
LINE
8
boundary
62
5
39
2
10
258.022220
20
810.375736
11
258.176170
21
809.147679
0
LINE
8
boundary
62
5
39
2
10
258.176170
20
809.147679
11
259.420640
21
801.996045
0
LINE
8
boundary
62
5
39
2
10
259.420640
20
801.996045
11
259.873626
21
800.065914
0
LINE
8
boundary
62
5
39
2
10
259.873626
20
800.065914
11
260.136511
21
799.270448
0
LINE
8
boundary
62
5
39
2
10
260.136511
20
799.270448
11
261.127445
21
796.353034
0
LINE
8
boundary
62
5
39
2
10
261.127445
20
796.353034
11
261.410149
21
795.625271
0
LINE
8
boundary
62
5
39
2
10
261.410149
20
795.625271
11
262.224889
21
793.825773
0
LINE
8
boundary
62
5
39
2
10
262.224889
20
793.825773
11
264.139446
21
789.730488
0
LINE
8
boundary
62
5
39
2
10
264.139446
20
789.730488
11
266.051413
21
785.893605
0
LINE
8
boundary
62
5
39
2
10
266.051413
20
785.893605
11
266.489773
21
785.040912
0
LINE
8
boundary
62
5
39
2
10
266.489773
20
785.040912
11
267.200945
21
783.710584
0
LINE
8
boundary
62
5
39
2
10
267.200945
20
783.710584
11
268.482657
21
781.369321
0
LINE
8
boundary
62
5
39
2
10
268.482657
20
781.369321
11
269.833444
21
778.932085
0
LINE
8
boundary
62
5
39
2
10
269.833444
20
778.932085
11
270.307562
21
778.140752
0
LINE
8
boundary
62
5
39
2
10
270.307562
20
778.140752
11
271.404940
21
776.256406
0
LINE
8
boundary
62
5
39
2
10
271.404940
20
776.256406
11
274.000203
21
771.801822
0
LINE
8
boundary
62
5
39
2
10
274.000203
20
771.801822
11
274.797381
21
770.502840
0
LINE
8
boundary
62
5
39
2
10
274.797381
20
770.502840
11
277.699047
21
766.050584
0
LINE
8
boundary
62
5
39
2
10
277.699047
20
766.050584
11
279.426479
21
762.989119
0
LINE
8
boundary
62
5
39
2
10
279.426479
20
762.989119
11
281.224128
21
760.159526
0
LINE
8
boundary
62
5
39
2
10
281.224128
20
760.159526
11
282.689861
21
757.801745
0
LINE
8
boundary
62
5
39
2
10
282.689861
20
757.801745
11
284.171482
21
755.609422
0
LINE
8
boundary
62
5
39
2
10
284.171482
20
755.609422
11
288.045556
21
749.652030
0
LINE
8
boundary
62
5
39
2
10
288.045556
20
749.652030
11
288.727018
21
748.588950
0
LINE
8
boundary
62
5
39
2
10
288.727018
20
748.588950
11
292.017184
21
743.449783
0
LINE
8
boundary
62
5
39
2
10
292.017184
20
743.449783
11
292.493459
21
742.644831
0
LINE
8
boundary
62
5
39
2
10
292.493459
20
742.644831
11
293.379049
21
741.002598
0
LINE
8
boundary
62
5
39
2
10
293.379049
20
741.002598
11
294.683107
21
738.725021
0
LINE
8
boundary
62
5
39
2
10
294.683107
20
738.725021
11
296.055459
21
736.388370
0
LINE
8
boundary
62
5
39
2
10
296.055459
20
736.388370
11
297.552806
21
733.680590
0
LINE
8
boundary
62
5
39
2
10
297.552806
20
733.680590
11
299.521664
21
729.846939
0
LINE
8
boundary
62
5
39
2
10
299.521664
20
729.846939
11
300.632089
21
727.638018
0
LINE
8
boundary
62
5
39
2
10
300.632089
20
727.638018
11
301.889715
21
725.214140
0
LINE
8
boundary
62
5
39
2
10
301.889715
20
725.214140
11
302.904151
21
723.124482
0
LINE
8
boundary
62
5
39
2
10
302.904151
20
723.124482
11
303.381179
21
722.141318
0
LINE
8
boundary
62
5
39
2
10
303.381179
20
722.141318
11
304.353460
21
719.992797
0
LINE
8
boundary
62
5
39
2
10
304.353460
20
719.992797
11
304.773421
21
718.957633
0
LINE
8
boundary
62
5
39
2
10
304.773421
20
718.957633
11
305.916828
21
715.825136
0
LINE
8
boundary
62
5
39
2
10
305.916828
20
715.825136
11
307.765362
21
711.563651
0
LINE
8
boundary
62
5
39
2
10
307.765362
20
711.563651
11
308.897379
21
708.408060
0
LINE
8
boundary
62
5
39
2
10
308.897379
20
708.408060
11
309.255171
21
707.387072
0
LINE
8
boundary
62
5
39
2
10
309.255171
20
707.387072
11
309.744039
21
705.472839
0
LINE
8
boundary
62
5
39
2
10
309.744039
20
705.472839
11
310.075430
21
704.120415
0
LINE
8
boundary
62
5
39
2
10
310.075430
20
704.120415
11
310.917214
21
700.685517
0
LINE
8
boundary
62
5
39
2
10
310.917214
20
700.685517
11
311.647624
21
696.630259
0
LINE
8
boundary
62
5
39
2
10
311.647624
20
696.630259
11
311.960465
21
694.978410
0
LINE
8
boundary
62
5
39
2
10
311.960465
20
694.978410
11
312.085466
21
694.275483
0
LINE
8
boundary
62
5
39
2
10
312.085466
20
694.275483
11
312.504930
21
690.767268
0
LINE
8
boundary
62
5
39
2
10
312.504930
20
690.767268
11
312.679477
21
689.140227
0
LINE
8
boundary
62
5
39
2
10
312.679477
20
689.140227
11
313.314857
21
683.529881
0
LINE
8
boundary
62
5
39
2
10
313.314857
20
683.529881
11
313.472695
21
682.025730
0
LINE
8
boundary
62
5
39
2
10
313.472695
20
682.025730
11
314.355175
21
674.856161
0
LINE
8
boundary
62
5
39
2
10
314.355175
20
674.856161
11
314.490361
21
674.257037
0
LINE
8
boundary
62
5
39
2
10
314.490361
20
674.257037
11
314.901411
21
671.912157
0
LINE
8
boundary
62
5
39
2
10
314.901411
20
671.912157
11
315.243398
21
669.687107
0
LINE
8
boundary
62
5
39
2
10
315.243398
20
669.687107
11
315.502553
21
668.369561
0
LINE
8
boundary
62
5
39
2
10
315.502553
20
668.369561
11
315.751377
21
666.906521
0
LINE
8
boundary
62
5
39
2
10
315.751377
20
666.906521
11
316.654009
21
663.272699
0
LINE
8
boundary
62
5
39
2
10
316.654009
20
663.272699
11
317.338155
21
660.112759
0
LINE
8
boundary
62
5
39
2
10
317.338155
20
660.112759
11
317.704334
21
658.189372
0
LINE
8
boundary
62
5
39
2
10
317.704334
20
658.189372
11
317.999495
21
656.927107
0
LINE
8
boundary
62
5
39
2
10
317.999495
20
656.927107
11
318.535717
21
654.941774
0
LINE
8
boundary
62
5
39
2
10
318.535717
20
654.941774
11
318.982022
21
653.198232
0
LINE
8
boundary
62
5
39
2
10
318.982022
20
653.198232
11
319.163367
21
652.408884
0
LINE
8
boundary
62
5
39
2
10
319.163367
20
652.408884
11
319.621043
21
650.337745
0
LINE
8
boundary
62
5
39
2
10
319.621043
20
650.337745
11
321.157705
21
645.210773
0
LINE
8
boundary
62
5
39
2
10
321.157705
20
645.210773
11
321.628166
21
643.580471
0
LINE
8
boundary
62
5
39
2
10
321.628166
20
643.580471
11
321.857679
21
642.848708
0
LINE
8
boundary
62
5
39
2
10
321.857679
20
642.848708
11
322.845879
21
639.493634
0
LINE
8
boundary
62
5
39
2
10
322.845879
20
639.493634
11
323.160509
21
638.514518
0
LINE
8
boundary
62
5
39
2
10
323.160509
20
638.514518
11
324.864730
21
633.250215
0
LINE
8
boundary
62
5
39
2
10
324.864730
20
633.250215
11
325.147979
21
632.264892
0
LINE
8
boundary
62
5
39
2
10
325.147979
20
632.264892
11
325.299060
21
631.685844
0
LINE
8
boundary
62
5
39
2
10
325.299060
20
631.685844
11
325.476608
21
630.838098
0
LINE
8
boundary
62
5
39
2
10
325.476608
20
630.838098
11
325.845949
21
629.478800
0
LINE
8
boundary
62
5
39
2
10
325.845949
20
629.478800
11
327.257946
21
625.086913
0
LINE
8
boundary
62
5
39
2
10
327.257946
20
625.086913
11
327.657111
21
623.610067
0
LINE
8
boundary
62
5
39
2
10
327.657111
20
623.610067
11
327.828261
21
622.698759
0
LINE
8
boundary
62
5
39
2
10
327.828261
20
622.698759
11
327.990545
21
622.058071
0
LINE
8
boundary
62
5
39
2
10
327.990545
20
622.058071
11
328.305217
21
620.909807
0
LINE
8
boundary
62
5
39
2
10
328.305217
20
620.909807
11
329.917506
21
615.676924
0
LINE
8
boundary
62
5
39
2
10
329.917506
20
615.676924
11
330.280544
21
614.484582
0
LINE
8
boundary
62
5
39
2
10
330.280544
20
614.484582
11
331.156842
21
611.315282
0
LINE
8
boundary
62
5
39
2
10
331.156842
20
611.315282
11
331.280829
21
610.818925
0
LINE
8
boundary
62
5
39
2
10
331.280829
20
610.818925
11
331.582967
21
609.828989
0
LINE
8
boundary
62
5
39
2
10
331.582967
20
609.828989
11
331.769178
21
609.007139
0
LINE
8
boundary
62
5
39
2
10
331.769178
20
609.007139
11
333.092712
21
604.782099
0
LINE
8
boundary
62
5
39
2
10
333.092712
20
604.782099
11
333.759196
21
601.642904
0
LINE
8
boundary
62
5
39
2
10
333.759196
20
601.642904
11
334.129679
21
600.353277
0
LINE
8
boundary
62
5
39
2
10
334.129679
20
600.353277
11
334.260508
21
599.765062
0
LINE
8
boundary
62
5
39
2
10
334.260508
20
599.765062
11
334.735485
21
598.063942
0
LINE
8
boundary
62
5
39
2
10
334.735485
20
598.063942
11
335.524163
21
595.284249
0
LINE
8
boundary
62
5
39
2
10
335.524163
20
595.284249
11
335.869659
21
594.250583
0
LINE
8
boundary
62
5
39
2
10
335.869659
20
594.250583
11
336.503859
21
592.648696
0
LINE
8
boundary
62
5
39
2
10
336.503859
20
592.648696
11
336.814360
21
591.680086
0
LINE
8
boundary
62
5
39
2
10
336.814360
20
591.680086
11
337.250253
21
590.276861
0
LINE
8
boundary
62
5
39
2
10
337.250253
20
590.276861
11
338.352016
21
586.203103
0
LINE
8
boundary
62
5
39
2
10
338.352016
20
586.203103
11
338.701844
21
585.130515
0
LINE
8
boundary
62
5
39
2
10
338.701844
20
585.130515
11
339.431635
21
582.841000
0
LINE
8
boundary
62
5
39
2
10
339.431635
20
582.841000
11
340.241576
21
580.267182
0
LINE
8
boundary
62
5
39
2
10
340.241576
20
580.267182
11
340.462627
21
579.633688
0
LINE
8
boundary
62
5
39
2
10
340.462627
20
579.633688
11
340.852439
21
578.741517
0
LINE
8
boundary
62
5
39
2
10
340.852439
20
578.741517
11
342.150568
21
574.972091
0
LINE
8
boundary
62
5
39
2
10
342.150568
20
574.972091
11
342.869176
21
572.970238
0
LINE
8
boundary
62
5
39
2
10
342.869176
20
572.970238
11
343.064876
21
572.375069
0
LINE
8
boundary
62
5
39
2
10
343.064876
20
572.375069
11
343.449794
21
571.297477
0
LINE
8
boundary
62
5
39
2
10
343.449794
20
571.297477
11
344.613516
21
568.318296
0
LINE
8
boundary
62
5
39
2
10
344.613516
20
568.318296
11
346.205642
21
564.601738
0
LINE
8
boundary
62
5
39
2
10
346.205642
20
564.601738
11
347.161669
21
562.158689
0
LINE
8
boundary
62
5
39
2
10
347.161669
20
562.158689
11
348.149714
21
560.041891
0
LINE
8
boundary
62
5
39
2
10
348.149714
20
560.041891
11
349.385218
21
557.278786
0
LINE
8
boundary
62
5
39
2
10
349.385218
20
557.278786
11
351.102927
21
554.143501
0
LINE
8
boundary
62
5
39
2
10
351.102927
20
554.143501
11
352.818504
21
550.023294
0
LINE
8
boundary
62
5
39
2
10
352.818504
20
550.023294
11
353.836845
21
548.080422
0
LINE
8
boundary
62
5
39
2
10
353.836845
20
548.080422
11
355.080964
21
545.767339
0
LINE
8
boundary
62
5
39
2
10
355.080964
20
545.767339
11
355.530274
21
545.011662
0
LINE
8
boundary
62
5
39
2
10
355.530274
20
545.011662
11
356.087355
21
543.914967
0
LINE
8
boundary
62
5
39
2
10
356.087355
20
543.914967
11
356.508908
21
543.236160
0
LINE
8
boundary
62
5
39
2
10
356.508908
20
543.236160
11
358.892577
21
539.457691
0
LINE
8
boundary
62
5
39
2
10
358.892577
20
539.457691
11
360.581650
21
536.736549
0
LINE
8
boundary
62
5
39
2
10
360.581650
20
536.736549
11
360.965592
21
536.175345
0
LINE
8
boundary
62
5
39
2
10
360.965592
20
536.175345
11
361.551976
21
535.269543
0
LINE
8
boundary
62
5
39
2
10
361.551976
20
535.269543
11
365.658422
21
529.675822
0
LINE
8
boundary
62
5
39
2
10
365.658422
20
529.675822
11
367.665143
21
527.018708
0
LINE
8
boundary
62
5
39
2
10
367.665143
20
527.018708
11
368.452235
21
526.103333
0
LINE
8
boundary
62
5
39
2
10
368.452235
20
526.103333
11
369.464033
21
524.966187
0
LINE
8
boundary
62
5
39
2
10
369.464033
20
524.966187
11
369.901289
21
524.487746
0
LINE
8
boundary
62
5
39
2
10
369.901289
20
524.487746
11
370.870588
21
523.563325
0
LINE
8
boundary
62
5
39
2
10
370.870588
20
523.563325
11
374.516920
21
519.732486
0
LINE
8
boundary
62
5
39
2
10
374.516920
20
519.732486
11
376.571982
21
517.853314
0
LINE
8
boundary
62
5
39
2
10
376.571982
20
517.853314
11
377.945954
21
516.484569
0
LINE
8
boundary
62
5
39
2
10
377.945954
20
516.484569
11
379.849778
21
514.857249
0
LINE
8
boundary
62
5
39
2
10
379.849778
20
514.857249
11
381.852245
21
513.028725
0
LINE
8
boundary
62
5
39
2
10
381.852245
20
513.028725
11
382.373967
21
512.598730
0
LINE
8
boundary
62
5
39
2
10
382.373967
20
512.598730
11
386.181865
21
509.559797
0
LINE
8
boundary
62
5
39
2
10
386.181865
20
509.559797
11
388.502684
21
507.668876
0
LINE
8
annotation
62
1
39
211
10
400.808615
20
525.672148
11
397.876970
21
527.272085
0
LINE
8
annotation
62
1
39
211
10
397.876970
20
527.272085
11
402.965930
21
530.154731
0
LINE
8
annotation
62
1
39
211
10
402.965930
20
530.154731
11
402.965930
21
530.154731
0
LINE
8
annotation
62
1
39
211
10
402.965930
20
530.154731
11
402.971356
21
530.156971
0
LINE
8
annotation
62
1
39
211
10
402.971356
20
530.156971
11
402.976667
21
530.159318
0
LINE
8
annotation
62
1
39
211
10
402.976667
20
530.159318
11
402.981903
21
530.161794
0
LINE
8
annotation
62
1
39
211
10
402.981903
20
530.161794
11
402.987102
21
530.164422
0
LINE
8
annotation
62
1
39
211
10
402.987102
20
530.164422
11
402.992305
21
530.167226
0
LINE
8
annotation
62
1
39
211
10
402.992305
20
530.167226
11
402.997549
21
530.170228
0
LINE
8
annotation
62
1
39
211
10
402.997549
20
530.170228
11
403.002874
21
530.173451
0
LINE
8
annotation
62
1
39
211
10
403.002874
20
530.173451
11
403.008320
21
530.176918
0
LINE
8
annotation
62
1
39
211
10
403.008320
20
530.176918
11
403.013924
21
530.180652
0
LINE
8
annotation
62
1
39
211
10
403.013924
20
530.180652
11
403.013924
21
530.180652
0
LINE
8
annotation
62
1
39
211
10
403.013924
20
530.180652
11
403.256838
21
530.359764
0
LINE
8
annotation
62
1
39
211
10
403.256838
20
530.359764
11
403.458039
21
530.573045
0
LINE
8
annotation
62
1
39
211
10
403.458039
20
530.573045
11
403.616057
21
530.813997
0
LINE
8
annotation
62
1
39
211
10
403.616057
20
530.813997
11
403.729423
21
531.076120
0
LINE
8
annotation
62
1
39
211
10
403.729423
20
531.076120
11
403.796669
21
531.352915
0
LINE
8
annotation
62
1
39
211
10
403.796669
20
531.352915
11
403.816327
21
531.637884
0
LINE
8
annotation
62
1
39
211
10
403.816327
20
531.637884
11
403.786927
21
531.924527
0
LINE
8
annotation
62
1
39
211
10
403.786927
20
531.924527
11
403.707002
21
532.206346
0
LINE
8
annotation
62
1
39
211
10
403.707002
20
532.206346
11
403.575083
21
532.476841
0
LINE
8
annotation
62
1
39
211
10
403.575083
20
532.476841
11
403.575083
21
532.476841
0
LINE
8
annotation
62
1
39
211
10
403.575083
20
532.476841
11
403.394436
21
532.718531
0
LINE
8
annotation
62
1
39
211
10
403.394436
20
532.718531
11
403.180224
21
532.918933
0
LINE
8
annotation
62
1
39
211
10
403.180224
20
532.918933
11
402.938811
21
533.076453
0
LINE
8
annotation
62
1
39
211
10
402.938811
20
533.076453
11
402.676561
21
533.189497
0
LINE
8
annotation
62
1
39
211
10
402.676561
20
533.189497
11
402.399839
21
533.256472
0
LINE
8
annotation
62
1
39
211
10
402.399839
20
533.256472
11
402.115007
21
533.275782
0
LINE
8
annotation
62
1
39
211
10
402.115007
20
533.275782
11
401.828432
21
533.245835
0
LINE
8
annotation
62
1
39
211
10
401.828432
20
533.245835
11
401.546477
21
533.165036
0
LINE
8
annotation
62
1
39
211
10
401.546477
20
533.165036
11
401.275506
21
533.031792
0
LINE
8
annotation
62
1
39
211
10
401.275506
20
533.031792
11
400.881498
21
532.767593
0
LINE
8
annotation
62
1
39
211
10
394.176698
20
587.636749
11
395.638638
21
586.829706
0
LINE
8
annotation
62
1
39
211
10
395.638638
20
586.829706
11
395.638638
21
586.829706
0
LINE
8
annotation
62
1
39
211
10
395.638638
20
586.829706
11
395.914592
21
586.708144
0
LINE
8
annotation
62
1
39
211
10
395.914592
20
586.708144
11
396.199530
21
586.639543
0
LINE
8
annotation
62
1
39
211
10
396.199530
20
586.639543
11
396.487033
21
586.622001
0
LINE
8
annotation
62
1
39
211
10
396.487033
20
586.622001
11
396.770682
21
586.653618
0
LINE
8
annotation
62
1
39
211
10
396.770682
20
586.653618
11
397.044060
21
586.732492
0
LINE
8
annotation
62
1
39
211
10
397.044060
20
586.732492
11
397.300747
21
586.856722
0
LINE
8
annotation
62
1
39
211
10
397.300747
20
586.856722
11
397.534325
21
587.024407
0
LINE
8
annotation
62
1
39
211
10
397.534325
20
587.024407
11
397.738376
21
587.233646
0
LINE
8
annotation
62
1
39
211
10
397.738376
20
587.233646
11
397.906481
21
587.482537
0
LINE
8
annotation
62
1
39
211
10
397.906481
20
587.482537
11
398.310572
21
588.214539
0
LINE
8
annotation
62
1
39
211
10
398.310572
20
588.214539
11
398.310572
21
588.214539
0
LINE
8
annotation
62
1
39
211
10
398.310572
20
588.214539
11
398.431546
21
588.489307
0
LINE
8
annotation
62
1
39
211
10
398.431546
20
588.489307
11
398.499840
21
588.773413
0
LINE
8
annotation
62
1
39
211
10
398.499840
20
588.773413
11
398.517259
21
589.060404
0
LINE
8
annotation
62
1
39
211
10
398.517259
20
589.060404
11
398.485610
21
589.343824
0
LINE
8
annotation
62
1
39
211
10
398.485610
20
589.343824
11
398.406697
21
589.617219
0
LINE
8
annotation
62
1
39
211
10
398.406697
20
589.617219
11
398.282328
21
589.874135
0
LINE
8
annotation
62
1
39
211
10
398.282328
20
589.874135
11
398.114308
21
590.108116
0
LINE
8
annotation
62
1
39
211
10
398.114308
20
590.108116
11
397.904442
21
590.312708
0
LINE
8
annotation
62
1
39
211
10
397.904442
20
590.312708
11
397.654537
21
590.481458
0
LINE
8
annotation
62
1
39
211
10
397.654537
20
590.481458
11
396.922535
21
590.885549
0
LINE
8
annotation
62
1
39
211
10
396.922535
20
590.885549
11
397.654537
21
590.481458
0
LINE
8
annotation
62
1
39
211
10
397.654537
20
590.481458
11
397.654537
21
590.481458
0
LINE
8
annotation
62
1
39
211
10
397.654537
20
590.481458
11
397.930502
21
590.359915
0
LINE
8
annotation
62
1
39
211
10
397.930502
20
590.359915
11
398.215480
21
590.291387
0
LINE
8
annotation
62
1
39
211
10
398.215480
20
590.291387
11
398.503067
21
590.273998
0
LINE
8
annotation
62
1
39
211
10
398.503067
20
590.273998
11
398.786857
21
590.305868
0
LINE
8
annotation
62
1
39
211
10
398.786857
20
590.305868
11
399.060444
21
590.385122
0
LINE
8
annotation
62
1
39
211
10
399.060444
20
590.385122
11
399.317423
21
590.509881
0
LINE
8
annotation
62
1
39
211
10
399.317423
20
590.509881
11
399.551389
21
590.678268
0
LINE
8
annotation
62
1
39
211
10
399.551389
20
590.678268
11
399.755936
21
590.888406
0
LINE
8
annotation
62
1
39
211
10
399.755936
20
590.888406
11
399.924659
21
591.138418
0
LINE
8
annotation
62
1
39
211
10
399.924659
20
591.138418
11
399.924659
21
591.138418
0
LINE
8
annotation
62
1
39
211
10
399.924659
20
591.138418
11
400.045633
21
591.413185
0
LINE
8
annotation
62
1
39
211
10
400.045633
20
591.413185
11
400.113927
21
591.697292
0
LINE
8
annotation
62
1
39
211
10
400.113927
20
591.697292
11
400.131346
21
591.984282
0
LINE
8
annotation
62
1
39
211
10
400.131346
20
591.984282
11
400.099697
21
592.267702
0
LINE
8
annotation
62
1
39
211
10
400.099697
20
592.267702
11
400.020784
21
592.541098
0
LINE
8
annotation
62
1
39
211
10
400.020784
20
592.541098
11
399.896415
21
592.798013
0
LINE
8
annotation
62
1
39
211
10
399.896415
20
592.798013
11
399.728395
21
593.031995
0
LINE
8
annotation
62
1
39
211
10
399.728395
20
593.031995
11
399.518529
21
593.236587
0
LINE
8
annotation
62
1
39
211
10
399.518529
20
593.236587
11
399.268624
21
593.405336
0
LINE
8
annotation
62
1
39
211
10
399.268624
20
593.405336
11
397.806685
21
594.212380
0
LINE
8
annotation
62
1
39
211
10
397.124675
20
643.748776
11
393.537428
21
645.885649
0
LINE
8
annotation
62
1
39
211
10
393.537428
20
645.885649
11
397.962984
21
650.056585
0
LINE
8
annotation
62
1
39
211
10
395.193822
20
642.953031
11
396.903031
21
645.822342
0
LINE
8
annotation
62
1
39
211
10
370.158919
20
716.283818
11
371.540382
21
715.345657
0
LINE
8
annotation
62
1
39
211
10
371.540382
20
715.345657
11
371.540382
21
715.345657
0
LINE
8
annotation
62
1
39
211
10
371.540382
20
715.345657
11
371.803467
21
715.199569
0
LINE
8
annotation
62
1
39
211
10
371.803467
20
715.199569
11
372.080632
21
715.105255
0
LINE
8
annotation
62
1
39
211
10
372.080632
20
715.105255
11
372.365283
21
715.061475
0
LINE
8
annotation
62
1
39
211
10
372.365283
20
715.061475
11
372.650823
21
715.066987
0
LINE
8
annotation
62
1
39
211
10
372.650823
20
715.066987
11
372.930660
21
715.120552
0
LINE
8
annotation
62
1
39
211
10
372.930660
20
715.120552
11
373.198197
21
715.220929
0
LINE
8
annotation
62
1
39
211
10
373.198197
20
715.220929
11
373.446840
21
715.366876
0
LINE
8
annotation
62
1
39
211
10
373.446840
20
715.366876
11
373.669995
21
715.557153
0
LINE
8
annotation
62
1
39
211
10
373.669995
20
715.557153
11
373.861066
21
715.790519
0
LINE
8
annotation
62
1
39
211
10
373.861066
20
715.790519
11
374.328424
21
716.478715
0
LINE
8
annotation
62
1
39
211
10
374.328424
20
716.478715
11
374.328424
21
716.478715
0
LINE
8
annotation
62
1
39
211
10
374.328424
20
716.478715
11
374.474818
21
716.742245
0
LINE
8
annotation
62
1
39
211
10
374.474818
20
716.742245
11
374.569211
21
717.019494
0
LINE
8
annotation
62
1
39
211
10
374.569211
20
717.019494
11
374.612910
21
717.303937
0
LINE
8
annotation
62
1
39
211
10
374.612910
20
717.303937
11
374.607224
21
717.589052
0
LINE
8
annotation
62
1
39
211
10
374.607224
20
717.589052
11
374.553460
21
717.868316
0
LINE
8
annotation
62
1
39
211
10
374.553460
20
717.868316
11
374.452928
21
718.135204
0
LINE
8
annotation
62
1
39
211
10
374.452928
20
718.135204
11
374.306935
21
718.383195
0
LINE
8
annotation
62
1
39
211
10
374.306935
20
718.383195
11
374.116789
21
718.605764
0
LINE
8
annotation
62
1
39
211
10
374.116789
20
718.605764
11
373.883798
21
718.796388
0
LINE
8
annotation
62
1
39
211
10
373.883798
20
718.796388
11
372.502335
21
719.734549
0
LINE
8
annotation
62
1
39
211
10
372.502335
20
719.734549
11
374.383692
21
722.504887
0
LINE
8
annotation
62
1
39
211
10
374.383692
20
722.504887
11
377.146617
21
720.628565
0
LINE
8
annotation
62
1
39
211
10
384.509579
20
778.010102
11
384.509579
21
778.010102
0
LINE
8
annotation
62
1
39
211
10
384.509579
20
778.010102
11
384.025869
21
778.174571
0
LINE
8
annotation
62
1
39
211
10
384.025869
20
778.174571
11
383.533146
21
778.265870
0
LINE
8
annotation
62
1
39
211
10
383.533146
20
778.265870
11
383.038733
21
778.285827
0
LINE
8
annotation
62
1
39
211
10
383.038733
20
778.285827
11
382.549954
21
778.236270
0
LINE
8
annotation
62
1
39
211
10
382.549954
20
778.236270
11
382.074132
21
778.119024
0
LINE
8
annotation
62
1
39
211
10
382.074132
20
778.119024
11
381.618590
21
777.935919
0
LINE
8
annotation
62
1
39
211
10
381.618590
20
777.935919
11
381.190651
21
777.688780
0
LINE
8
annotation
62
1
39
211
10
381.190651
20
777.688780
11
380.797639
21
777.379436
0
LINE
8
annotation
62
1
39
211
10
380.797639
20
777.379436
11
380.446877
21
777.009714
0
LINE
8
annotation
62
1
39
211
10
380.446877
20
777.009714
11
378.862708
21
775.076430
0
LINE
8
annotation
62
1
39
211
10
378.862708
20
775.076430
11
378.862708
21
775.076430
0
LINE
8
annotation
62
1
39
211
10
378.862708
20
775.076430
11
378.693165
21
774.826985
0
LINE
8
annotation
62
1
39
211
10
378.693165
20
774.826985
11
378.574044
21
774.559005
0
LINE
8
annotation
62
1
39
211
10
378.574044
20
774.559005
11
378.504664
21
774.279165
0
LINE
8
annotation
62
1
39
211
10
378.504664
20
774.279165
11
378.484344
21
773.994141
0
LINE
8
annotation
62
1
39
211
10
378.484344
20
773.994141
11
378.512400
21
773.710609
0
LINE
8
annotation
62
1
39
211
10
378.512400
20
773.710609
11
378.588152
21
773.435244
0
LINE
8
annotation
62
1
39
211
10
378.588152
20
773.435244
11
378.710918
21
773.174723
0
LINE
8
annotation
62
1
39
211
10
378.710918
20
773.174723
11
378.880015
21
772.935721
0
LINE
8
annotation
62
1
39
211
10
378.880015
20
772.935721
11
379.094761
21
772.724914
0
LINE
8
annotation
62
1
39
211
10
379.094761
20
772.724914
11
379.094761
21
772.724914
0
LINE
8
annotation
62
1
39
211
10
379.094761
20
772.724914
11
379.344148
21
772.555402
0
LINE
8
annotation
62
1
39
211
10
379.344148
20
772.555402
11
379.611981
21
772.436375
0
LINE
8
annotation
62
1
39
211
10
379.611981
20
772.436375
11
379.891626
21
772.367153
0
LINE
8
annotation
62
1
39
211
10
379.891626
20
772.367153
11
380.176449
21
772.347056
0
LINE
8
annotation
62
1
39
211
10
380.176449
20
772.347056
11
380.459814
21
772.375404
0
LINE
8
annotation
62
1
39
211
10
380.459814
20
772.375404
11
380.735088
21
772.451514
0
LINE
8
annotation
62
1
39
211
10
380.735088
20
772.451514
11
380.995635
21
772.574708
0
LINE
8
annotation
62
1
39
211
10
380.995635
20
772.574708
11
381.234822
21
772.744304
0
LINE
8
annotation
62
1
39
211
10
381.234822
20
772.744304
11
381.446014
21
772.959622
0
LINE
8
annotation
62
1
39
211
10
381.446014
20
772.959622
11
381.973273
21
773.603077
0
LINE
8
annotation
62
1
39
211
10
381.973273
20
773.603077
11
381.973273
21
773.603077
0
LINE
8
annotation
62
1
39
211
10
381.973273
20
773.603077
11
382.142784
21
773.852360
0
LINE
8
annotation
62
1
39
211
10
382.142784
20
773.852360
11
382.261808
21
774.119916
0
LINE
8
annotation
62
1
39
211
10
382.261808
20
774.119916
11
382.331025
21
774.399160
0
LINE
8
annotation
62
1
39
211
10
382.331025
20
774.399160
11
382.351116
21
774.683506
0
LINE
8
annotation
62
1
39
211
10
382.351116
20
774.683506
11
382.322763
21
774.966370
0
LINE
8
annotation
62
1
39
211
10
382.322763
20
774.966370
11
382.246647
21
775.241167
0
LINE
8
annotation
62
1
39
211
10
382.246647
20
775.241167
11
382.123448
21
775.501313
0
LINE
8
annotation
62
1
39
211
10
382.123448
20
775.501313
11
381.953849
21
775.740222
0
LINE
8
annotation
62
1
39
211
10
381.953849
20
775.740222
11
381.738530
21
775.951310
0
LINE
8
annotation
62
1
39
211
10
381.738530
20
775.951310
11
380.446877
21
777.009714
0
LINE
8
annotation
62
1
39
211
10
377.045551
20
773.188802
11
379.953867
21
770.805674
0
LINE
8
annotation
62
1
39
211
10
328.533222
20
748.396336
11
313.432778
21
748.396336
0
LINE
8
annotation
62
1
39
211
10
313.432778
20
748.396336
11
328.533222
21
775.592143
0
LINE
8
annotation
62
1
39
211
10
328.533222
20
775.592143
11
313.432778
21
775.592143
0
LINE
8
annotation
62
1
39
211
10
353.604409
20
761.994239
11
338.734208
21
761.994239
0
LINE
8
annotation
62
1
39
211
10
363.800279
20
748.396336
11
369.839433
21
748.396336
0
LINE
8
annotation
62
1
39
211
10
369.839433
20
748.396336
11
369.839433
21
748.396336
0
LINE
8
annotation
62
1
39
211
10
369.839433
20
748.396336
11
370.923343
21
748.493792
0
LINE
8
annotation
62
1
39
211
10
370.923343
20
748.493792
11
371.944186
21
748.774754
0
LINE
8
annotation
62
1
39
211
10
371.944186
20
748.774754
11
372.884750
21
749.222111
0
LINE
8
annotation
62
1
39
211
10
372.884750
20
749.222111
11
373.727828
21
749.818751
0
LINE
8
annotation
62
1
39
211
10
373.727828
20
749.818751
11
374.456210
21
750.547563
0
LINE
8
annotation
62
1
39
211
10
374.456210
20
750.547563
11
375.052686
21
751.391436
0
LINE
8
annotation
62
1
39
211
10
375.052686
20
751.391436
11
375.500047
21
752.333259
0
LINE
8
annotation
62
1
39
211
10
375.500047
20
752.333259
11
375.781084
21
753.355922
0
LINE
8
annotation
62
1
39
211
10
375.781084
20
753.355922
11
375.878587
21
754.442312
0
LINE
8
annotation
62
1
39
211
10
375.878587
20
754.442312
11
375.878587
21
757.450803
0
LINE
8
annotation
62
1
39
211
10
375.878587
20
757.450803
11
375.878587
21
757.450803
0
LINE
8
annotation
62
1
39
211
10
375.878587
20
757.450803
11
375.781140
21
758.536667
0
LINE
8
annotation
62
1
39
211
10
375.781140
20
758.536667
11
375.500243
21
759.557919
0
LINE
8
annotation
62
1
39
211
10
375.500243
20
759.557919
11
375.053065
21
760.497700
0
LINE
8
annotation
62
1
39
211
10
375.053065
20
760.497700
11
374.456771
21
761.339152
0
LINE
8
annotation
62
1
39
211
10
374.456771
20
761.339152
11
373.728530
21
762.065416
0
LINE
8
annotation
62
1
39
211
10
373.728530
20
762.065416
11
372.885508
21
762.659635
0
LINE
8
annotation
62
1
39
211
10
372.885508
20
762.659635
11
371.944873
21
763.104949
0
LINE
8
annotation
62
1
39
211
10
371.944873
20
763.104949
11
370.923793
21
763.384500
0
LINE
8
annotation
62
1
39
211
10
370.923793
20
763.384500
11
369.839433
21
763.481430
0
LINE
8
annotation
62
1
39
211
10
369.839433
20
763.481430
11
363.800279
21
763.481430
0
LINE
8
annotation
62
1
39
211
10
363.800279
20
763.481430
11
363.800279
21
775.592143
0
LINE
8
annotation
62
1
39
211
10
363.800279
20
775.592143
11
375.878587
21
775.592143
0
LINE
8
boundary
62
5
39
2
10
513.903819
20
491.401693
11
514.369950
21
491.093389
0
LINE
8
boundary
62
5
39
2
10
514.369950
20
491.093389
11
515.026077
21
490.595028
0
LINE
8
boundary
62
5
39
2
10
515.026077
20
490.595028
11
515.535557
21
490.252967
0
LINE
8
boundary
62
5
39
2
10
515.535557
20
490.252967
11
516.193125
21
489.828304
0
LINE
8
boundary
62
5
39
2
10
516.193125
20
489.828304
11
517.337351
21
489.172048
0
LINE
8
boundary
62
5
39
2
10
517.337351
20
489.172048
11
518.712065
21
488.393122
0
LINE
8
boundary
62
5
39
2
10
518.712065
20
488.393122
11
519.225780
21
488.137907
0
LINE
8
boundary
62
5
39
2
10
519.225780
20
488.137907
11
519.993917
21
487.793308
0
LINE
8
boundary
62
5
39
2
10
519.993917
20
487.793308
11
520.620494
21
487.513230
0
LINE
8
boundary
62
5
39
2
10
520.620494
20
487.513230
11
521.858239
21
487.021963
0
LINE
8
boundary
62
5
39
2
10
521.858239
20
487.021963
11
523.285856
21
486.477736
0
LINE
8
boundary
62
5
39
2
10
523.285856
20
486.477736
11
524.220103
21
486.173102
0
LINE
8
boundary
62
5
39
2
10
524.220103
20
486.173102
11
525.108985
21
485.919968
0
LINE
8
boundary
62
5
39
2
10
525.108985
20
485.919968
11
525.919324
21
485.697372
0
LINE
8
boundary
62
5
39
2
10
525.919324
20
485.697372
11
526.571508
21
485.547730
0
LINE
8
boundary
62
5
39
2
10
526.571508
20
485.547730
11
527.999822
21
485.257633
0
LINE
8
boundary
62
5
39
2
10
527.999822
20
485.257633
11
528.514506
21
485.161549
0
LINE
8
boundary
62
5
39
2
10
528.514506
20
485.161549
11
530.679878
21
484.864380
0
LINE
8
boundary
62
5
39
2
10
530.679878
20
484.864380
11
531.810397
21
484.778858
0
LINE
8
boundary
62
5
39
2
10
531.810397
20
484.778858
11
532.548244
21
484.792346
0
LINE
8
boundary
62
5
39
2
10
532.548244
20
484.792346
11
533.502613
21
484.695661
0
LINE
8
boundary
62
5
39
2
10
533.502613
20
484.695661
11
533.452043
21
485.582205
0
LINE
8
boundary
62
5
39
2
10
533.452043
20
485.582205
11
524.396816
21
491.731675
0
LINE
8
boundary
62
5
39
2
10
524.396816
20
491.731675
11
526.894601
21
495.409716
0
LINE
8
boundary
62
5
39
2
10
526.894601
20
495.409716
11
541.405105
21
485.555528
0
LINE
8
boundary
62
5
39
2
10
541.405105
20
485.555528
11
542.247817
21
485.835434
0
LINE
8
boundary
62
5
39
2
10
542.247817
20
485.835434
11
544.278171
21
486.537799
0
LINE
8
boundary
62
5
39
2
10
544.278171
20
486.537799
11
545.139174
21
486.804776
0
LINE
8
boundary
62
5
39
2
10
545.139174
20
486.804776
11
545.935056
21
487.129974
0
LINE
8
boundary
62
5
39
2
10
545.935056
20
487.129974
11
546.629248
21
487.548194
0
LINE
8
boundary
62
5
39
2
10
546.629248
20
487.548194
11
550.189222
21
489.417759
0
LINE
8
boundary
62
5
39
2
10
550.189222
20
489.417759
11
552.312116
21
490.925771
0
LINE
8
boundary
62
5
39
2
10
552.312116
20
490.925771
11
553.899662
21
492.572807
0
LINE
8
boundary
62
5
39
2
10
553.899662
20
492.572807
11
555.280400
21
493.870949
0
LINE
8
boundary
62
5
39
2
10
555.280400
20
493.870949
11
558.622351
21
496.812571
0
LINE
8
boundary
62
5
39
2
10
558.622351
20
496.812571
11
560.917110
21
499.564037
0
LINE
8
boundary
62
5
39
2
10
560.917110
20
499.564037
11
562.592206
21
501.940778
0
LINE
8
boundary
62
5
39
2
10
562.592206
20
501.940778
11
563.233102
21
503.019026
0
LINE
8
boundary
62
5
39
2
10
563.233102
20
503.019026
11
564.312207
21
504.781694
0
LINE
8
boundary
62
5
39
2
10
564.312207
20
504.781694
11
564.833422
21
505.787444
0
LINE
8
boundary
62
5
39
2
10
564.833422
20
505.787444
11
565.130608
21
506.369646
0
LINE
8
boundary
62
5
39
2
10
565.130608
20
506.369646
11
565.853161
21
507.732561
0
LINE
8
boundary
62
5
39
2
10
565.853161
20
507.732561
11
566.435911
21
508.962935
0
LINE
8
boundary
62
5
39
2
10
566.435911
20
508.962935
11
566.916389
21
509.974308
0
LINE
8
boundary
62
5
39
2
10
566.916389
20
509.974308
11
567.320776
21
510.942918
0
LINE
8
boundary
62
5
39
2
10
567.320776
20
510.942918
11
567.678414
21
511.749285
0
LINE
8
boundary
62
5
39
2
10
567.678414
20
511.749285
11
568.160361
21
512.959796
0
LINE
8
boundary
62
5
39
2
10
568.160361
20
512.959796
11
568.421298
21
513.637884
0
LINE
8
boundary
62
5
39
2
10
568.421298
20
513.637884
11
568.666343
21
514.344646
0
LINE
8
boundary
62
5
39
2
10
568.666343
20
514.344646
11
568.972525
21
515.203899
0
LINE
8
boundary
62
5
39
2
10
568.972525
20
515.203899
11
569.348133
21
516.343632
0
LINE
8
boundary
62
5
39
2
10
569.348133
20
516.343632
11
569.527385
21
516.962218
0
LINE
8
boundary
62
5
39
2
10
569.527385
20
516.962218
11
570.095858
21
519.099725
0
LINE
8
boundary
62
5
39
2
10
570.095858
20
519.099725
11
570.722376
21
522.033276
0
LINE
8
boundary
62
5
39
2
10
570.722376
20
522.033276
11
570.845747
21
522.901716
0
LINE
8
boundary
62
5
39
2
10
570.845747
20
522.901716
11
571.088741
21
524.533627
0
LINE
8
boundary
62
5
39
2
10
571.088741
20
524.533627
11
571.405737
21
527.174683
0
LINE
8
boundary
62
5
39
2
10
571.405737
20
527.174683
11
571.473723
21
527.714501
0
LINE
8
boundary
62
5
39
2
10
571.473723
20
527.714501
11
571.549366
21
529.819898
0
LINE
8
boundary
62
5
39
2
10
571.549366
20
529.819898
11
571.579245
21
530.511552
0
LINE
8
boundary
62
5
39
2
10
571.579245
20
530.511552
11
571.555825
21
531.032988
0
LINE
8
boundary
62
5
39
2
10
571.555825
20
531.032988
11
571.538041
21
531.659327
0
LINE
8
boundary
62
5
39
2
10
571.538041
20
531.659327
11
571.525387
21
534.750588
0
LINE
8
boundary
62
5
39
2
10
571.525387
20
534.750588
11
571.486724
21
535.999065
0
LINE
8
boundary
62
5
39
2
10
571.486724
20
535.999065
11
571.396039
21
537.203820
0
LINE
8
boundary
62
5
39
2
10
571.396039
20
537.203820
11
571.301536
21
537.987802
0
LINE
8
boundary
62
5
39
2
10
571.301536
20
537.987802
11
570.010103
21
537.149837
0
LINE
8
boundary
62
5
39
2
10
570.010103
20
537.149837
11
568.613582
21
536.239602
0
LINE
8
boundary
62
5
39
2
10
568.613582
20
536.239602
11
568.163508
21
535.950783
0
LINE
8
boundary
62
5
39
2
10
568.163508
20
535.950783
11
566.673450
21
534.991994
0
LINE
8
boundary
62
5
39
2
10
566.673450
20
534.991994
11
565.222531
21
534.057606
0
LINE
8
boundary
62
5
39
2
10
565.222531
20
534.057606
11
564.601526
21
533.653888
0
LINE
8
boundary
62
5
39
2
10
564.601526
20
533.653888
11
561.863065
21
531.935768
0
LINE
8
boundary
62
5
39
2
10
561.863065
20
531.935768
11
560.463272
21
531.055016
0
LINE
8
boundary
62
5
39
2
10
560.463272
20
531.055016
11
557.673652
21
529.304956
0
LINE
8
boundary
62
5
39
2
10
557.673652
20
529.304956
11
555.502810
21
527.977462
0
LINE
8
boundary
62
5
39
2
10
555.502810
20
527.977462
11
553.049291
21
526.479351
0
LINE
8
boundary
62
5
39
2
10
553.049291
20
526.479351
11
550.390873
21
524.859072
0
LINE
8
boundary
62
5
39
2
10
550.390873
20
524.859072
11
547.373635
21
523.030542
0
LINE
8
boundary
62
5
39
2
10
547.373635
20
523.030542
11
545.410737
21
521.862802
0
LINE
8
boundary
62
5
39
2
10
545.410737
20
521.862802
11
543.816118
21
520.924928
0
LINE
8
boundary
62
5
39
2
10
543.816118
20
520.924928
11
540.427998
21
518.933311
0
LINE
8
boundary
62
5
39
2
10
540.427998
20
518.933311
11
535.763507
21
516.214865
0
LINE
8
boundary
62
5
39
2
10
535.763507
20
516.214865
11
535.286973
21
515.941362
0
LINE
8
boundary
62
5
39
2
10
535.286973
20
515.941362
11
530.369640
21
513.148476
0
LINE
8
boundary
62
5
39
2
10
530.369640
20
513.148476
11
527.222593
21
511.371785
0
LINE
8
boundary
62
5
39
2
10
527.222593
20
511.371785
11
525.767344
21
510.552155
0
LINE
8
boundary
62
5
39
2
10
525.767344
20
510.552155
11
523.544697
21
509.314331
0
LINE
8
boundary
62
5
39
2
10
523.544697
20
509.314331
11
521.610658
21
508.246402
0
LINE
8
boundary
62
5
39
2
10
521.610658
20
508.246402
11
519.895244
21
507.300359
0
LINE
8
boundary
62
5
39
2
10
519.895244
20
507.300359
11
518.317224
21
506.433732
0
LINE
8
boundary
62
5
39
2
10
518.317224
20
506.433732
11
515.029548
21
504.632954
0
LINE
8
boundary
62
5
39
2
10
515.029548
20
504.632954
11
512.028997
21
503.007717
0
LINE
8
boundary
62
5
39
2
10
512.028997
20
503.007717
11
510.013805
21
501.923534
0
LINE
8
boundary
62
5
39
2
10
510.013805
20
501.923534
11
508.816303
21
501.280854
0
LINE
8
boundary
62
5
39
2
10
508.816303
20
501.280854
11
508.324875
21
501.017829
0
LINE
8
boundary
62
5
39
2
10
508.324875
20
501.017829
11
507.120646
21
500.373933
0
LINE
8
boundary
62
5
39
2
10
507.120646
20
500.373933
11
505.804542
21
499.676418
0
LINE
8
boundary
62
5
39
2
10
505.804542
20
499.676418
11
505.997323
21
498.887200
0
LINE
8
boundary
62
5
39
2
10
505.997323
20
498.887200
11
506.378443
21
498.463974
0
LINE
8
boundary
62
5
39
2
10
506.378443
20
498.463974
11
506.873484
21
497.909553
0
LINE
8
boundary
62
5
39
2
10
506.873484
20
497.909553
11
508.431605
21
496.285769
0
LINE
8
boundary
62
5
39
2
10
508.431605
20
496.285769
11
508.785861
21
495.886150
0
LINE
8
boundary
62
5
39
2
10
508.785861
20
495.886150
11
509.477587
21
495.191337
0
LINE
8
boundary
62
5
39
2
10
509.477587
20
495.191337
11
510.031497
21
494.697697
0
LINE
8
boundary
62
5
39
2
10
510.031497
20
494.697697
11
510.579107
21
494.167959
0
LINE
8
boundary
62
5
39
2
10
510.579107
20
494.167959
11
511.398349
21
493.421877
0
LINE
8
boundary
62
5
39
2
10
511.398349
20
493.421877
11
512.089185
21
492.862297
0
LINE
8
boundary
62
5
39
2
10
512.089185
20
492.862297
11
512.804666
21
492.240049
0
LINE
8
boundary
62
5
39
2
10
512.804666
20
492.240049
11
513.546458
21
491.668503
0
LINE
8
boundary
62
5
39
2
10
513.546458
20
491.668503
11
513.903819
21
491.401693
0
LINE
8
annotation
62
1
39
211
10
514.269680
20
496.751167
11
515.651143
21
495.813006
0
LINE
8
annotation
62
1
39
211
10
515.651143
20
495.813006
11
515.651143
21
495.813006
0
LINE
8
annotation
62
1
39
211
10
515.651143
20
495.813006
11
515.914228
21
495.666918
0
LINE
8
annotation
62
1
39
211
10
515.914228
20
495.666918
11
516.191393
21
495.572604
0
LINE
8
annotation
62
1
39
211
10
516.191393
20
495.572604
11
516.476043
21
495.528824
0
LINE
8
annotation
62
1
39
211
10
516.476043
20
495.528824
11
516.761584
21
495.534336
0
LINE
8
annotation
62
1
39
211
10
516.761584
20
495.534336
11
517.041421
21
495.587901
0
LINE
8
annotation
62
1
39
211
10
517.041421
20
495.587901
11
517.308958
21
495.688278
0
LINE
8
annotation
62
1
39
211
10
517.308958
20
495.688278
11
517.557601
21
495.834225
0
LINE
8
annotation
62
1
39
211
10
517.557601
20
495.834225
11
517.780755
21
496.024502
0
LINE
8
annotation
62
1
39
211
10
517.780755
20
496.024502
11
517.971826
21
496.257868
0
LINE
8
annotation
62
1
39
211
10
517.971826
20
496.257868
11
518.439185
21
496.946063
0
LINE
8
annotation
62
1
39
211
10
518.439185
20
496.946063
11
518.439185
21
496.946063
0
LINE
8
annotation
62
1
39
211
10
518.439185
20
496.946063
11
518.585579
21
497.209594
0
LINE
8
annotation
62
1
39
211
10
518.585579
20
497.209594
11
518.679971
21
497.486843
0
LINE
8
annotation
62
1
39
211
10
518.679971
20
497.486843
11
518.723670
21
497.771286
0
LINE
8
annotation
62
1
39
211
10
518.723670
20
497.771286
11
518.717984
21
498.056401
0
LINE
8
annotation
62
1
39
211
10
518.717984
20
498.056401
11
518.664221
21
498.335665
0
LINE
8
annotation
62
1
39
211
10
518.664221
20
498.335665
11
518.563689
21
498.602553
0
LINE
8
annotation
62
1
39
211
10
518.563689
20
498.602553
11
518.417695
21
498.850544
0
LINE
8
annotation
62
1
39
211
10
518.417695
20
498.850544
11
518.227549
21
499.073113
0
LINE
8
annotation
62
1
39
211
10
518.227549
20
499.073113
11
517.994559
21
499.263737
0
LINE
8
annotation
62
1
39
211
10
517.994559
20
499.263737
11
516.613096
21
500.201898
0
LINE
8
annotation
62
1
39
211
10
516.613096
20
500.201898
11
518.494452
21
502.972236
0
LINE
8
annotation
62
1
39
211
10
518.494452
20
502.972236
11
521.257378
21
501.095914
0
LINE
8
annotation
62
1
39
211
10
536.736102
20
501.698523
11
534.093903
21
501.698523
0
LINE
8
annotation
62
1
39
211
10
534.093903
20
501.698523
11
536.736102
21
506.457108
0
LINE
8
annotation
62
1
39
211
10
536.736102
20
506.457108
11
534.093903
21
506.457108
0
LINE
8
annotation
62
1
39
211
10
541.122933
20
504.077816
11
538.521019
21
504.077816
0
LINE
8
annotation
62
1
39
211
10
543.434559
20
501.698523
11
543.434559
21
501.698523
0
LINE
8
annotation
62
1
39
211
10
543.434559
20
501.698523
11
543.736744
21
501.811132
0
LINE
8
annotation
62
1
39
211
10
543.736744
20
501.811132
11
544.014113
21
501.963344
0
LINE
8
annotation
62
1
39
211
10
544.014113
20
501.963344
11
544.263798
21
502.151279
0
LINE
8
annotation
62
1
39
211
10
544.263798
20
502.151279
11
544.482935
21
502.371061
0
LINE
8
annotation
62
1
39
211
10
544.482935
20
502.371061
11
544.668655
21
502.618811
0
LINE
8
annotation
62
1
39
211
10
544.668655
20
502.618811
11
544.818095
21
502.890651
0
LINE
8
annotation
62
1
39
211
10
544.818095
20
502.890651
11
544.928385
21
503.182701
0
LINE
8
annotation
62
1
39
211
10
544.928385
20
503.182701
11
544.996662
21
503.491085
0
LINE
8
annotation
62
1
39
211
10
544.996662
20
503.491085
11
545.020058
21
503.811925
0
LINE
8
annotation
62
1
39
211
10
545.020058
20
503.811925
11
545.020058
21
505.398915
0
LINE
8
annotation
62
1
39
211
10
545.020058
20
505.398915
11
545.020058
21
505.398915
0
LINE
8
annotation
62
1
39
211
10
545.020058
20
505.398915
11
545.003046
21
505.589017
0
LINE
8
annotation
62
1
39
211
10
545.003046
20
505.589017
11
544.953995
21
505.767985
0
LINE
8
annotation
62
1
39
211
10
544.953995
20
505.767985
11
544.875877
21
505.932820
0
LINE
8
annotation
62
1
39
211
10
544.875877
20
505.932820
11
544.771668
21
506.080524
0
LINE
8
annotation
62
1
39
211
10
544.771668
20
506.080524
11
544.644343
21
506.208097
0
LINE
8
annotation
62
1
39
211
10
544.644343
20
506.208097
11
544.496874
21
506.312541
0
LINE
8
annotation
62
1
39
211
10
544.496874
20
506.312541
11
544.332238
21
506.390857
0
LINE
8
annotation
62
1
39
211
10
544.332238
20
506.390857
11
544.153407
21
506.440046
0
LINE
8
annotation
62
1
39
211
10
544.153407
20
506.440046
11
543.963357
21
506.457108
0
LINE
8
annotation
62
1
39
211
10
543.963357
20
506.457108
11
543.963357
21
506.457108
0
LINE
8
annotation
62
1
39
211
10
543.963357
20
506.457108
11
543.773700
21
506.440046
0
LINE
8
annotation
62
1
39
211
10
543.773700
20
506.440046
11
543.595078
21
506.390857
0
LINE
8
annotation
62
1
39
211
10
543.595078
20
506.390857
11
543.430503
21
506.312541
0
LINE
8
annotation
62
1
39
211
10
543.430503
20
506.312541
11
543.282985
21
506.208097
0
LINE
8
annotation
62
1
39
211
10
543.282985
20
506.208097
11
543.155536
21
506.080524
0
LINE
8
annotation
62
1
39
211
10
543.155536
20
506.080524
11
543.051168
21
505.932820
0
LINE
8
annotation
62
1
39
211
10
543.051168
20
505.932820
11
542.972891
21
505.767985
0
LINE
8
annotation
62
1
39
211
10
542.972891
20
505.767985
11
542.923717
21
505.589017
0
LINE
8
annotation
62
1
39
211
10
542.923717
20
505.589017
11
542.906656
21
505.398915
0
LINE
8
annotation
62
1
39
211
10
542.906656
20
505.398915
11
542.906656
21
504.869819
0
LINE
8
annotation
62
1
39
211
10
542.906656
20
504.869819
11
542.906656
21
504.869819
0
LINE
8
annotation
62
1
39
211
10
542.906656
20
504.869819
11
542.923717
21
504.679728
0
LINE
8
annotation
62
1
39
211
10
542.923717
20
504.679728
11
542.972891
21
504.500788
0
LINE
8
annotation
62
1
39
211
10
542.972891
20
504.500788
11
543.051168
21
504.335992
0
LINE
8
annotation
62
1
39
211
10
543.051168
20
504.335992
11
543.155536
21
504.188335
0
LINE
8
annotation
62
1
39
211
10
543.155536
20
504.188335
11
543.282985
21
504.060811
0
LINE
8
annotation
62
1
39
211
10
543.282985
20
504.060811
11
543.430503
21
503.956414
0
LINE
8
annotation
62
1
39
211
10
543.430503
20
503.956414
11
543.595078
21
503.878138
0
LINE
8
annotation
62
1
39
211
10
543.595078
20
503.878138
11
543.773700
21
503.828977
0
LINE
8
annotation
62
1
39
211
10
543.773700
20
503.828977
11
543.963357
21
503.811925
0
LINE
8
annotation
62
1
39
211
10
543.963357
20
503.811925
11
545.020058
21
503.811925
0
LINE
8
annotation
62
1
39
211
10
542.774606
20
501.103700
11
545.153899
21
501.103700
0
LINE
8
annotation
62
1
39
211
10
549.407186
20
504.077816
11
546.805273
21
504.077816
0
LINE
8
annotation
62
1
39
211
10
553.304969
20
501.698484
11
551.191568
21
501.698484
0
LINE
8
annotation
62
1
39
211
10
551.191568
20
501.698484
11
553.144420
21
504.842326
0
LINE
8
annotation
62
1
39
211
10
553.144420
20
504.842326
11
553.144420
21
504.842326
0
LINE
8
annotation
62
1
39
211
10
553.144420
20
504.842326
11
553.146754
21
504.845215
0
LINE
8
annotation
62
1
39
211
10
553.146754
20
504.845215
11
553.148993
21
504.848128
0
LINE
8
annotation
62
1
39
211
10
553.148993
20
504.848128
11
553.151151
21
504.851090
0
LINE
8
annotation
62
1
39
211
10
553.151151
20
504.851090
11
553.153242
21
504.854127
0
LINE
8
annotation
62
1
39
211
10
553.153242
20
504.854127
11
553.155282
21
504.857261
0
LINE
8
annotation
62
1
39
211
10
553.155282
20
504.857261
11
553.157285
21
504.860518
0
LINE
8
annotation
62
1
39
211
10
553.157285
20
504.860518
11
553.159266
21
504.863923
0
LINE
8
annotation
62
1
39
211
10
553.159266
20
504.863923
11
553.161239
21
504.867499
0
LINE
8
annotation
62
1
39
211
10
553.161239
20
504.867499
11
553.163220
21
504.871272
0
LINE
8
annotation
62
1
39
211
10
553.163220
20
504.871272
11
553.163220
21
504.871272
0
LINE
8
annotation
62
1
39
211
10
553.163220
20
504.871272
11
553.243853
21
505.044398
0
LINE
8
annotation
62
1
39
211
10
553.243853
20
505.044398
11
553.290957
21
505.223858
0
LINE
8
annotation
62
1
39
211
10
553.290957
20
505.223858
11
553.305688
21
505.405597
0
LINE
8
annotation
62
1
39
211
10
553.305688
20
505.405597
11
553.289198
21
505.585560
0
LINE
8
annotation
62
1
39
211
10
553.289198
20
505.585560
11
553.242643
21
505.759692
0
LINE
8
annotation
62
1
39
211
10
553.242643
20
505.759692
11
553.167177
21
505.923939
0
LINE
8
annotation
62
1
39
211
10
553.167177
20
505.923939
11
553.063955
21
506.074245
0
LINE
8
annotation
62
1
39
211
10
553.063955
20
506.074245
11
552.934130
21
506.206554
0
LINE
8
annotation
62
1
39
211
10
552.934130
20
506.206554
11
552.778857
21
506.316813
0
LINE
8
annotation
62
1
39
211
10
552.778857
20
506.316813
11
552.778857
21
506.316813
0
LINE
8
annotation
62
1
39
211
10
552.778857
20
506.316813
11
552.605250
21
506.396300
0
LINE
8
annotation
62
1
39
211
10
552.605250
20
506.396300
11
552.425515
21
506.442678
0
LINE
8
annotation
62
1
39
211
10
552.425515
20
506.442678
11
552.243671
21
506.456992
0
LINE
8
annotation
62
1
39
211
10
552.243671
20
506.456992
11
552.063734
21
506.440285
0
LINE
8
annotation
62
1
39
211
10
552.063734
20
506.440285
11
551.889725
21
506.393601
0
LINE
8
annotation
62
1
39
211
10
551.889725
20
506.393601
11
551.725660
21
506.317984
0
LINE
8
annotation
62
1
39
211
10
551.725660
20
506.317984
11
551.575558
21
506.214478
0
LINE
8
annotation
62
1
39
211
10
551.575558
20
506.214478
11
551.443438
21
506.084126
0
LINE
8
annotation
62
1
39
211
10
551.443438
20
506.084126
11
551.333316
21
505.927973
0
LINE
8
annotation
62
1
39
211
10
551.333316
20
505.927973
11
551.194552
21
505.661784
0
LINE
8
boundary
62
5
39
2
10
575.514652
20
489.099449
11
574.959876
21
486.765151
0
LINE
8
boundary
62
5
39
2
10
574.959876
20
486.765151
11
574.873837
21
486.203887
0
LINE
8
boundary
62
5
39
2
10
574.873837
20
486.203887
11
574.754245
21
485.009865
0
LINE
8
boundary
62
5
39
2
10
574.754245
20
485.009865
11
576.227338
21
486.172115
0
LINE
8
boundary
62
5
39
2
10
576.227338
20
486.172115
11
576.604364
21
486.594633
0
LINE
8
boundary
62
5
39
2
10
576.604364
20
486.594633
11
577.412395
21
487.494415
0
LINE
8
boundary
62
5
39
2
10
577.412395
20
487.494415
11
578.619684
21
488.838034
0
LINE
8
boundary
62
5
39
2
10
578.619684
20
488.838034
11
579.242793
21
489.529213
0
LINE
8
boundary
62
5
39
2
10
579.242793
20
489.529213
11
579.811965
21
490.155898
0
LINE
8
boundary
62
5
39
2
10
579.811965
20
490.155898
11
580.366703
21
490.767197
0
LINE
8
boundary
62
5
39
2
10
580.366703
20
490.767197
11
581.603955
21
492.126565
0
LINE
8
boundary
62
5
39
2
10
581.603955
20
492.126565
11
582.108968
21
492.680183
0
LINE
8
boundary
62
5
39
2
10
582.108968
20
492.680183
11
583.925493
21
494.656707
0
LINE
8
boundary
62
5
39
2
10
583.925493
20
494.656707
11
584.774844
21
495.582309
0
LINE
8
boundary
62
5
39
2
10
584.774844
20
495.582309
11
587.469725
21
498.491146
0
LINE
8
boundary
62
5
39
2
10
587.469725
20
498.491146
11
584.621694
21
497.121216
0
LINE
8
boundary
62
5
39
2
10
584.621694
20
497.121216
11
582.429268
21
495.460476
0
LINE
8
boundary
62
5
39
2
10
582.429268
20
495.460476
11
580.115304
21
494.264134
0
LINE
8
boundary
62
5
39
2
10
580.115304
20
494.264134
11
579.499075
21
494.159906
0
LINE
8
boundary
62
5
39
2
10
579.499075
20
494.159906
11
578.736675
21
493.641484
0
LINE
8
boundary
62
5
39
2
10
578.736675
20
493.641484
11
577.144103
21
491.893422
0
LINE
8
boundary
62
5
39
2
10
577.144103
20
491.893422
11
576.622021
21
491.131640
0
LINE
8
boundary
62
5
39
2
10
576.622021
20
491.131640
11
575.514652
21
489.099449
0
LINE
8
annotation
62
1
39
211
10
578.459206
20
492.024541
11
578.292716
21
491.783729
0
LINE
8
annotation
62
1
39
211
10
578.292716
20
491.783729
11
578.126195
21
492.024541
0
LINE
8
annotation
62
1
39
211
10
578.292716
20
491.803108
11
578.292716
21
491.525291
0
LINE
8
annotation
62
1
39
211
10
578.919440
20
491.774916
11
578.646476
21
491.774916
0
LINE
8
annotation
62
1
39
211
10
579.273122
20
492.024526
11
579.273122
21
492.024526
0
LINE
8
annotation
62
1
39
211
10
579.273122
20
492.024526
11
579.241364
21
492.012619
0
LINE
8
annotation
62
1
39
211
10
579.241364
20
492.012619
11
579.212222
21
491.996575
0
LINE
8
annotation
62
1
39
211
10
579.212222
20
491.996575
11
579.185995
21
491.976797
0
LINE
8
annotation
62
1
39
211
10
579.185995
20
491.976797
11
579.162982
21
491.953686
0
LINE
8
annotation
62
1
39
211
10
579.162982
20
491.953686
11
579.143482
21
491.927645
0
LINE
8
annotation
62
1
39
211
10
579.143482
20
491.927645
11
579.127795
21
491.899076
0
LINE
8
annotation
62
1
39
211
10
579.127795
20
491.899076
11
579.116220
21
491.868380
0
LINE
8
annotation
62
1
39
211
10
579.116220
20
491.868380
11
579.109055
21
491.835959
0
LINE
8
annotation
62
1
39
211
10
579.109055
20
491.835959
11
579.106601
21
491.802216
0
LINE
8
annotation
62
1
39
211
10
579.106601
20
491.802216
11
579.106601
21
491.636290
0
LINE
8
annotation
62
1
39
211
10
579.106601
20
491.636290
11
579.106601
21
491.636290
0
LINE
8
annotation
62
1
39
211
10
579.106601
20
491.636290
11
579.108390
21
491.616347
0
LINE
8
annotation
62
1
39
211
10
579.108390
20
491.616347
11
579.113549
21
491.597575
0
LINE
8
annotation
62
1
39
211
10
579.113549
20
491.597575
11
579.121761
21
491.580286
0
LINE
8
annotation
62
1
39
211
10
579.121761
20
491.580286
11
579.132710
21
491.564796
0
LINE
8
annotation
62
1
39
211
10
579.132710
20
491.564796
11
579.146081
21
491.551417
0
LINE
8
annotation
62
1
39
211
10
579.146081
20
491.551417
11
579.161557
21
491.540465
0
LINE
8
annotation
62
1
39
211
10
579.161557
20
491.540465
11
579.178822
21
491.532253
0
LINE
8
annotation
62
1
39
211
10
579.178822
20
491.532253
11
579.197561
21
491.527096
0
LINE
8
annotation
62
1
39
211
10
579.197561
20
491.527096
11
579.217458
21
491.525307
0
LINE
8
annotation
62
1
39
211
10
579.217458
20
491.525307
11
579.217458
21
491.525307
0
LINE
8
annotation
62
1
39
211
10
579.217458
20
491.525307
11
579.237396
21
491.527096
0
LINE
8
annotation
62
1
39
211
10
579.237396
20
491.527096
11
579.256157
21
491.532253
0
LINE
8
annotation
62
1
39
211
10
579.256157
20
491.532253
11
579.273429
21
491.540465
0
LINE
8
annotation
62
1
39
211
10
579.273429
20
491.540465
11
579.288900
21
491.551417
0
LINE
8
annotation
62
1
39
211
10
579.288900
20
491.551417
11
579.302257
21
491.564796
0
LINE
8
annotation
62
1
39
211
10
579.302257
20
491.564796
11
579.313190
21
491.580286
0
LINE
8
annotation
62
1
39
211
10
579.313190
20
491.580286
11
579.321385
21
491.597575
0
LINE
8
annotation
62
1
39
211
10
579.321385
20
491.597575
11
579.326531
21
491.616347
0
LINE
8
annotation
62
1
39
211
10
579.326531
20
491.616347
11
579.328316
21
491.636290
0
LINE
8
annotation
62
1
39
211
10
579.328316
20
491.636290
11
579.328316
21
491.691515
0
LINE
8
annotation
62
1
39
211
10
579.328316
20
491.691515
11
579.328316
21
491.691515
0
LINE
8
annotation
62
1
39
211
10
579.328316
20
491.691515
11
579.326531
21
491.711447
0
LINE
8
annotation
62
1
39
211
10
579.326531
20
491.711447
11
579.321385
21
491.730194
0
LINE
8
annotation
62
1
39
211
10
579.321385
20
491.730194
11
579.313190
21
491.747445
0
LINE
8
annotation
62
1
39
211
10
579.313190
20
491.747445
11
579.302257
21
491.762891
0
LINE
8
annotation
62
1
39
211
10
579.302257
20
491.762891
11
579.288900
21
491.776223
0
LINE
8
annotation
62
1
39
211
10
579.288900
20
491.776223
11
579.273429
21
491.787131
0
LINE
8
annotation
62
1
39
211
10
579.273429
20
491.787131
11
579.256157
21
491.795305
0
LINE
8
annotation
62
1
39
211
10
579.256157
20
491.795305
11
579.237396
21
491.800437
0
LINE
8
annotation
62
1
39
211
10
579.237396
20
491.800437
11
579.217458
21
491.802216
0
LINE
8
annotation
62
1
39
211
10
579.217458
20
491.802216
11
579.106601
21
491.802216
0
LINE
8
annotation
62
1
39
211
10
579.092716
20
491.462904
11
579.342326
21
491.462904
0
LINE
8
annotation
62
1
39
211
10
579.788534
20
491.774916
11
579.515570
21
491.774916
0
LINE
8
annotation
62
1
39
211
10
580.197447
20
491.525303
11
579.975732
21
491.525303
0
LINE
8
annotation
62
1
39
211
10
579.975732
20
491.525303
11
580.180604
21
491.855120
0
LINE
8
annotation
62
1
39
211
10
580.180604
20
491.855120
11
580.180604
21
491.855120
0
LINE
8
annotation
62
1
39
211
10
580.180604
20
491.855120
11
580.180849
21
491.855423
0
LINE
8
annotation
62
1
39
211
10
580.180849
20
491.855423
11
580.181084
21
491.855729
0
LINE
8
annotation
62
1
39
211
10
580.181084
20
491.855729
11
580.181310
21
491.856040
0
LINE
8
annotation
62
1
39
211
10
580.181310
20
491.856040
11
580.181530
21
491.856358
0
LINE
8
annotation
62
1
39
211
10
580.181530
20
491.856358
11
580.181744
21
491.856687
0
LINE
8
annotation
62
1
39
211
10
580.181744
20
491.856687
11
580.181954
21
491.857029
0
LINE
8
annotation
62
1
39
211
10
580.181954
20
491.857029
11
580.182162
21
491.857386
0
LINE
8
annotation
62
1
39
211
10
580.182162
20
491.857386
11
580.182369
21
491.857761
0
LINE
8
annotation
62
1
39
211
10
580.182369
20
491.857761
11
580.182576
21
491.858157
0
LINE
8
annotation
62
1
39
211
10
580.182576
20
491.858157
11
580.182576
21
491.858157
0
LINE
8
annotation
62
1
39
211
10
580.182576
20
491.858157
11
580.191036
21
491.876320
0
LINE
8
annotation
62
1
39
211
10
580.191036
20
491.876320
11
580.195977
21
491.895147
0
LINE
8
annotation
62
1
39
211
10
580.195977
20
491.895147
11
580.197523
21
491.914213
0
LINE
8
annotation
62
1
39
211
10
580.197523
20
491.914213
11
580.195793
21
491.933092
0
LINE
8
annotation
62
1
39
211
10
580.195793
20
491.933092
11
580.190909
21
491.951361
0
LINE
8
annotation
62
1
39
211
10
580.190909
20
491.951361
11
580.182992
21
491.968591
0
LINE
8
annotation
62
1
39
211
10
580.182992
20
491.968591
11
580.172163
21
491.984360
0
LINE
8
annotation
62
1
39
211
10
580.172163
20
491.984360
11
580.158543
21
491.998240
0
LINE
8
annotation
62
1
39
211
10
580.158543
20
491.998240
11
580.142253
21
492.009808
0
LINE
8
annotation
62
1
39
211
10
580.142253
20
492.009808
11
580.142253
21
492.009808
0
LINE
8
annotation
62
1
39
211
10
580.142253
20
492.009808
11
580.124040
21
492.018146
0
LINE
8
annotation
62
1
39
211
10
580.124040
20
492.018146
11
580.105184
21
492.023012
0
LINE
8
annotation
62
1
39
211
10
580.105184
20
492.023012
11
580.086107
21
492.024514
0
LINE
8
annotation
62
1
39
211
10
580.086107
20
492.024514
11
580.067230
21
492.022761
0
LINE
8
annotation
62
1
39
211
10
580.067230
20
492.022761
11
580.048975
21
492.017863
0
LINE
8
annotation
62
1
39
211
10
580.048975
20
492.017863
11
580.031763
21
492.009930
0
LINE
8
annotation
62
1
39
211
10
580.031763
20
492.009930
11
580.016016
21
491.999072
0
LINE
8
annotation
62
1
39
211
10
580.016016
20
491.999072
11
580.002156
21
491.985397
0
LINE
8
annotation
62
1
39
211
10
580.002156
20
491.985397
11
579.990603
21
491.969015
0
LINE
8
annotation
62
1
39
211
10
579.990603
20
491.969015
11
579.976045
21
491.941089
0
LINE
8
frame
62
5
39
2
10
0.000000
20
0.000000
11
600.000000
21
0.000000
0
LINE
8
frame
62
5
39
2
10
600.000000
20
0.000000
11
600.000000
21
900.000000
0
LINE
8
frame
62
5
39
2
10
600.000000
20
900.000000
11
0.000000
21
900.000000
0
LINE
8
frame
62
5
39
2
10
0.000000
20
900.000000
11
0.000000
21
0.000000
0
ENDSEC
0
EOF
