0
SECTION
2
HEADER
9
$ACADVER
1
AC1009
0
ENDSEC
0
SECTION
2
TABLES
0
TABLE
2
VPORT
70
1
0
VPORT
2
ACTIVE
70
0
10
0.0
20
0.0
11
0.0
21
0.0
12
0.0
22
0.0
13
0.0
23
0.0
14
0.0
24
0.0
15
0.0
25
0.0
16
0.0
26
0.0
36
0.0
17
0.0
27
0.0
37
0.0
40
0.0
41
0.0
42
0.0
43
0.0
44
0.0
50
0.0
51
0.0
71
0
72
1000
73
1
74
3
75
0
76
0
77
0
78
0
0
ENDTAB
0
ENDSEC
0
SECTION
2
ENTITIES
0
LINE
8
boundary
62
5
39
2
10
179.849547
20
436.442647
11
179.317288
21
436.674286
0
LINE
8
boundary
62
5
39
2
10
179.317288
20
436.674286
11
173.318424
21
439.231397
0
LINE
8
boundary
62
5
39
2
10
173.318424
20
439.231397
11
170.471348
21
440.409668
0
LINE
8
boundary
62
5
39
2
10
170.471348
20
440.409668
11
168.835821
21
441.100158
0
LINE
8
boundary
62
5
39
2
10
168.835821
20
441.100158
11
166.238714
21
442.139038
0
LINE
8
boundary
62
5
39
2
10
166.238714
20
442.139038
11
165.020360
21
442.606616
0
LINE
8
boundary
62
5
39
2
10
165.020360
20
442.606616
11
160.933185
21
444.095564
0
LINE
8
boundary
62
5
39
2
10
160.933185
20
444.095564
11
159.351383
21
444.617674
0
LINE
8
boundary
62
5
39
2
10
159.351383
20
444.617674
11
158.432347
21
444.942474
0
LINE
8
boundary
62
5
39
2
10
158.432347
20
444.942474
11
156.933944
21
445.470449
0
LINE
8
boundary
62
5
39
2
10
156.933944
20
445.470449
11
152.661743
21
446.976805
0
LINE
8
boundary
62
5
39
2
10
152.661743
20
446.976805
11
150.348195
21
447.801768
0
LINE
8
boundary
62
5
39
2
10
150.348195
20
447.801768
11
149.529366
21
448.097126
0
LINE
8
boundary
62
5
39
2
10
149.529366
20
448.097126
11
145.834779
21
449.405745
0
LINE
8
boundary
62
5
39
2
10
145.834779
20
449.405745
11
144.668466
21
449.753678
0
LINE
8
boundary
62
5
39
2
10
144.668466
20
449.753678
11
140.064445
21
450.569041
0
LINE
8
boundary
62
5
39
2
10
140.064445
20
450.569041
11
136.119132
21
451.293393
0
LINE
8
boundary
62
5
39
2
10
136.119132
20
451.293393
11
134.958681
21
450.398057
0
LINE
8
boundary
62
5
39
2
10
134.958681
20
450.398057
11
132.928853
21
448.832057
0
LINE
8
boundary
62
5
39
2
10
132.928853
20
448.832057
11
131.476538
21
447.713846
0
LINE
8
boundary
62
5
39
2
10
131.476538
20
447.713846
11
130.612928
21
447.048802
0
LINE
8
boundary
62
5
39
2
10
130.612928
20
447.048802
11
129.641048
21
446.301894
0
LINE
8
boundary
62
5
39
2
10
129.641048
20
446.301894
11
127.424549
21
444.600176
0
LINE
8
boundary
62
5
39
2
10
127.424549
20
444.600176
11
126.040131
21
443.540013
0
LINE
8
boundary
62
5
39
2
10
126.040131
20
443.540013
11
124.488164
21
442.353369
0
LINE
8
boundary
62
5
39
2
10
124.488164
20
442.353369
11
122.601203
21
440.911355
0
LINE
8
boundary
62
5
39
2
10
122.601203
20
440.911355
11
117.663548
21
437.152936
0
LINE
8
boundary
62
5
39
2
10
117.663548
20
437.152936
11
117.164114
21
436.773113
0
LINE
8
boundary
62
5
39
2
10
117.164114
20
436.773113
11
116.369558
21
436.170513
0
LINE
8
boundary
62
5
39
2
10
116.369558
20
436.170513
11
109.714982
21
431.127154
0
LINE
8
boundary
62
5
39
2
10
109.714982
20
431.127154
11
107.275890
21
429.282176
0
LINE
8
boundary
62
5
39
2
10
107.275890
20
429.282176
11
99.041709
21
423.072068
0
LINE
8
boundary
62
5
39
2
10
99.041709
20
423.072068
11
94.313336
21
419.510050
0
LINE
8
boundary
62
5
39
2
10
94.313336
20
419.510050
11
88.321951
21
414.996766
0
LINE
8
boundary
62
5
39
2
10
88.321951
20
414.996766
11
85.880888
21
413.159312
0
LINE
8
boundary
62
5
39
2
10
85.880888
20
413.159312
11
79.291206
21
408.213285
0
LINE
8
boundary
62
5
39
2
10
79.291206
20
408.213285
11
77.317619
21
406.732663
0
LINE
8
boundary
62
5
39
2
10
77.317619
20
406.732663
11
75.765289
21
405.567441
0
LINE
8
boundary
62
5
39
2
10
75.765289
20
405.567441
11
64.853234
21
397.403781
0
LINE
8
boundary
62
5
39
2
10
64.853234
20
397.403781
11
54.186203
21
389.459551
0
LINE
8
boundary
62
5
39
2
10
54.186203
20
389.459551
11
53.249991
21
388.763322
0
LINE
8
boundary
62
5
39
2
10
53.249991
20
388.763322
11
51.976363
21
387.823370
0
LINE
8
boundary
62
5
39
2
10
51.976363
20
387.823370
11
41.800837
21
380.342436
0
LINE
8
boundary
62
5
39
2
10
41.800837
20
380.342436
11
35.239935
21
375.565477
0
LINE
8
boundary
62
5
39
2
10
35.239935
20
375.565477
11
31.022361
21
372.501328
0
LINE
8
boundary
62
5
39
2
10
31.022361
20
372.501328
11
24.757771
21
368.001220
0
LINE
8
boundary
62
5
39
2
10
24.757771
20
368.001220
11
21.509764
21
365.676577
0
LINE
8
boundary
62
5
39
2
10
21.509764
20
365.676577
11
19.693638
21
364.387636
0
LINE
8
boundary
62
5
39
2
10
19.693638
20
364.387636
11
13.622904
21
360.089933
0
LINE
8
boundary
62
5
39
2
10
13.622904
20
360.089933
11
9.035532
21
356.876712
0
LINE
8
boundary
62
5
39
2
10
9.035532
20
356.876712
11
4.989891
21
354.073678
0
LINE
8
boundary
62
5
39
2
10
4.989891
20
354.073678
11
4.329350
21
353.619097
0
LINE
8
boundary
62
5
39
2
10
4.329350
20
353.619097
11
1.735224
21
351.839591
0
LINE
8
boundary
62
5
39
2
10
1.735224
20
351.839591
11
2.907223
21
348.509923
0
LINE
8
boundary
62
5
39
2
10
2.907223
20
348.509923
11
5.361533
21
343.665532
0
LINE
8
boundary
62
5
39
2
10
5.361533
20
343.665532
11
8.291196
21
337.968603
0
LINE
8
boundary
62
5
39
2
10
8.291196
20
337.968603
11
8.988336
21
336.668760
0
LINE
8
boundary
62
5
39
2
10
8.988336
20
336.668760
11
9.328636
21
336.102676
0
LINE
8
boundary
62
5
39
2
10
9.328636
20
336.102676
11
9.739151
21
335.489383
0
LINE
8
boundary
62
5
39
2
10
9.739151
20
335.489383
11
13.394813
21
330.404471
0
LINE
8
boundary
62
5
39
2
10
13.394813
20
330.404471
11
14.563742
21
328.784800
0
LINE
8
boundary
62
5
39
2
10
14.563742
20
328.784800
11
16.885185
21
324.718483
0
LINE
8
boundary
62
5
39
2
10
16.885185
20
324.718483
11
17.213489
21
324.287127
0
LINE
8
boundary
62
5
39
2
10
17.213489
20
324.287127
11
17.885166
21
323.466603
0
LINE
8
boundary
62
5
39
2
10
17.885166
20
323.466603
11
21.196275
21
319.686800
0
LINE
8
boundary
62
5
39
2
10
21.196275
20
319.686800
11
21.901275
21
320.226699
0
LINE
8
boundary
62
5
39
2
10
21.901275
20
320.226699
11
21.901275
21
341.736412
0
LINE
8
boundary
62
5
39
2
10
21.901275
20
341.736412
11
26.347275
21
341.736413
0
LINE
8
boundary
62
5
39
2
10
26.347275
20
341.736413
11
26.347275
21
313.111403
0
LINE
8
boundary
62
5
39
2
10
26.347275
20
313.111403
11
27.052275
21
312.381029
0
LINE
8
boundary
62
5
39
2
10
27.052275
20
312.381029
11
29.182536
21
310.173719
0
LINE
8
boundary
62
5
39
2
10
29.182536
20
310.173719
11
36.206507
21
302.965325
0
LINE
8
boundary
62
5
39
2
10
36.206507
20
302.965325
11
37.360069
21
301.960918
0
LINE
8
boundary
62
5
39
2
10
37.360069
20
301.960918
11
38.206075
21
301.247816
0
LINE
8
boundary
62
5
39
2
10
38.206075
20
301.247816
11
46.735345
21
293.961969
0
LINE
8
boundary
62
5
39
2
10
46.735345
20
293.961969
11
47.625953
21
293.306472
0
LINE
8
boundary
62
5
39
2
10
47.625953
20
293.306472
11
49.014272
21
292.383520
0
LINE
8
boundary
62
5
39
2
10
49.014272
20
292.383520
11
51.625697
21
290.598914
0
LINE
8
boundary
62
5
39
2
10
51.625697
20
290.598914
11
55.475027
21
288.090371
0
LINE
8
boundary
62
5
39
2
10
55.475027
20
288.090371
11
56.079237
21
287.691968
0
LINE
8
boundary
62
5
39
2
10
56.079237
20
287.691968
11
56.595151
21
287.386029
0
LINE
8
boundary
62
5
39
2
10
56.595151
20
287.386029
11
58.988015
21
286.026130
0
LINE
8
boundary
62
5
39
2
10
58.988015
20
286.026130
11
63.139315
21
283.893956
0
LINE
8
boundary
62
5
39
2
10
63.139315
20
283.893956
11
69.338085
21
281.004468
0
LINE
8
boundary
62
5
39
2
10
69.338085
20
281.004468
11
71.459759
21
280.068536
0
LINE
8
boundary
62
5
39
2
10
71.459759
20
280.068536
11
72.062543
21
279.835629
0
LINE
8
boundary
62
5
39
2
10
72.062543
20
279.835629
11
73.781563
21
279.242839
0
LINE
8
boundary
62
5
39
2
10
73.781563
20
279.242839
11
74.486563
21
279.782738
0
LINE
8
boundary
62
5
39
2
10
74.486563
20
279.782738
11
74.486563
21
342.291083
0
LINE
8
boundary
62
5
39
2
10
74.486563
20
342.291083
11
78.932562
21
342.291083
0
LINE
8
boundary
62
5
39
2
10
78.932562
20
342.291083
11
78.932563
21
277.824367
0
LINE
8
boundary
62
5
39
2
10
78.932563
20
277.824367
11
79.637562
21
277.284468
0
LINE
8
boundary
62
5
39
2
10
79.637562
20
277.284468
11
82.707376
21
276.267491
0
LINE
8
boundary
62
5
39
2
10
82.707376
20
276.267491
11
84.057224
21
275.858832
0
LINE
8
boundary
62
5
39
2
10
84.057224
20
275.858832
11
89.367469
21
274.378961
0
LINE
8
boundary
62
5
39
2
10
89.367469
20
274.378961
11
90.702933
21
274.020828
0
LINE
8
boundary
62
5
39
2
10
90.702933
20
274.020828
11
91.700017
21
273.760430
0
LINE
8
boundary
62
5
39
2
10
91.700017
20
273.760430
11
96.533926
21
272.570500
0
LINE
8
boundary
62
5
39
2
10
96.533926
20
272.570500
11
97.340419
21
272.379741
0
LINE
8
boundary
62
5
39
2
10
97.340419
20
272.379741
11
102.842519
21
271.199779
0
LINE
8
boundary
62
5
39
2
10
102.842519
20
271.199779
11
104.195938
21
270.861203
0
LINE
8
boundary
62
5
39
2
10
104.195938
20
270.861203
11
107.382346
21
270.023612
0
LINE
8
boundary
62
5
39
2
10
107.382346
20
270.023612
11
109.144962
21
269.576465
0
LINE
8
boundary
62
5
39
2
10
109.144962
20
269.576465
11
111.645065
21
268.964589
0
LINE
8
boundary
62
5
39
2
10
111.645065
20
268.964589
11
113.617759
21
268.501489
0
LINE
8
boundary
62
5
39
2
10
113.617759
20
268.501489
11
116.972359
21
267.647221
0
LINE
8
boundary
62
5
39
2
10
116.972359
20
267.647221
11
119.780404
21
266.856097
0
LINE
8
boundary
62
5
39
2
10
119.780404
20
266.856097
11
122.048552
21
266.251195
0
LINE
8
boundary
62
5
39
2
10
122.048552
20
266.251195
11
125.545567
21
265.212696
0
LINE
8
boundary
62
5
39
2
10
125.545567
20
265.212696
11
126.366850
21
264.934676
0
LINE
8
boundary
62
5
39
2
10
126.366850
20
264.934676
11
127.071850
21
265.474576
0
LINE
8
boundary
62
5
39
2
10
127.071850
20
265.474576
11
127.071850
21
354.955113
0
LINE
8
boundary
62
5
39
2
10
127.071850
20
354.955113
11
131.517850
21
354.955113
0
LINE
8
boundary
62
5
39
2
10
131.517850
20
354.955113
11
131.517850
21
263.492203
0
LINE
8
boundary
62
5
39
2
10
131.517850
20
263.492203
11
132.222850
21
262.952304
0
LINE
8
boundary
62
5
39
2
10
132.222850
20
262.952304
11
133.398633
21
262.554278
0
LINE
8
boundary
62
5
39
2
10
133.398633
20
262.554278
11
135.001054
21
261.977761
0
LINE
8
boundary
62
5
39
2
10
135.001054
20
261.977761
11
136.149394
21
261.549981
0
LINE
8
boundary
62
5
39
2
10
136.149394
20
261.549981
11
138.716331
21
260.525102
0
LINE
8
boundary
62
5
39
2
10
138.716331
20
260.525102
11
141.452666
21
259.455538
0
LINE
8
boundary
62
5
39
2
10
141.452666
20
259.455538
11
142.209732
21
259.098029
0
LINE
8
boundary
62
5
39
2
10
142.209732
20
259.098029
11
143.605224
21
258.518035
0
LINE
8
boundary
62
5
39
2
10
143.605224
20
258.518035
11
144.640275
21
258.098473
0
LINE
8
boundary
62
5
39
2
10
144.640275
20
258.098473
11
147.829068
21
256.699272
0
LINE
8
boundary
62
5
39
2
10
147.829068
20
256.699272
11
150.269220
21
255.512588
0
LINE
8
boundary
62
5
39
2
10
150.269220
20
255.512588
11
154.617457
21
253.330355
0
LINE
8
boundary
62
5
39
2
10
154.617457
20
253.330355
11
158.217508
21
251.691686
0
LINE
8
boundary
62
5
39
2
10
158.217508
20
251.691686
11
160.412641
21
250.657335
0
LINE
8
boundary
62
5
39
2
10
160.412641
20
250.657335
11
162.799877
21
249.404130
0
LINE
8
boundary
62
5
39
2
10
162.799877
20
249.404130
11
165.286951
21
248.039519
0
LINE
8
boundary
62
5
39
2
10
165.286951
20
248.039519
11
166.085732
21
247.591174
0
LINE
8
boundary
62
5
39
2
10
166.085732
20
247.591174
11
168.275768
21
246.405409
0
LINE
8
boundary
62
5
39
2
10
168.275768
20
246.405409
11
172.138648
21
244.240559
0
LINE
8
boundary
62
5
39
2
10
172.138648
20
244.240559
11
172.689314
21
243.926052
0
LINE
8
boundary
62
5
39
2
10
172.689314
20
243.926052
11
173.899250
21
243.211385
0
LINE
8
boundary
62
5
39
2
10
173.899250
20
243.211385
11
176.155199
21
241.875656
0
LINE
8
boundary
62
5
39
2
10
176.155199
20
241.875656
11
178.952137
21
240.278148
0
LINE
8
boundary
62
5
39
2
10
178.952137
20
240.278148
11
179.657137
21
240.818048
0
LINE
8
boundary
62
5
39
2
10
179.657137
20
240.818048
11
179.657137
21
336.671533
0
LINE
8
boundary
62
5
39
2
10
179.657137
20
336.671533
11
184.103137
21
336.671533
0
LINE
8
boundary
62
5
39
2
10
184.103137
20
336.671533
11
184.103138
21
237.460627
0
LINE
8
boundary
62
5
39
2
10
184.103138
20
237.460627
11
184.808136
21
236.920728
0
LINE
8
boundary
62
5
39
2
10
184.808136
20
236.920728
11
187.025459
21
235.538302
0
LINE
8
boundary
62
5
39
2
10
187.025459
20
235.538302
11
189.522290
21
233.941724
0
LINE
8
boundary
62
5
39
2
10
189.522290
20
233.941724
11
191.722291
21
232.282236
0
LINE
8
boundary
62
5
39
2
10
191.722291
20
232.282236
11
196.704971
21
229.079823
0
LINE
8
boundary
62
5
39
2
10
196.704971
20
229.079823
11
201.079306
21
225.470678
0
LINE
8
boundary
62
5
39
2
10
201.079306
20
225.470678
11
202.103236
21
224.611772
0
LINE
8
boundary
62
5
39
2
10
202.103236
20
224.611772
11
202.901069
21
223.899217
0
LINE
8
boundary
62
5
39
2
10
202.901069
20
223.899217
11
204.595778
21
222.431651
0
LINE
8
boundary
62
5
39
2
10
204.595778
20
222.431651
11
207.286945
21
219.943479
0
LINE
8
boundary
62
5
39
2
10
207.286945
20
219.943479
11
210.599101
21
216.483178
0
LINE
8
boundary
62
5
39
2
10
210.599101
20
216.483178
11
211.663655
21
215.322055
0
LINE
8
boundary
62
5
39
2
10
211.663655
20
215.322055
11
212.024495
21
214.897372
0
LINE
8
boundary
62
5
39
2
10
212.024495
20
214.897372
11
212.741193
21
214.061101
0
LINE
8
boundary
62
5
39
2
10
212.741193
20
214.061101
11
216.440155
21
209.615844
0
LINE
8
boundary
62
5
39
2
10
216.440155
20
209.615844
11
218.303004
21
207.219768
0
LINE
8
boundary
62
5
39
2
10
218.303004
20
207.219768
11
220.544544
21
204.135884
0
LINE
8
boundary
62
5
39
2
10
220.544544
20
204.135884
11
221.301402
21
203.093883
0
LINE
8
boundary
62
5
39
2
10
221.301402
20
203.093883
11
223.632246
21
199.867751
0
LINE
8
boundary
62
5
39
2
10
223.632246
20
199.867751
11
224.522379
21
198.602498
0
LINE
8
boundary
62
5
39
2
10
224.522379
20
198.602498
11
226.287405
21
196.022086
0
LINE
8
boundary
62
5
39
2
10
226.287405
20
196.022086
11
228.324068
21
192.992890
0
LINE
8
boundary
62
5
39
2
10
228.324068
20
192.992890
11
230.803109
21
189.377928
0
LINE
8
boundary
62
5
39
2
10
230.803109
20
189.377928
11
231.537425
21
188.216670
0
LINE
8
boundary
62
5
39
2
10
231.537425
20
188.216670
11
232.242425
21
188.756570
0
LINE
8
boundary
62
5
39
2
10
232.242425
20
188.756570
11
232.242425
21
291.490761
0
LINE
8
boundary
62
5
39
2
10
232.242425
20
291.490761
11
236.688426
21
291.490761
0
LINE
8
boundary
62
5
39
2
10
236.688426
20
291.490761
11
236.688425
21
179.825188
0
LINE
8
boundary
62
5
39
2
10
236.688425
20
179.825188
11
237.756705
21
178.039940
0
LINE
8
boundary
62
5
39
2
10
237.756705
20
178.039940
11
238.172175
21
177.379122
0
LINE
8
boundary
62
5
39
2
10
238.172175
20
177.379122
11
238.994632
21
175.984772
0
LINE
8
boundary
62
5
39
2
10
238.994632
20
175.984772
11
241.744957
21
171.281892
0
LINE
8
boundary
62
5
39
2
10
241.744957
20
171.281892
11
242.081279
21
170.695447
0
LINE
8
boundary
62
5
39
2
10
242.081279
20
170.695447
11
242.492434
21
169.996096
0
LINE
8
boundary
62
5
39
2
10
242.492434
20
169.996096
11
243.650073
21
168.010931
0
LINE
8
boundary
62
5
39
2
10
243.650073
20
168.010931
11
245.604537
21
164.613817
0
LINE
8
boundary
62
5
39
2
10
245.604537
20
164.613817
11
248.208294
21
160.065193
0
LINE
8
boundary
62
5
39
2
10
248.208294
20
160.065193
11
248.819436
21
158.960228
0
LINE
8
boundary
62
5
39
2
10
248.819436
20
158.960228
11
249.579333
21
157.582344
0
LINE
8
boundary
62
5
39
2
10
249.579333
20
157.582344
11
250.613871
21
155.745908
0
LINE
8
boundary
62
5
39
2
10
250.613871
20
155.745908
11
251.965554
21
153.310005
0
LINE
8
boundary
62
5
39
2
10
251.965554
20
153.310005
11
252.407927
21
152.479427
0
LINE
8
boundary
62
5
39
2
10
252.407927
20
152.479427
11
252.896170
21
151.518673
0
LINE
8
boundary
62
5
39
2
10
252.896170
20
151.518673
11
253.730632
21
149.891221
0
LINE
8
boundary
62
5
39
2
10
253.730632
20
149.891221
11
254.566221
21
148.219718
0
LINE
8
boundary
62
5
39
2
10
254.566221
20
148.219718
11
254.858007
21
147.612770
0
LINE
8
boundary
62
5
39
2
10
254.858007
20
147.612770
11
255.938707
21
145.417197
0
LINE
8
boundary
62
5
39
2
10
255.938707
20
145.417197
11
256.908429
21
143.340831
0
LINE
8
boundary
62
5
39
2
10
256.908429
20
143.340831
11
257.630725
21
141.871021
0
LINE
8
boundary
62
5
39
2
10
257.630725
20
141.871021
11
261.484530
21
132.669824
0
LINE
8
boundary
62
5
39
2
10
261.484530
20
132.669824
11
262.483895
21
130.249017
0
LINE
8
boundary
62
5
39
2
10
262.483895
20
130.249017
11
262.934029
21
129.124404
0
LINE
8
boundary
62
5
39
2
10
262.934029
20
129.124404
11
263.360857
21
128.043855
0
LINE
8
boundary
62
5
39
2
10
263.360857
20
128.043855
11
264.773042
21
124.440025
0
LINE
8
boundary
62
5
39
2
10
264.773042
20
124.440025
11
266.400979
21
120.316391
0
LINE
8
boundary
62
5
39
2
10
266.400979
20
120.316391
11
266.672197
21
119.624188
0
LINE
8
boundary
62
5
39
2
10
266.672197
20
119.624188
11
266.930266
21
118.963485
0
LINE
8
boundary
62
5
39
2
10
266.930266
20
118.963485
11
267.415217
21
117.731969
0
LINE
8
boundary
62
5
39
2
10
267.415217
20
117.731969
11
269.348959
21
112.858139
0
LINE
8
boundary
62
5
39
2
10
269.348959
20
112.858139
11
271.115873
21
108.664100
0
LINE
8
boundary
62
5
39
2
10
271.115873
20
108.664100
11
271.766164
21
107.111666
0
LINE
8
boundary
62
5
39
2
10
271.766164
20
107.111666
11
272.364147
21
105.726526
0
LINE
8
boundary
62
5
39
2
10
272.364147
20
105.726526
11
276.597744
21
96.670959
0
LINE
8
boundary
62
5
39
2
10
276.597744
20
96.670959
11
277.003741
21
95.831392
0
LINE
8
boundary
62
5
39
2
10
277.003741
20
95.831392
11
277.358025
21
95.126741
0
LINE
8
boundary
62
5
39
2
10
277.358025
20
95.126741
11
281.499460
21
87.495273
0
LINE
8
boundary
62
5
39
2
10
281.499460
20
87.495273
11
282.811244
21
85.053059
0
LINE
8
boundary
62
5
39
2
10
282.811244
20
85.053059
11
284.122713
21
82.955519
0
LINE
8
boundary
62
5
39
2
10
284.122713
20
82.955519
11
284.827713
21
83.495419
0
LINE
8
boundary
62
5
39
2
10
284.827713
20
83.495419
11
284.827713
21
211.124729
0
LINE
8
boundary
62
5
39
2
10
284.827713
20
211.124729
11
289.273713
21
211.124729
0
LINE
8
boundary
62
5
39
2
10
289.273713
20
211.124729
11
289.273712
21
74.746115
0
LINE
8
boundary
62
5
39
2
10
289.273712
20
74.746115
11
289.656769
21
74.152475
0
LINE
8
boundary
62
5
39
2
10
289.656769
20
74.152475
11
289.978712
21
73.698094
0
LINE
8
boundary
62
5
39
2
10
289.978712
20
73.698094
11
290.901407
21
72.395831
0
LINE
8
boundary
62
5
39
2
10
290.901407
20
72.395831
11
295.236506
21
66.553949
0
LINE
8
boundary
62
5
39
2
10
295.236506
20
66.553949
11
297.253511
21
63.890608
0
LINE
8
boundary
62
5
39
2
10
297.253511
20
63.890608
11
300.144200
21
60.268188
0
LINE
8
boundary
62
5
39
2
10
300.144200
20
60.268188
11
302.099953
21
57.885633
0
LINE
8
boundary
62
5
39
2
10
302.099953
20
57.885633
11
302.707399
21
57.161986
0
LINE
8
boundary
62
5
39
2
10
302.707399
20
57.161986
11
305.484918
21
53.895464
0
LINE
8
boundary
62
5
39
2
10
305.484918
20
53.895464
11
306.834160
21
52.395281
0
LINE
8
boundary
62
5
39
2
10
306.834160
20
52.395281
11
307.602579
21
51.551043
0
LINE
8
boundary
62
5
39
2
10
307.602579
20
51.551043
11
309.428979
21
49.618166
0
LINE
8
boundary
62
5
39
2
10
309.428979
20
49.618166
11
310.638519
21
48.359417
0
LINE
8
boundary
62
5
39
2
10
310.638519
20
48.359417
11
311.827123
21
47.124990
0
LINE
8
boundary
62
5
39
2
10
311.827123
20
47.124990
11
313.488048
21
45.412073
0
LINE
8
boundary
62
5
39
2
10
313.488048
20
45.412073
11
314.516183
21
44.370089
0
LINE
8
boundary
62
5
39
2
10
314.516183
20
44.370089
11
315.209550
21
43.678839
0
LINE
8
boundary
62
5
39
2
10
315.209550
20
43.678839
11
315.701033
21
43.197694
0
LINE
8
boundary
62
5
39
2
10
315.701033
20
43.197694
11
317.182341
21
41.778561
0
LINE
8
boundary
62
5
39
2
10
317.182341
20
41.778561
11
322.393774
21
36.687099
0
LINE
8
boundary
62
5
39
2
10
322.393774
20
36.687099
11
324.071255
21
35.050382
0
LINE
8
boundary
62
5
39
2
10
324.071255
20
35.050382
11
325.181612
21
34.043844
0
LINE
8
boundary
62
5
39
2
10
325.181612
20
34.043844
11
330.414994
21
29.246547
0
LINE
8
boundary
62
5
39
2
10
330.414994
20
29.246547
11
333.477431
21
26.464888
0
LINE
8
boundary
62
5
39
2
10
333.477431
20
26.464888
11
334.102910
21
25.886692
0
LINE
8
boundary
62
5
39
2
10
334.102910
20
25.886692
11
335.095673
21
25.104317
0
LINE
8
boundary
62
5
39
2
10
335.095673
20
25.104317
11
336.708000
21
23.890043
0
LINE
8
boundary
62
5
39
2
10
336.708000
20
23.890043
11
337.413000
21
24.429942
0
LINE
8
boundary
62
5
39
2
10
337.413000
20
24.429942
11
337.413000
21
151.039731
0
LINE
8
boundary
62
5
39
2
10
337.413000
20
151.039731
11
341.859000
21
151.039732
0
LINE
8
boundary
62
5
39
2
10
341.859000
20
151.039732
11
341.859000
21
20.019677
0
LINE
8
boundary
62
5
39
2
10
341.859000
20
20.019677
11
342.563970
21
19.479800
0
LINE
8
boundary
62
5
39
2
10
342.563970
20
19.479800
11
344.497010
21
18.023990
0
LINE
8
boundary
62
5
39
2
10
344.497010
20
18.023990
11
345.100921
21
17.603480
0
LINE
8
boundary
62
5
39
2
10
345.100921
20
17.603480
11
345.649996
21
17.272194
0
LINE
8
boundary
62
5
39
2
10
345.649996
20
17.272194
11
346.569778
21
16.757495
0
LINE
8
boundary
62
5
39
2
10
346.569778
20
16.757495
11
349.318010
21
15.212052
0
LINE
8
boundary
62
5
39
2
10
349.318010
20
15.212052
11
352.190717
21
13.668354
0
LINE
8
boundary
62
5
39
2
10
352.190717
20
13.668354
11
354.393819
21
12.534004
0
LINE
8
boundary
62
5
39
2
10
354.393819
20
12.534004
11
357.024360
21
11.285236
0
LINE
8
boundary
62
5
39
2
10
357.024360
20
11.285236
11
359.090512
21
10.399779
0
LINE
8
boundary
62
5
39
2
10
359.090512
20
10.399779
11
362.196796
21
9.094502
0
LINE
8
boundary
62
5
39
2
10
362.196796
20
9.094502
11
363.644100
21
8.508659
0
LINE
8
boundary
62
5
39
2
10
363.644100
20
8.508659
11
369.076196
21
6.555805
0
LINE
8
boundary
62
5
39
2
10
369.076196
20
6.555805
11
373.668583
21
5.222052
0
LINE
8
boundary
62
5
39
2
10
373.668583
20
5.222052
11
376.895881
21
4.392326
0
LINE
8
boundary
62
5
39
2
10
376.895881
20
4.392326
11
381.258509
21
3.399050
0
LINE
8
boundary
62
5
39
2
10
381.258509
20
3.399050
11
385.389599
21
2.691564
0
LINE
8
boundary
62
5
39
2
10
385.389599
20
2.691564
11
389.293288
21
2.241069
0
LINE
8
boundary
62
5
39
2
10
389.293288
20
2.241069
11
389.998287
21
2.780968
0
LINE
8
boundary
62
5
39
2
10
389.998287
20
2.780968
11
389.998288
21
118.877277
0
LINE
8
boundary
62
5
39
2
10
389.998288
20
118.877277
11
394.444288
21
118.877277
0
LINE
8
boundary
62
5
39
2
10
394.444288
20
118.877277
11
394.444287
21
2.228937
0
LINE
8
boundary
62
5
39
2
10
394.444287
20
2.228937
11
395.149288
21
1.689037
0
LINE
8
boundary
62
5
39
2
10
395.149288
20
1.689037
11
397.765082
21
1.587500
0
LINE
8
boundary
62
5
39
2
10
397.765082
20
1.587500
11
402.674136
21
1.894735
0
LINE
8
boundary
62
5
39
2
10
402.674136
20
1.894735
11
405.270382
21
2.111803
0
LINE
8
boundary
62
5
39
2
10
405.270382
20
2.111803
11
406.344171
21
2.208742
0
LINE
8
boundary
62
5
39
2
10
406.344171
20
2.208742
11
408.138802
21
2.634962
0
LINE
8
boundary
62
5
39
2
10
408.138802
20
2.634962
11
409.659288
21
3.159634
0
LINE
8
boundary
62
5
39
2
10
409.659288
20
3.159634
11
412.770831
21
4.192279
0
LINE
8
boundary
62
5
39
2
10
412.770831
20
4.192279
11
417.228272
21
6.645604
0
LINE
8
boundary
62
5
39
2
10
417.228272
20
6.645604
11
417.994162
21
7.010262
0
LINE
8
boundary
62
5
39
2
10
417.994162
20
7.010262
11
418.565716
21
7.350305
0
LINE
8
boundary
62
5
39
2
10
418.565716
20
7.350305
11
419.011695
21
7.671342
0
LINE
8
boundary
62
5
39
2
10
419.011695
20
7.671342
11
424.401837
21
12.181006
0
LINE
8
boundary
62
5
39
2
10
424.401837
20
12.181006
11
426.502325
21
14.692933
0
LINE
8
boundary
62
5
39
2
10
426.502325
20
14.692933
11
427.673817
21
15.922243
0
LINE
8
boundary
62
5
39
2
10
427.673817
20
15.922243
11
429.499683
21
18.230242
0
LINE
8
boundary
62
5
39
2
10
429.499683
20
18.230242
11
432.204386
21
22.207347
0
LINE
8
boundary
62
5
39
2
10
432.204386
20
22.207347
11
434.788911
21
25.777654
0
LINE
8
boundary
62
5
39
2
10
434.788911
20
25.777654
11
437.256786
21
30.034586
0
LINE
8
boundary
62
5
39
2
10
437.256786
20
30.034586
11
438.116843
21
31.280566
0
LINE
8
boundary
62
5
39
2
10
438.116843
20
31.280566
11
439.707031
21
33.880994
0
LINE
8
boundary
62
5
39
2
10
439.707031
20
33.880994
11
441.878576
21
37.743056
0
LINE
8
boundary
62
5
39
2
10
441.878576
20
37.743056
11
442.583575
21
38.953425
0
LINE
8
boundary
62
5
39
2
10
442.583575
20
38.953425
11
442.583575
21
103.800513
0
LINE
8
boundary
62
5
39
2
10
442.583575
20
103.800513
11
447.029575
21
103.800513
0
LINE
8
boundary
62
5
39
2
10
447.029575
20
103.800513
11
447.029575
21
49.699343
0
LINE
8
boundary
62
5
39
2
10
447.029575
20
49.699343
11
447.734575
21
49.159442
0
LINE
8
boundary
62
5
39
2
10
447.734575
20
49.159442
11
449.326980
21
52.958942
0
LINE
8
boundary
62
5
39
2
10
449.326980
20
52.958942
11
450.142304
21
55.367881
0
LINE
8
boundary
62
5
39
2
10
450.142304
20
55.367881
11
452.333023
21
62.710368
0
LINE
8
boundary
62
5
39
2
10
452.333023
20
62.710368
11
452.804403
21
64.811681
0
LINE
8
boundary
62
5
39
2
10
452.804403
20
64.811681
11
453.189071
21
66.947751
0
LINE
8
boundary
62
5
39
2
10
453.189071
20
66.947751
11
454.132457
21
72.381119
0
LINE
8
boundary
62
5
39
2
10
454.132457
20
72.381119
11
454.589794
21
77.538825
0
LINE
8
boundary
62
5
39
2
10
454.589794
20
77.538825
11
455.089527
21
82.003806
0
LINE
8
boundary
62
5
39
2
10
455.089527
20
82.003806
11
455.258647
21
84.239492
0
LINE
8
boundary
62
5
39
2
10
455.258647
20
84.239492
11
455.323372
21
86.543123
0
LINE
8
boundary
62
5
39
2
10
455.323372
20
86.543123
11
455.384504
21
91.496055
0
LINE
8
boundary
62
5
39
2
10
455.384504
20
91.496055
11
455.389385
21
93.838339
0
LINE
8
boundary
62
5
39
2
10
455.389385
20
93.838339
11
455.116389
21
98.063959
0
LINE
8
boundary
62
5
39
2
10
455.116389
20
98.063959
11
454.899445
21
100.737547
0
LINE
8
boundary
62
5
39
2
10
454.899445
20
100.737547
11
454.572790
21
105.025516
0
LINE
8
boundary
62
5
39
2
10
454.572790
20
105.025516
11
454.513974
21
105.904630
0
LINE
8
boundary
62
5
39
2
10
454.513974
20
105.904630
11
454.099241
21
109.661338
0
LINE
8
boundary
62
5
39
2
10
454.099241
20
109.661338
11
454.045028
21
110.304560
0
LINE
8
boundary
62
5
39
2
10
454.045028
20
110.304560
11
453.825398
21
112.405102
0
LINE
8
boundary
62
5
39
2
10
453.825398
20
112.405102
11
453.030539
21
118.219778
0
LINE
8
boundary
62
5
39
2
10
453.030539
20
118.219778
11
452.810776
21
121.316032
0
LINE
8
boundary
62
5
39
2
10
452.810776
20
121.316032
11
452.426992
21
124.782877
0
LINE
8
boundary
62
5
39
2
10
452.426992
20
124.782877
11
452.191834
21
126.357086
0
LINE
8
boundary
62
5
39
2
10
452.191834
20
126.357086
11
451.733794
21
129.949575
0
LINE
8
boundary
62
5
39
2
10
451.733794
20
129.949575
11
450.999620
21
133.838082
0
LINE
8
boundary
62
5
39
2
10
450.999620
20
133.838082
11
450.474129
21
138.271492
0
LINE
8
boundary
62
5
39
2
10
450.474129
20
138.271492
11
450.008051
21
140.917153
0
LINE
8
boundary
62
5
39
2
10
450.008051
20
140.917153
11
449.432640
21
144.288214
0
LINE
8
boundary
62
5
39
2
10
449.432640
20
144.288214
11
448.977933
21
146.307915
0
LINE
8
boundary
62
5
39
2
10
448.977933
20
146.307915
11
447.692254
21
152.364606
0
LINE
8
boundary
62
5
39
2
10
447.692254
20
152.364606
11
447.382875
21
153.846868
0
LINE
8
boundary
62
5
39
2
10
447.382875
20
153.846868
11
445.749036
21
159.831954
0
LINE
8
boundary
62
5
39
2
10
445.749036
20
159.831954
11
445.414517
21
162.341829
0
LINE
8
boundary
62
5
39
2
10
445.414517
20
162.341829
11
444.646152
21
165.949234
0
LINE
8
boundary
62
5
39
2
10
444.646152
20
165.949234
11
444.310232
21
167.646621
0
LINE
8
boundary
62
5
39
2
10
444.310232
20
167.646621
11
443.492276
21
170.752972
0
LINE
8
boundary
62
5
39
2
10
443.492276
20
170.752972
11
442.607676
21
174.769399
0
LINE
8
boundary
62
5
39
2
10
442.607676
20
174.769399
11
441.834970
21
178.131428
0
LINE
8
boundary
62
5
39
2
10
441.834970
20
178.131428
11
441.465714
21
179.782064
0
LINE
8
boundary
62
5
39
2
10
441.465714
20
179.782064
11
439.940025
21
184.480185
0
LINE
8
boundary
62
5
39
2
10
439.940025
20
184.480185
11
439.191692
21
189.281992
0
LINE
8
boundary
62
5
39
2
10
439.191692
20
189.281992
11
438.730079
21
191.173137
0
LINE
8
boundary
62
5
39
2
10
438.730079
20
191.173137
11
437.402104
21
196.276222
0
LINE
8
boundary
62
5
39
2
10
437.402104
20
196.276222
11
436.802033
21
198.080479
0
LINE
8
boundary
62
5
39
2
10
436.802033
20
198.080479
11
436.639937
21
198.812220
0
LINE
8
boundary
62
5
39
2
10
436.639937
20
198.812220
11
436.303724
21
200.107273
0
LINE
8
boundary
62
5
39
2
10
436.303724
20
200.107273
11
434.629797
21
205.280308
0
LINE
8
boundary
62
5
39
2
10
434.629797
20
205.280308
11
433.825404
21
206.939024
0
LINE
8
boundary
62
5
39
2
10
433.825404
20
206.939024
11
433.347285
21
207.939711
0
LINE
8
boundary
62
5
39
2
10
433.347285
20
207.939711
11
431.753881
21
211.318382
0
LINE
8
boundary
62
5
39
2
10
431.753881
20
211.318382
11
429.369546
21
216.087301
0
LINE
8
boundary
62
5
39
2
10
429.369546
20
216.087301
11
428.817882
21
217.258169
0
LINE
8
boundary
62
5
39
2
10
428.817882
20
217.258169
11
427.542552
21
219.397815
0
LINE
8
boundary
62
5
39
2
10
427.542552
20
219.397815
11
427.071799
21
220.070731
0
LINE
8
boundary
62
5
39
2
10
427.071799
20
220.070731
11
426.649392
21
220.615392
0
LINE
8
boundary
62
5
39
2
10
426.649392
20
220.615392
11
426.158292
21
221.244086
0
LINE
8
boundary
62
5
39
2
10
426.158292
20
221.244086
11
425.368379
21
222.202068
0
LINE
8
boundary
62
5
39
2
10
425.368379
20
222.202068
11
424.368851
21
223.342325
0
LINE
8
boundary
62
5
39
2
10
424.368851
20
223.342325
11
423.283917
21
224.489241
0
LINE
8
boundary
62
5
39
2
10
423.283917
20
224.489241
11
422.633620
21
225.143388
0
LINE
8
boundary
62
5
39
2
10
422.633620
20
225.143388
11
421.197487
21
226.475552
0
LINE
8
boundary
62
5
39
2
10
421.197487
20
226.475552
11
420.397225
21
227.133123
0
LINE
8
boundary
62
5
39
2
10
420.397225
20
227.133123
11
419.332715
21
227.987520
0
LINE
8
boundary
62
5
39
2
10
419.332715
20
227.987520
11
417.886438
21
229.012734
0
LINE
8
boundary
62
5
39
2
10
417.886438
20
229.012734
11
416.451884
21
229.904905
0
LINE
8
boundary
62
5
39
2
10
416.451884
20
229.904905
11
415.962604
21
230.178753
0
LINE
8
boundary
62
5
39
2
10
415.962604
20
230.178753
11
414.902014
21
230.763659
0
LINE
8
boundary
62
5
39
2
10
414.902014
20
230.763659
11
414.341893
21
231.040289
0
LINE
8
boundary
62
5
39
2
10
414.341893
20
231.040289
11
413.157627
21
231.616422
0
LINE
8
boundary
62
5
39
2
10
413.157627
20
231.616422
11
412.375825
21
231.953927
0
LINE
8
boundary
62
5
39
2
10
412.375825
20
231.953927
11
411.244025
21
232.434677
0
LINE
8
boundary
62
5
39
2
10
411.244025
20
232.434677
11
410.157037
21
232.838987
0
LINE
8
boundary
62
5
39
2
10
410.157037
20
232.838987
11
409.193769
21
233.191579
0
LINE
8
boundary
62
5
39
2
10
409.193769
20
233.191579
11
408.566347
21
233.377904
0
LINE
8
boundary
62
5
39
2
10
408.566347
20
233.377904
11
407.636167
21
233.680015
0
LINE
8
boundary
62
5
39
2
10
407.636167
20
233.680015
11
407.044501
21
233.860897
0
LINE
8
boundary
62
5
39
2
10
407.044501
20
233.860897
11
404.833910
21
234.370267
0
LINE
8
boundary
62
5
39
2
10
404.833910
20
234.370267
11
403.796721
21
234.602175
0
LINE
8
boundary
62
5
39
2
10
403.796721
20
234.602175
11
403.161281
21
234.706468
0
LINE
8
boundary
62
5
39
2
10
403.161281
20
234.706468
11
400.513580
21
235.136778
0
LINE
8
boundary
62
5
39
2
10
400.513580
20
235.136778
11
398.638346
21
235.342973
0
LINE
8
boundary
62
5
39
2
10
398.638346
20
235.342973
11
393.716460
21
235.910793
0
LINE
8
boundary
62
5
39
2
10
393.716460
20
235.910793
11
391.838267
21
236.166406
0
LINE
8
boundary
62
5
39
2
10
391.838267
20
236.166406
11
387.606043
21
236.455635
0
LINE
8
boundary
62
5
39
2
10
387.606043
20
236.455635
11
383.641905
21
237.861678
0
LINE
8
boundary
62
5
39
2
10
383.641905
20
237.861678
11
382.294826
21
238.315667
0
LINE
8
boundary
62
5
39
2
10
382.294826
20
238.315667
11
381.260003
21
238.958499
0
LINE
8
boundary
62
5
39
2
10
381.260003
20
238.958499
11
377.460331
21
240.856077
0
LINE
8
boundary
62
5
39
2
10
377.460331
20
240.856077
11
373.464531
21
244.460106
0
LINE
8
boundary
62
5
39
2
10
373.464531
20
244.460106
11
373.076854
21
244.810714
0
LINE
8
boundary
62
5
39
2
10
373.076854
20
244.810714
11
371.764864
21
246.146133
0
LINE
8
boundary
62
5
39
2
10
371.764864
20
246.146133
11
365.765354
21
252.075265
0
LINE
8
boundary
62
5
39
2
10
365.765354
20
252.075265
11
365.043253
21
252.838795
0
LINE
8
boundary
62
5
39
2
10
365.043253
20
252.838795
11
364.085019
21
253.896830
0
LINE
8
boundary
62
5
39
2
10
364.085019
20
253.896830
11
358.647298
21
259.866559
0
LINE
8
boundary
62
5
39
2
10
358.647298
20
259.866559
11
356.940809
21
261.796892
0
LINE
8
boundary
62
5
39
2
10
356.940809
20
261.796892
11
354.571966
21
264.482353
0
LINE
8
boundary
62
5
39
2
10
354.571966
20
264.482353
11
352.772127
21
266.375089
0
LINE
8
boundary
62
5
39
2
10
352.772127
20
266.375089
11
351.512330
21
267.872906
0
LINE
8
boundary
62
5
39
2
10
351.512330
20
267.872906
11
348.643169
21
271.095576
0
LINE
8
boundary
62
5
39
2
10
348.643169
20
271.095576
11
344.486634
21
275.635217
0
LINE
8
boundary
62
5
39
2
10
344.486634
20
275.635217
11
343.776061
21
276.398064
0
LINE
8
boundary
62
5
39
2
10
343.776061
20
276.398064
11
339.957447
21
280.432236
0
LINE
8
boundary
62
5
39
2
10
339.957447
20
280.432236
11
338.705834
21
281.741793
0
LINE
8
boundary
62
5
39
2
10
338.705834
20
281.741793
11
338.240596
21
282.189402
0
LINE
8
boundary
62
5
39
2
10
338.240596
20
282.189402
11
336.817142
21
283.657201
0
LINE
8
boundary
62
5
39
2
10
336.817142
20
283.657201
11
335.381434
21
285.020770
0
LINE
8
boundary
62
5
39
2
10
335.381434
20
285.020770
11
333.254534
21
287.261233
0
LINE
8
boundary
62
5
39
2
10
333.254534
20
287.261233
11
330.897008
21
289.717985
0
LINE
8
boundary
62
5
39
2
10
330.897008
20
289.717985
11
330.008170
21
290.538530
0
LINE
8
boundary
62
5
39
2
10
330.008170
20
290.538530
11
329.319476
21
291.229487
0
LINE
8
boundary
62
5
39
2
10
329.319476
20
291.229487
11
323.175701
21
297.406278
0
LINE
8
boundary
62
5
39
2
10
323.175701
20
297.406278
11
321.896882
21
298.644962
0
LINE
8
boundary
62
5
39
2
10
321.896882
20
298.644962
11
321.034626
21
299.523810
0
LINE
8
boundary
62
5
39
2
10
321.034626
20
299.523810
11
317.704209
21
302.849233
0
LINE
8
boundary
62
5
39
2
10
317.704209
20
302.849233
11
316.961196
21
303.686992
0
LINE
8
boundary
62
5
39
2
10
316.961196
20
303.686992
11
314.921038
21
306.186097
0
LINE
8
boundary
62
5
39
2
10
314.921038
20
306.186097
11
312.661754
21
308.706940
0
LINE
8
boundary
62
5
39
2
10
312.661754
20
308.706940
11
308.618891
21
313.566949
0
LINE
8
boundary
62
5
39
2
10
308.618891
20
313.566949
11
308.025201
21
314.317804
0
LINE
8
boundary
62
5
39
2
10
308.025201
20
314.317804
11
304.325302
21
318.991993
0
LINE
8
boundary
62
5
39
2
10
304.325302
20
318.991993
11
302.207040
21
321.870658
0
LINE
8
boundary
62
5
39
2
10
302.207040
20
321.870658
11
297.134407
21
329.134090
0
LINE
8
boundary
62
5
39
2
10
297.134407
20
329.134090
11
296.687142
21
329.789197
0
LINE
8
boundary
62
5
39
2
10
296.687142
20
329.789197
11
293.068906
21
335.270764
0
LINE
8
boundary
62
5
39
2
10
293.068906
20
335.270764
11
291.106020
21
338.559899
0
LINE
8
boundary
62
5
39
2
10
291.106020
20
338.559899
11
289.646271
21
340.912331
0
LINE
8
boundary
62
5
39
2
10
289.646271
20
340.912331
11
288.533891
21
342.716846
0
LINE
8
boundary
62
5
39
2
10
288.533891
20
342.716846
11
286.918372
21
345.329974
0
LINE
8
boundary
62
5
39
2
10
286.918372
20
345.329974
11
285.849066
21
347.045211
0
LINE
8
boundary
62
5
39
2
10
285.849066
20
347.045211
11
284.686963
21
348.920302
0
LINE
8
boundary
62
5
39
2
10
284.686963
20
348.920302
11
284.400226
21
349.371989
0
LINE
8
boundary
62
5
39
2
10
284.400226
20
349.371989
11
282.746488
21
351.955046
0
LINE
8
boundary
62
5
39
2
10
282.746488
20
351.955046
11
281.357087
21
354.061331
0
LINE
8
boundary
62
5
39
2
10
281.357087
20
354.061331
11
280.530579
21
355.271497
0
LINE
8
boundary
62
5
39
2
10
280.530579
20
355.271497
11
276.390620
21
361.189635
0
LINE
8
boundary
62
5
39
2
10
276.390620
20
361.189635
11
275.426068
21
362.543295
0
LINE
8
boundary
62
5
39
2
10
275.426068
20
362.543295
11
274.931465
21
363.182553
0
LINE
8
boundary
62
5
39
2
10
274.931465
20
363.182553
11
273.502693
21
364.920840
0
LINE
8
boundary
62
5
39
2
10
273.502693
20
364.920840
11
268.871610
21
370.466035
0
LINE
8
boundary
62
5
39
2
10
268.871610
20
370.466035
11
268.148521
21
371.284017
0
LINE
8
boundary
62
5
39
2
10
268.148521
20
371.284017
11
267.163549
21
372.378243
0
LINE
8
boundary
62
5
39
2
10
267.163549
20
372.378243
11
265.734440
21
373.958049
0
LINE
8
boundary
62
5
39
2
10
265.734440
20
373.958049
11
263.432374
21
376.485016
0
LINE
8
boundary
62
5
39
2
10
263.432374
20
376.485016
11
262.849851
21
377.121041
0
LINE
8
boundary
62
5
39
2
10
262.849851
20
377.121041
11
261.900343
21
378.150290
0
LINE
8
boundary
62
5
39
2
10
261.900343
20
378.150290
11
259.852309
21
380.215783
0
LINE
8
boundary
62
5
39
2
10
259.852309
20
380.215783
11
258.384971
21
381.673143
0
LINE
8
boundary
62
5
39
2
10
258.384971
20
381.673143
11
257.732732
21
382.301577
0
LINE
8
boundary
62
5
39
2
10
257.732732
20
382.301577
11
257.026462
21
382.918565
0
LINE
8
boundary
62
5
39
2
10
257.026462
20
382.918565
11
255.357840
21
384.264495
0
LINE
8
boundary
62
5
39
2
10
255.357840
20
384.264495
11
249.237968
21
389.780796
0
LINE
8
boundary
62
5
39
2
10
249.237968
20
389.780796
11
248.369045
21
390.460157
0
LINE
8
boundary
62
5
39
2
10
248.369045
20
390.460157
11
242.187535
21
395.236053
0
LINE
8
boundary
62
5
39
2
10
242.187535
20
395.236053
11
239.225216
21
397.454240
0
LINE
8
boundary
62
5
39
2
10
239.225216
20
397.454240
11
237.006220
21
399.110112
0
LINE
8
boundary
62
5
39
2
10
237.006220
20
399.110112
11
235.482940
21
400.200421
0
LINE
8
boundary
62
5
39
2
10
235.482940
20
400.200421
11
233.071643
21
401.909916
0
LINE
8
boundary
62
5
39
2
10
233.071643
20
401.909916
11
229.668686
21
404.406103
0
LINE
8
boundary
62
5
39
2
10
229.668686
20
404.406103
11
227.957992
21
405.557417
0
LINE
8
boundary
62
5
39
2
10
227.957992
20
405.557417
11
222.491826
21
409.669844
0
LINE
8
boundary
62
5
39
2
10
222.491826
20
409.669844
11
221.580842
21
410.319974
0
LINE
8
boundary
62
5
39
2
10
221.580842
20
410.319974
11
220.941466
21
410.768960
0
LINE
8
boundary
62
5
39
2
10
220.941466
20
410.768960
11
220.509443
21
411.115416
0
LINE
8
boundary
62
5
39
2
10
220.509443
20
411.115416
11
217.241411
21
413.468219
0
LINE
8
boundary
62
5
39
2
10
217.241411
20
413.468219
11
213.795694
21
415.926661
0
LINE
8
boundary
62
5
39
2
10
213.795694
20
415.926661
11
212.386600
21
417.030987
0
LINE
8
boundary
62
5
39
2
10
212.386600
20
417.030987
11
211.498351
21
417.673461
0
LINE
8
boundary
62
5
39
2
10
211.498351
20
417.673461
11
208.930763
21
419.466329
0
LINE
8
boundary
62
5
39
2
10
208.930763
20
419.466329
11
206.147591
21
421.393980
0
LINE
8
boundary
62
5
39
2
10
206.147591
20
421.393980
11
204.458872
21
422.525730
0
LINE
8
boundary
62
5
39
2
10
204.458872
20
422.525730
11
202.171031
21
424.026773
0
LINE
8
boundary
62
5
39
2
10
202.171031
20
424.026773
11
199.481766
21
425.720052
0
LINE
8
boundary
62
5
39
2
10
199.481766
20
425.720052
11
194.856655
21
428.489028
0
LINE
8
boundary
62
5
39
2
10
194.856655
20
428.489028
11
191.943038
21
430.195532
0
LINE
8
boundary
62
5
39
2
10
191.943038
20
430.195532
11
190.826009
21
430.809746
0
LINE
8
boundary
62
5
39
2
10
190.826009
20
430.809746
11
189.832943
21
431.326982
0
LINE
8
boundary
62
5
39
2
10
189.832943
20
431.326982
11
181.582322
21
435.569206
0
LINE
8
boundary
62
5
39
2
10
181.582322
20
435.569206
11
180.471953
21
436.142990
0
LINE
8
boundary
62
5
39
2
10
180.471953
20
436.142990
11
179.849547
21
436.442647
0
LINE
8
annotation
62
1
39
211
10
20.364275
20
350.428224
11
27.884275
21
350.428224
0
LINE
8
annotation
62
1
39
211
10
27.884275
20
350.428224
11
26.212011
21
352.100016
0
LINE
8
annotation
62
1
39
211
10
72.949501
20
350.149120
11
72.949501
21
353.488932
0
LINE
8
annotation
62
1
39
211
10
72.949501
20
353.488932
11
77.917719
21
350.402837
0
LINE
8
annotation
62
1
39
211
10
77.917719
20
350.402837
11
77.917719
21
350.402837
0
LINE
8
annotation
62
1
39
211
10
77.917719
20
350.402837
11
77.922284
21
350.399147
0
LINE
8
annotation
62
1
39
211
10
77.922284
20
350.399147
11
77.926888
21
350.395609
0
LINE
8
annotation
62
1
39
211
10
77.926888
20
350.395609
11
77.931570
21
350.392200
0
LINE
8
annotation
62
1
39
211
10
77.931570
20
350.392200
11
77.936368
21
350.388895
0
LINE
8
annotation
62
1
39
211
10
77.936368
20
350.388895
11
77.941321
21
350.385671
0
LINE
8
annotation
62
1
39
211
10
77.941321
20
350.385671
11
77.946469
21
350.382506
0
LINE
8
annotation
62
1
39
211
10
77.946469
20
350.382506
11
77.951849
21
350.379375
0
LINE
8
annotation
62
1
39
211
10
77.951849
20
350.379375
11
77.957501
21
350.376257
0
LINE
8
annotation
62
1
39
211
10
77.957501
20
350.376257
11
77.963464
21
350.373126
0
LINE
8
annotation
62
1
39
211
10
77.963464
20
350.373126
11
77.963464
21
350.373126
0
LINE
8
annotation
62
1
39
211
10
77.963464
20
350.373126
11
78.237054
21
350.245702
0
LINE
8
annotation
62
1
39
211
10
78.237054
20
350.245702
11
78.520655
21
350.171263
0
LINE
8
annotation
62
1
39
211
10
78.520655
20
350.171263
11
78.807857
21
350.147985
0
LINE
8
annotation
62
1
39
211
10
78.807857
20
350.147985
11
79.092253
21
350.174043
0
LINE
8
annotation
62
1
39
211
10
79.092253
20
350.174043
11
79.367435
21
350.247614
0
LINE
8
annotation
62
1
39
211
10
79.367435
20
350.247614
11
79.626994
21
350.366873
0
LINE
8
annotation
62
1
39
211
10
79.626994
20
350.366873
11
79.864522
21
350.529996
0
LINE
8
annotation
62
1
39
211
10
79.864522
20
350.529996
11
80.073612
21
350.735159
0
LINE
8
annotation
62
1
39
211
10
80.073612
20
350.735159
11
80.247853
21
350.980536
0
LINE
8
annotation
62
1
39
211
10
80.247853
20
350.980536
11
80.247853
21
350.980536
0
LINE
8
annotation
62
1
39
211
10
80.247853
20
350.980536
11
80.373467
21
351.254887
0
LINE
8
annotation
62
1
39
211
10
80.373467
20
351.254887
11
80.446759
21
351.538923
0
LINE
8
annotation
62
1
39
211
10
80.446759
20
351.538923
11
80.469379
21
351.826292
0
LINE
8
annotation
62
1
39
211
10
80.469379
20
351.826292
11
80.442977
21
352.110646
0
LINE
8
annotation
62
1
39
211
10
80.442977
20
352.110646
11
80.369203
21
352.385634
0
LINE
8
annotation
62
1
39
211
10
80.369203
20
352.385634
11
80.249705
21
352.644905
0
LINE
8
annotation
62
1
39
211
10
80.249705
20
352.644905
11
80.086134
21
352.882111
0
LINE
8
annotation
62
1
39
211
10
80.086134
20
352.882111
11
79.880139
21
353.090902
0
LINE
8
annotation
62
1
39
211
10
79.880139
20
353.090902
11
79.633369
21
353.264926
0
LINE
8
annotation
62
1
39
211
10
79.633369
20
353.264926
11
79.212710
21
353.484216
0
LINE
8
annotation
62
1
39
211
10
125.535086
20
366.152962
11
125.535086
21
364.483056
0
LINE
8
annotation
62
1
39
211
10
125.535086
20
364.483056
11
125.535086
21
364.483056
0
LINE
8
annotation
62
1
39
211
10
125.535086
20
364.483056
11
125.562028
21
364.182720
0
LINE
8
annotation
62
1
39
211
10
125.562028
20
364.182720
11
125.639677
21
363.900113
0
LINE
8
annotation
62
1
39
211
10
125.639677
20
363.900113
11
125.763266
21
363.639938
0
LINE
8
annotation
62
1
39
211
10
125.763266
20
363.639938
11
125.928030
21
363.406893
0
LINE
8
annotation
62
1
39
211
10
125.928030
20
363.406893
11
126.129201
21
363.205680
0
LINE
8
annotation
62
1
39
211
10
126.129201
20
363.205680
11
126.362013
21
363.040999
0
LINE
8
annotation
62
1
39
211
10
126.362013
20
363.040999
11
126.621700
21
362.917550
0
LINE
8
annotation
62
1
39
211
10
126.621700
20
362.917550
11
126.903496
21
362.840034
0
LINE
8
annotation
62
1
39
211
10
126.903496
20
362.840034
11
127.202634
21
362.813150
0
LINE
8
annotation
62
1
39
211
10
127.202634
20
362.813150
11
128.038766
21
362.813150
0
LINE
8
annotation
62
1
39
211
10
128.038766
20
362.813150
11
128.038766
21
362.813150
0
LINE
8
annotation
62
1
39
211
10
128.038766
20
362.813150
11
128.337779
21
362.840034
0
LINE
8
annotation
62
1
39
211
10
128.337779
20
362.840034
11
128.619509
21
362.917550
0
LINE
8
annotation
62
1
39
211
10
128.619509
20
362.917550
11
128.879177
21
363.040999
0
LINE
8
annotation
62
1
39
211
10
128.879177
20
363.040999
11
129.112005
21
363.205680
0
LINE
8
annotation
62
1
39
211
10
129.112005
20
363.205680
11
129.313215
21
363.406893
0
LINE
8
annotation
62
1
39
211
10
129.313215
20
363.406893
11
129.478028
21
363.639938
0
LINE
8
annotation
62
1
39
211
10
129.478028
20
363.639938
11
129.601668
21
363.900113
0
LINE
8
annotation
62
1
39
211
10
129.601668
20
363.900113
11
129.679356
21
364.182720
0
LINE
8
annotation
62
1
39
211
10
129.679356
20
364.182720
11
129.706314
21
364.483056
0
LINE
8
annotation
62
1
39
211
10
129.706314
20
364.483056
11
129.706314
21
365.319188
0
LINE
8
annotation
62
1
39
211
10
129.706314
20
365.319188
11
129.706314
21
364.483056
0
LINE
8
annotation
62
1
39
211
10
129.706314
20
364.483056
11
129.706314
21
364.483056
0
LINE
8
annotation
62
1
39
211
10
129.706314
20
364.483056
11
129.733278
21
364.182720
0
LINE
8
annotation
62
1
39
211
10
129.733278
20
364.182720
11
129.811011
21
363.900113
0
LINE
8
annotation
62
1
39
211
10
129.811011
20
363.900113
11
129.934774
21
363.639938
0
LINE
8
annotation
62
1
39
211
10
129.934774
20
363.639938
11
130.099827
21
363.406893
0
LINE
8
annotation
62
1
39
211
10
130.099827
20
363.406893
11
130.301431
21
363.205680
0
LINE
8
annotation
62
1
39
211
10
130.301431
20
363.205680
11
130.534848
21
363.040999
0
LINE
8
annotation
62
1
39
211
10
130.534848
20
363.040999
11
130.795337
21
362.917550
0
LINE
8
annotation
62
1
39
211
10
130.795337
20
362.917550
11
131.078160
21
362.840034
0
LINE
8
annotation
62
1
39
211
10
131.078160
20
362.840034
11
131.378578
21
362.813150
0
LINE
8
annotation
62
1
39
211
10
131.378578
20
362.813150
11
131.378578
21
362.813150
0
LINE
8
annotation
62
1
39
211
10
131.378578
20
362.813150
11
131.677591
21
362.840034
0
LINE
8
annotation
62
1
39
211
10
131.677591
20
362.840034
11
131.959321
21
362.917550
0
LINE
8
annotation
62
1
39
211
10
131.959321
20
362.917550
11
132.218989
21
363.040999
0
LINE
8
annotation
62
1
39
211
10
132.218989
20
363.040999
11
132.451817
21
363.205680
0
LINE
8
annotation
62
1
39
211
10
132.451817
20
363.205680
11
132.653027
21
363.406893
0
LINE
8
annotation
62
1
39
211
10
132.653027
20
363.406893
11
132.817840
21
363.639938
0
LINE
8
annotation
62
1
39
211
10
132.817840
20
363.639938
11
132.941480
21
363.900113
0
LINE
8
annotation
62
1
39
211
10
132.941480
20
363.900113
11
133.019168
21
364.182720
0
LINE
8
annotation
62
1
39
211
10
133.019168
20
364.182720
11
133.046126
21
364.483056
0
LINE
8
annotation
62
1
39
211
10
133.046126
20
364.483056
11
133.046126
21
366.152962
0
LINE
8
annotation
62
1
39
211
10
179.791930
20
344.111740
11
179.791930
21
348.287212
0
LINE
8
annotation
62
1
39
211
10
179.791930
20
348.287212
11
185.640138
21
346.619664
0
LINE
8
annotation
62
1
39
211
10
178.120138
20
345.363344
11
181.459949
21
345.363344
0
LINE
8
annotation
62
1
39
211
10
230.705425
20
302.688610
11
230.705425
21
301.018704
0
LINE
8
annotation
62
1
39
211
10
230.705425
20
301.018704
11
230.705425
21
301.018704
0
LINE
8
annotation
62
1
39
211
10
230.705425
20
301.018704
11
230.732373
21
300.718989
0
LINE
8
annotation
62
1
39
211
10
230.732373
20
300.718989
11
230.810063
21
300.436712
0
LINE
8
annotation
62
1
39
211
10
230.810063
20
300.436712
11
230.933763
21
300.176634
0
LINE
8
annotation
62
1
39
211
10
230.933763
20
300.176634
11
231.098742
21
299.943512
0
LINE
8
annotation
62
1
39
211
10
231.098742
20
299.943512
11
231.300268
21
299.742105
0
LINE
8
annotation
62
1
39
211
10
231.300268
20
299.742105
11
231.533610
21
299.577171
0
LINE
8
annotation
62
1
39
211
10
231.533610
20
299.577171
11
231.794036
21
299.453470
0
LINE
8
annotation
62
1
39
211
10
231.794036
20
299.453470
11
232.076816
21
299.375759
0
LINE
8
annotation
62
1
39
211
10
232.076816
20
299.375759
11
232.377217
21
299.348798
0
LINE
8
annotation
62
1
39
211
10
232.377217
20
299.348798
11
233.209105
21
299.348798
0
LINE
8
annotation
62
1
39
211
10
233.209105
20
299.348798
11
233.209105
21
299.348798
0
LINE
8
annotation
62
1
39
211
10
233.209105
20
299.348798
11
233.509361
21
299.375744
0
LINE
8
annotation
62
1
39
211
10
233.509361
20
299.375744
11
233.791750
21
299.453415
0
LINE
8
annotation
62
1
39
211
10
233.791750
20
299.453415
11
234.051612
21
299.577066
0
LINE
8
annotation
62
1
39
211
10
234.051612
20
299.577066
11
234.284285
21
299.741949
0
LINE
8
annotation
62
1
39
211
10
234.284285
20
299.741949
11
234.485106
21
299.943318
0
LINE
8
annotation
62
1
39
211
10
234.485106
20
299.943318
11
234.649416
21
300.176424
0
LINE
8
annotation
62
1
39
211
10
234.649416
20
300.176424
11
234.772551
21
300.436522
0
LINE
8
annotation
62
1
39
211
10
234.772551
20
300.436522
11
234.849851
21
300.718865
0
LINE
8
annotation
62
1
39
211
10
234.849851
20
300.718865
11
234.876653
21
301.018704
0
LINE
8
annotation
62
1
39
211
10
234.876653
20
301.018704
11
234.876653
21
302.688610
0
LINE
8
annotation
62
1
39
211
10
234.876653
20
302.688610
11
238.225425
21
302.688610
0
LINE
8
annotation
62
1
39
211
10
238.225425
20
302.688610
11
238.225425
21
299.348798
0
LINE
8
annotation
62
1
39
211
10
290.810713
20
219.814182
11
290.810713
21
219.814182
0
LINE
8
annotation
62
1
39
211
10
290.810713
20
219.814182
11
290.631347
21
220.292568
0
LINE
8
annotation
62
1
39
211
10
290.631347
20
220.292568
11
290.389672
21
220.731550
0
LINE
8
annotation
62
1
39
211
10
290.389672
20
220.731550
11
290.091745
21
221.126621
0
LINE
8
annotation
62
1
39
211
10
290.091745
20
221.126621
11
289.743619
21
221.473276
0
LINE
8
annotation
62
1
39
211
10
289.743619
20
221.473276
11
289.351350
21
221.767008
0
LINE
8
annotation
62
1
39
211
10
289.351350
20
221.767008
11
288.920993
21
222.003310
0
LINE
8
annotation
62
1
39
211
10
288.920993
20
222.003310
11
288.458602
21
222.177677
0
LINE
8
annotation
62
1
39
211
10
288.458602
20
222.177677
11
287.970233
21
222.285601
0
LINE
8
annotation
62
1
39
211
10
287.970233
20
222.285601
11
287.461940
21
222.322578
0
LINE
8
annotation
62
1
39
211
10
287.461940
20
222.322578
11
284.962505
21
222.322578
0
LINE
8
annotation
62
1
39
211
10
284.962505
20
222.322578
11
284.962505
21
222.322578
0
LINE
8
annotation
62
1
39
211
10
284.962505
20
222.322578
11
284.662104
21
222.295617
0
LINE
8
annotation
62
1
39
211
10
284.662104
20
222.295617
11
284.379324
21
222.217906
0
LINE
8
annotation
62
1
39
211
10
284.379324
20
222.217906
11
284.118897
21
222.094205
0
LINE
8
annotation
62
1
39
211
10
284.118897
20
222.094205
11
283.885555
21
221.929271
0
LINE
8
annotation
62
1
39
211
10
283.885555
20
221.929271
11
283.684029
21
221.727864
0
LINE
8
annotation
62
1
39
211
10
283.684029
20
221.727864
11
283.519050
21
221.494742
0
LINE
8
annotation
62
1
39
211
10
283.519050
20
221.494742
11
283.395350
21
221.234664
0
LINE
8
annotation
62
1
39
211
10
283.395350
20
221.234664
11
283.317661
21
220.952387
0
LINE
8
annotation
62
1
39
211
10
283.317661
20
220.952387
11
283.290713
21
220.652672
0
LINE
8
annotation
62
1
39
211
10
283.290713
20
220.652672
11
283.290713
21
220.652672
0
LINE
8
annotation
62
1
39
211
10
283.290713
20
220.652672
11
283.317661
21
220.352335
0
LINE
8
annotation
62
1
39
211
10
283.317661
20
220.352335
11
283.395350
21
220.069729
0
LINE
8
annotation
62
1
39
211
10
283.395350
20
220.069729
11
283.519050
21
219.809553
0
LINE
8
annotation
62
1
39
211
10
283.519050
20
219.809553
11
283.684029
21
219.576509
0
LINE
8
annotation
62
1
39
211
10
283.684029
20
219.576509
11
283.885555
21
219.375296
0
LINE
8
annotation
62
1
39
211
10
283.885555
20
219.375296
11
284.118897
21
219.210614
0
LINE
8
annotation
62
1
39
211
10
284.118897
20
219.210614
11
284.379324
21
219.087165
0
LINE
8
annotation
62
1
39
211
10
284.379324
20
219.087165
11
284.662104
21
219.009649
0
LINE
8
annotation
62
1
39
211
10
284.662104
20
219.009649
11
284.962505
21
218.982766
0
LINE
8
annotation
62
1
39
211
10
284.962505
20
218.982766
11
285.794393
21
218.982766
0
LINE
8
annotation
62
1
39
211
10
285.794393
20
218.982766
11
285.794393
21
218.982766
0
LINE
8
annotation
62
1
39
211
10
285.794393
20
218.982766
11
286.094648
21
219.009649
0
LINE
8
annotation
62
1
39
211
10
286.094648
20
219.009649
11
286.377038
21
219.087165
0
LINE
8
annotation
62
1
39
211
10
286.377038
20
219.087165
11
286.636900
21
219.210614
0
LINE
8
annotation
62
1
39
211
10
286.636900
20
219.210614
11
286.869572
21
219.375296
0
LINE
8
annotation
62
1
39
211
10
286.869572
20
219.375296
11
287.070394
21
219.576509
0
LINE
8
annotation
62
1
39
211
10
287.070394
20
219.576509
11
287.234703
21
219.809553
0
LINE
8
annotation
62
1
39
211
10
287.234703
20
219.809553
11
287.357838
21
220.069729
0
LINE
8
annotation
62
1
39
211
10
287.357838
20
220.069729
11
287.435138
21
220.352335
0
LINE
8
annotation
62
1
39
211
10
287.435138
20
220.352335
11
287.461940
21
220.652672
0
LINE
8
annotation
62
1
39
211
10
287.461940
20
220.652672
11
287.461940
21
222.322578
0
LINE
8
annotation
62
1
39
211
10
282.350713
20
222.531728
11
282.350713
21
218.771728
0
LINE
8
annotation
62
1
39
211
10
335.876000
20
160.567674
11
343.396000
21
158.895882
0
LINE
8
annotation
62
1
39
211
10
343.396000
20
158.895882
11
343.396000
21
162.239938
0
LINE
8
annotation
62
1
39
211
10
340.047228
20
158.895882
11
340.047228
21
160.567674
0
LINE
8
annotation
62
1
39
211
10
390.128600
20
130.075126
11
390.128600
21
130.075126
0
LINE
8
annotation
62
1
39
211
10
390.128600
20
130.075126
11
389.828344
21
130.048165
0
LINE
8
annotation
62
1
39
211
10
389.828344
20
130.048165
11
389.545954
21
129.970454
0
LINE
8
annotation
62
1
39
211
10
389.545954
20
129.970454
11
389.286093
21
129.846753
0
LINE
8
annotation
62
1
39
211
10
389.286093
20
129.846753
11
389.053420
21
129.681819
0
LINE
8
annotation
62
1
39
211
10
389.053420
20
129.681819
11
388.852598
21
129.480412
0
LINE
8
annotation
62
1
39
211
10
388.852598
20
129.480412
11
388.688289
21
129.247290
0
LINE
8
annotation
62
1
39
211
10
388.688289
20
129.247290
11
388.565154
21
128.987212
0
LINE
8
annotation
62
1
39
211
10
388.565154
20
128.987212
11
388.487854
21
128.704935
0
LINE
8
annotation
62
1
39
211
10
388.487854
20
128.704935
11
388.461052
21
128.405220
0
LINE
8
annotation
62
1
39
211
10
388.461052
20
128.405220
11
388.461052
21
128.405220
0
LINE
8
annotation
62
1
39
211
10
388.461052
20
128.405220
11
388.487854
21
128.105504
0
LINE
8
annotation
62
1
39
211
10
388.487854
20
128.105504
11
388.565154
21
127.823228
0
LINE
8
annotation
62
1
39
211
10
388.565154
20
127.823228
11
388.688289
21
127.563149
0
LINE
8
annotation
62
1
39
211
10
388.688289
20
127.563149
11
388.852598
21
127.330027
0
LINE
8
annotation
62
1
39
211
10
388.852598
20
127.330027
11
389.053420
21
127.128620
0
LINE
8
annotation
62
1
39
211
10
389.053420
20
127.128620
11
389.286093
21
126.963686
0
LINE
8
annotation
62
1
39
211
10
389.286093
20
126.963686
11
389.545954
21
126.839985
0
LINE
8
annotation
62
1
39
211
10
389.545954
20
126.839985
11
389.828344
21
126.762275
0
LINE
8
annotation
62
1
39
211
10
389.828344
20
126.762275
11
390.128600
21
126.735314
0
LINE
8
annotation
62
1
39
211
10
390.128600
20
126.735314
11
390.960487
21
126.735314
0
LINE
8
annotation
62
1
39
211
10
390.960487
20
126.735314
11
390.960487
21
126.735314
0
LINE
8
annotation
62
1
39
211
10
390.960487
20
126.735314
11
391.260889
21
126.762259
0
LINE
8
annotation
62
1
39
211
10
391.260889
20
126.762259
11
391.543668
21
126.839931
0
LINE
8
annotation
62
1
39
211
10
391.543668
20
126.839931
11
391.804095
21
126.963582
0
LINE
8
annotation
62
1
39
211
10
391.804095
20
126.963582
11
392.037437
21
127.128465
0
LINE
8
annotation
62
1
39
211
10
392.037437
20
127.128465
11
392.238963
21
127.329833
0
LINE
8
annotation
62
1
39
211
10
392.238963
20
127.329833
11
392.403942
21
127.562940
0
LINE
8
annotation
62
1
39
211
10
392.403942
20
127.562940
11
392.527642
21
127.823038
0
LINE
8
annotation
62
1
39
211
10
392.527642
20
127.823038
11
392.605332
21
128.105380
0
LINE
8
annotation
62
1
39
211
10
392.605332
20
128.105380
11
392.632280
21
128.405220
0
LINE
8
annotation
62
1
39
211
10
392.632280
20
128.405220
11
392.632280
21
128.405220
0
LINE
8
annotation
62
1
39
211
10
392.632280
20
128.405220
11
392.605316
21
128.705059
0
LINE
8
annotation
62
1
39
211
10
392.605316
20
128.705059
11
392.527588
21
128.987402
0
LINE
8
annotation
62
1
39
211
10
392.527588
20
128.987402
11
392.403837
21
129.247500
0
LINE
8
annotation
62
1
39
211
10
392.403837
20
129.247500
11
392.238808
21
129.480606
0
LINE
8
annotation
62
1
39
211
10
392.238808
20
129.480606
11
392.037243
21
129.681975
0
LINE
8
annotation
62
1
39
211
10
392.037243
20
129.681975
11
391.803885
21
129.846858
0
LINE
8
annotation
62
1
39
211
10
391.803885
20
129.846858
11
391.543478
21
129.970509
0
LINE
8
annotation
62
1
39
211
10
391.543478
20
129.970509
11
391.260764
21
130.048180
0
LINE
8
annotation
62
1
39
211
10
391.260764
20
130.048180
11
390.960487
21
130.075126
0
LINE
8
annotation
62
1
39
211
10
390.960487
20
130.075126
11
390.128600
21
130.075126
0
LINE
8
annotation
62
1
39
211
10
394.304544
20
126.735314
11
394.304544
21
126.735314
0
LINE
8
annotation
62
1
39
211
10
394.304544
20
126.735314
11
394.603557
21
126.762259
0
LINE
8
annotation
62
1
39
211
10
394.603557
20
126.762259
11
394.885287
21
126.839931
0
LINE
8
annotation
62
1
39
211
10
394.885287
20
126.839931
11
395.144955
21
126.963582
0
LINE
8
annotation
62
1
39
211
10
395.144955
20
126.963582
11
395.377783
21
127.128465
0
LINE
8
annotation
62
1
39
211
10
395.377783
20
127.128465
11
395.578992
21
127.329833
0
LINE
8
annotation
62
1
39
211
10
395.578992
20
127.329833
11
395.743806
21
127.562940
0
LINE
8
annotation
62
1
39
211
10
395.743806
20
127.562940
11
395.867446
21
127.823038
0
LINE
8
annotation
62
1
39
211
10
395.867446
20
127.823038
11
395.945134
21
128.105380
0
LINE
8
annotation
62
1
39
211
10
395.945134
20
128.105380
11
395.972092
21
128.405220
0
LINE
8
annotation
62
1
39
211
10
395.972092
20
128.405220
11
395.972092
21
128.405220
0
LINE
8
annotation
62
1
39
211
10
395.972092
20
128.405220
11
395.945134
21
128.705059
0
LINE
8
annotation
62
1
39
211
10
395.945134
20
128.705059
11
395.867446
21
128.987402
0
LINE
8
annotation
62
1
39
211
10
395.867446
20
128.987402
11
395.743806
21
129.247500
0
LINE
8
annotation
62
1
39
211
10
395.743806
20
129.247500
11
395.578992
21
129.480606
0
LINE
8
annotation
62
1
39
211
10
395.578992
20
129.480606
11
395.377783
21
129.681975
0
LINE
8
annotation
62
1
39
211
10
395.377783
20
129.681975
11
395.144955
21
129.846858
0
LINE
8
annotation
62
1
39
211
10
395.144955
20
129.846858
11
394.885287
21
129.970509
0
LINE
8
annotation
62
1
39
211
10
394.885287
20
129.970509
11
394.603557
21
130.048180
0
LINE
8
annotation
62
1
39
211
10
394.603557
20
130.048180
11
394.304544
21
130.075126
0
LINE
8
annotation
62
1
39
211
10
394.304544
20
130.075126
11
394.304544
21
130.075126
0
LINE
8
annotation
62
1
39
211
10
394.304544
20
130.075126
11
394.004126
21
130.048165
0
LINE
8
annotation
62
1
39
211
10
394.004126
20
130.048165
11
393.721303
21
129.970454
0
LINE
8
annotation
62
1
39
211
10
393.721303
20
129.970454
11
393.460814
21
129.846753
0
LINE
8
annotation
62
1
39
211
10
393.460814
20
129.846753
11
393.227397
21
129.681819
0
LINE
8
annotation
62
1
39
211
10
393.227397
20
129.681819
11
393.025793
21
129.480412
0
LINE
8
annotation
62
1
39
211
10
393.025793
20
129.480412
11
392.860740
21
129.247290
0
LINE
8
annotation
62
1
39
211
10
392.860740
20
129.247290
11
392.736977
21
128.987212
0
LINE
8
annotation
62
1
39
211
10
392.736977
20
128.987212
11
392.659244
21
128.704935
0
LINE
8
annotation
62
1
39
211
10
392.659244
20
128.704935
11
392.632280
21
128.405220
0
LINE
8
annotation
62
1
39
211
10
392.632280
20
128.405220
11
392.632280
21
128.405220
0
LINE
8
annotation
62
1
39
211
10
392.632280
20
128.405220
11
392.659244
21
128.105504
0
LINE
8
annotation
62
1
39
211
10
392.659244
20
128.105504
11
392.736977
21
127.823228
0
LINE
8
annotation
62
1
39
211
10
392.736977
20
127.823228
11
392.860740
21
127.563149
0
LINE
8
annotation
62
1
39
211
10
392.860740
20
127.563149
11
393.025793
21
127.330027
0
LINE
8
annotation
62
1
39
211
10
393.025793
20
127.330027
11
393.227397
21
127.128620
0
LINE
8
annotation
62
1
39
211
10
393.227397
20
127.128620
11
393.460814
21
126.963686
0
LINE
8
annotation
62
1
39
211
10
393.460814
20
126.963686
11
393.721303
21
126.839985
0
LINE
8
annotation
62
1
39
211
10
393.721303
20
126.839985
11
394.004126
21
126.762275
0
LINE
8
annotation
62
1
39
211
10
394.004126
20
126.762275
11
394.304544
21
126.735314
0
LINE
8
annotation
62
1
39
211
10
441.046575
20
114.164589
11
441.046575
21
114.164589
0
LINE
8
annotation
62
1
39
211
10
441.046575
20
114.164589
11
441.224531
21
113.687045
0
LINE
8
annotation
62
1
39
211
10
441.224531
20
113.687045
11
441.465072
21
113.248719
0
LINE
8
annotation
62
1
39
211
10
441.465072
20
113.248719
11
441.762067
21
112.854140
0
LINE
8
annotation
62
1
39
211
10
441.762067
20
112.854140
11
442.109389
21
112.507839
0
LINE
8
annotation
62
1
39
211
10
442.109389
20
112.507839
11
442.500908
21
112.214344
0
LINE
8
annotation
62
1
39
211
10
442.500908
20
112.214344
11
442.930496
21
111.978185
0
LINE
8
annotation
62
1
39
211
10
442.930496
20
111.978185
11
443.392025
21
111.803892
0
LINE
8
annotation
62
1
39
211
10
443.392025
20
111.803892
11
443.879365
21
111.695995
0
LINE
8
annotation
62
1
39
211
10
443.879365
20
111.695995
11
444.386387
21
111.659022
0
LINE
8
annotation
62
1
39
211
10
444.386387
20
111.659022
11
446.894311
21
111.659022
0
LINE
8
annotation
62
1
39
211
10
446.894311
20
111.659022
11
446.894311
21
111.659022
0
LINE
8
annotation
62
1
39
211
10
446.894311
20
111.659022
11
447.194729
21
111.685906
0
LINE
8
annotation
62
1
39
211
10
447.194729
20
111.685906
11
447.477552
21
111.763422
0
LINE
8
annotation
62
1
39
211
10
447.477552
20
111.763422
11
447.738041
21
111.886871
0
LINE
8
annotation
62
1
39
211
10
447.738041
20
111.886871
11
447.971458
21
112.051552
0
LINE
8
annotation
62
1
39
211
10
447.971458
20
112.051552
11
448.173062
21
112.252765
0
LINE
8
annotation
62
1
39
211
10
448.173062
20
112.252765
11
448.338115
21
112.485810
0
LINE
8
annotation
62
1
39
211
10
448.338115
20
112.485810
11
448.461878
21
112.745986
0
LINE
8
annotation
62
1
39
211
10
448.461878
20
112.745986
11
448.539611
21
113.028592
0
LINE
8
annotation
62
1
39
211
10
448.539611
20
113.028592
11
448.566575
21
113.328928
0
LINE
8
annotation
62
1
39
211
10
448.566575
20
113.328928
11
448.566575
21
113.328928
0
LINE
8
annotation
62
1
39
211
10
448.566575
20
113.328928
11
448.539611
21
113.628644
0
LINE
8
annotation
62
1
39
211
10
448.539611
20
113.628644
11
448.461878
21
113.910920
0
LINE
8
annotation
62
1
39
211
10
448.461878
20
113.910920
11
448.338115
21
114.170999
0
LINE
8
annotation
62
1
39
211
10
448.338115
20
114.170999
11
448.173062
21
114.404121
0
LINE
8
annotation
62
1
39
211
10
448.173062
20
114.404121
11
447.971458
21
114.605528
0
LINE
8
annotation
62
1
39
211
10
447.971458
20
114.605528
11
447.738041
21
114.770462
0
LINE
8
annotation
62
1
39
211
10
447.738041
20
114.770462
11
447.477552
21
114.894163
0
LINE
8
annotation
62
1
39
211
10
447.477552
20
114.894163
11
447.194729
21
114.971873
0
LINE
8
annotation
62
1
39
211
10
447.194729
20
114.971873
11
446.894311
21
114.998834
0
LINE
8
annotation
62
1
39
211
10
446.894311
20
114.998834
11
446.058179
21
114.998834
0
LINE
8
annotation
62
1
39
211
10
446.058179
20
114.998834
11
446.058179
21
114.998834
0
LINE
8
annotation
62
1
39
211
10
446.058179
20
114.998834
11
445.757778
21
114.971873
0
LINE
8
annotation
62
1
39
211
10
445.757778
20
114.971873
11
445.474998
21
114.894163
0
LINE
8
annotation
62
1
39
211
10
445.474998
20
114.894163
11
445.214572
21
114.770462
0
LINE
8
annotation
62
1
39
211
10
445.214572
20
114.770462
11
444.981230
21
114.605528
0
LINE
8
annotation
62
1
39
211
10
444.981230
20
114.605528
11
444.779703
21
114.404121
0
LINE
8
annotation
62
1
39
211
10
444.779703
20
114.404121
11
444.614725
21
114.170999
0
LINE
8
annotation
62
1
39
211
10
444.614725
20
114.170999
11
444.491025
21
113.910920
0
LINE
8
annotation
62
1
39
211
10
444.491025
20
113.910920
11
444.413335
21
113.628644
0
LINE
8
annotation
62
1
39
211
10
444.413335
20
113.628644
11
444.386387
21
113.328928
0
LINE
8
annotation
62
1
39
211
10
444.386387
20
113.328928
11
444.386387
21
111.659022
0
LINE
8
annotation
62
1
39
211
10
440.106575
20
115.207514
11
440.106575
21
111.447514
0
LINE
8
annotation
62
1
39
211
10
329.675897
20
207.323155
11
318.778098
21
191.560487
0
LINE
8
annotation
62
1
39
211
10
318.778098
20
191.560487
11
307.878250
21
207.323155
0
LINE
8
annotation
62
1
39
211
10
318.778098
20
192.828960
11
318.778098
21
174.644103
0
LINE
8
annotation
62
1
39
211
10
359.801098
20
190.983629
11
341.933872
21
190.983629
0
LINE
8
annotation
62
1
39
211
10
390.195773
20
181.909644
11
372.051901
21
181.909644
0
LINE
8
annotation
62
1
39
211
10
372.051901
20
181.909644
11
379.297974
21
207.322131
0
LINE
8
annotation
62
1
39
211
10
384.757119
20
174.645127
11
384.757119
21
189.157766
0
LINE
8
boundary
62
5
39
2
10
533.835536
20
5.185906
11
536.115920
21
5.305819
0
LINE
8
boundary
62
5
39
2
10
536.115920
20
5.305819
11
537.451848
21
5.375766
0
LINE
8
boundary
62
5
39
2
10
537.451848
20
5.375766
11
537.319903
21
6.253894
0
LINE
8
boundary
62
5
39
2
10
537.319903
20
6.253894
11
499.568562
21
27.094001
0
LINE
8
boundary
62
5
39
2
10
499.568562
20
27.094001
11
501.717255
21
30.986306
0
LINE
8
boundary
62
5
39
2
10
501.717255
20
30.986306
11
545.413916
21
6.864166
0
LINE
8
boundary
62
5
39
2
10
545.413916
20
6.864166
11
546.227295
21
7.220441
0
LINE
8
boundary
62
5
39
2
10
546.227295
20
7.220441
11
545.434931
21
5.785093
0
LINE
8
boundary
62
5
39
2
10
545.434931
20
5.785093
11
545.867090
21
6.198418
0
LINE
8
boundary
62
5
39
2
10
545.867090
20
6.198418
11
546.044815
21
6.715667
0
LINE
8
boundary
62
5
39
2
10
546.044815
20
6.715667
11
546.429393
21
7.801016
0
LINE
8
boundary
62
5
39
2
10
546.429393
20
7.801016
11
546.678574
21
8.401768
0
LINE
8
boundary
62
5
39
2
10
546.678574
20
8.401768
11
547.110697
21
9.392492
0
LINE
8
boundary
62
5
39
2
10
547.110697
20
9.392492
11
547.344401
21
9.909922
0
LINE
8
boundary
62
5
39
2
10
547.344401
20
9.909922
11
547.628946
21
10.383959
0
LINE
8
boundary
62
5
39
2
10
547.628946
20
10.383959
11
548.070192
21
11.240376
0
LINE
8
boundary
62
5
39
2
10
548.070192
20
11.240376
11
548.403430
21
11.736300
0
LINE
8
boundary
62
5
39
2
10
548.403430
20
11.736300
11
549.519930
21
13.402246
0
LINE
8
boundary
62
5
39
2
10
549.519930
20
13.402246
11
550.049542
21
14.098267
0
LINE
8
boundary
62
5
39
2
10
550.049542
20
14.098267
11
550.759878
21
15.078344
0
LINE
8
boundary
62
5
39
2
10
550.759878
20
15.078344
11
551.920162
21
16.444437
0
LINE
8
boundary
62
5
39
2
10
551.920162
20
16.444437
11
553.236831
21
17.947392
0
LINE
8
boundary
62
5
39
2
10
553.236831
20
17.947392
11
553.742412
21
18.455684
0
LINE
8
boundary
62
5
39
2
10
553.742412
20
18.455684
11
554.604518
21
19.305214
0
LINE
8
boundary
62
5
39
2
10
554.604518
20
19.305214
11
556.294879
21
20.700664
0
LINE
8
boundary
62
5
39
2
10
556.294879
20
20.700664
11
559.351379
21
23.533257
0
LINE
8
boundary
62
5
39
2
10
559.351379
20
23.533257
11
560.351721
21
24.008923
0
LINE
8
boundary
62
5
39
2
10
560.351721
20
24.008923
11
561.696083
21
24.921870
0
LINE
8
boundary
62
5
39
2
10
561.696083
20
24.921870
11
563.810238
21
26.147537
0
LINE
8
boundary
62
5
39
2
10
563.810238
20
26.147537
11
564.766012
21
26.798001
0
LINE
8
boundary
62
5
39
2
10
564.766012
20
26.798001
11
566.858272
21
28.116068
0
LINE
8
boundary
62
5
39
2
10
566.858272
20
28.116068
11
569.781689
21
29.824893
0
LINE
8
boundary
62
5
39
2
10
569.781689
20
29.824893
11
572.204909
21
30.881703
0
LINE
8
boundary
62
5
39
2
10
572.204909
20
30.881703
11
576.162555
21
32.684109
0
LINE
8
boundary
62
5
39
2
10
576.162555
20
32.684109
11
578.247525
21
34.132785
0
LINE
8
boundary
62
5
39
2
10
578.247525
20
34.132785
11
579.380713
21
34.859467
0
LINE
8
boundary
62
5
39
2
10
579.380713
20
34.859467
11
582.396537
21
36.407800
0
LINE
8
boundary
62
5
39
2
10
582.396537
20
36.407800
11
584.081840
21
37.673194
0
LINE
8
boundary
62
5
39
2
10
584.081840
20
37.673194
11
585.187879
21
38.027484
0
LINE
8
boundary
62
5
39
2
10
585.187879
20
38.027484
11
585.728619
21
37.952480
0
LINE
8
boundary
62
5
39
2
10
585.728619
20
37.952480
11
586.872943
21
38.448101
0
LINE
8
boundary
62
5
39
2
10
586.872943
20
38.448101
11
586.769899
21
39.330087
0
LINE
8
boundary
62
5
39
2
10
586.769899
20
39.330087
11
536.018998
21
69.561694
0
LINE
8
boundary
62
5
39
2
10
536.018998
20
69.561694
11
538.294318
21
73.381358
0
LINE
8
boundary
62
5
39
2
10
538.294318
20
73.381358
11
591.354380
21
41.774216
0
LINE
8
boundary
62
5
39
2
10
591.354380
20
41.774216
11
592.179017
21
42.103595
0
LINE
8
boundary
62
5
39
2
10
592.179017
20
42.103595
11
592.949376
21
42.676909
0
LINE
8
boundary
62
5
39
2
10
592.949376
20
42.676909
11
595.407022
21
45.006887
0
LINE
8
boundary
62
5
39
2
10
595.407022
20
45.006887
11
596.633025
21
50.595720
0
LINE
8
boundary
62
5
39
2
10
596.633025
20
50.595720
11
596.844840
21
51.346878
0
LINE
8
boundary
62
5
39
2
10
596.844840
20
51.346878
11
596.575795
21
52.223473
0
LINE
8
boundary
62
5
39
2
10
596.575795
20
52.223473
11
593.355801
21
59.432427
0
LINE
8
boundary
62
5
39
2
10
593.355801
20
59.432427
11
592.470272
21
61.129030
0
LINE
8
boundary
62
5
39
2
10
592.470272
20
61.129030
11
591.335546
21
62.786826
0
LINE
8
boundary
62
5
39
2
10
591.335546
20
62.786826
11
590.725844
21
63.609520
0
LINE
8
boundary
62
5
39
2
10
590.725844
20
63.609520
11
589.035367
21
65.507821
0
LINE
8
boundary
62
5
39
2
10
589.035367
20
65.507821
11
588.039272
21
66.561088
0
LINE
8
boundary
62
5
39
2
10
588.039272
20
66.561088
11
584.239026
21
70.499893
0
LINE
8
boundary
62
5
39
2
10
584.239026
20
70.499893
11
582.052128
21
73.022111
0
LINE
8
boundary
62
5
39
2
10
582.052128
20
73.022111
11
580.420914
21
74.648856
0
LINE
8
boundary
62
5
39
2
10
580.420914
20
74.648856
11
576.877750
21
77.553041
0
LINE
8
boundary
62
5
39
2
10
576.877750
20
77.553041
11
575.418600
21
78.714113
0
LINE
8
boundary
62
5
39
2
10
575.418600
20
78.714113
11
569.390975
21
82.928349
0
LINE
8
boundary
62
5
39
2
10
569.390975
20
82.928349
11
568.325798
21
83.745815
0
LINE
8
boundary
62
5
39
2
10
568.325798
20
83.745815
11
567.317095
21
84.402221
0
LINE
8
boundary
62
5
39
2
10
567.317095
20
84.402221
11
561.991082
21
87.321831
0
LINE
8
boundary
62
5
39
2
10
561.991082
20
87.321831
11
561.145125
21
87.754783
0
LINE
8
boundary
62
5
39
2
10
561.145125
20
87.754783
11
554.671676
21
90.704603
0
LINE
8
boundary
62
5
39
2
10
554.671676
20
90.704603
11
553.911111
21
91.074259
0
LINE
8
boundary
62
5
39
2
10
553.911111
20
91.074259
11
552.720903
21
91.718229
0
LINE
8
boundary
62
5
39
2
10
552.720903
20
91.718229
11
550.402212
21
92.788220
0
LINE
8
boundary
62
5
39
2
10
550.402212
20
92.788220
11
547.289917
21
94.166357
0
LINE
8
boundary
62
5
39
2
10
547.289917
20
94.166357
11
544.679607
21
95.399415
0
LINE
8
boundary
62
5
39
2
10
544.679607
20
95.399415
11
539.986737
21
97.445098
0
LINE
8
boundary
62
5
39
2
10
539.986737
20
97.445098
11
536.589101
21
98.987202
0
LINE
8
boundary
62
5
39
2
10
536.589101
20
98.987202
11
532.706926
21
100.502360
0
LINE
8
boundary
62
5
39
2
10
532.706926
20
100.502360
11
531.866566
21
100.825806
0
LINE
8
boundary
62
5
39
2
10
531.866566
20
100.825806
11
528.118274
21
102.280232
0
LINE
8
boundary
62
5
39
2
10
528.118274
20
102.280232
11
525.585541
21
102.987653
0
LINE
8
boundary
62
5
39
2
10
525.585541
20
102.987653
11
518.802438
21
104.819586
0
LINE
8
boundary
62
5
39
2
10
518.802438
20
104.819586
11
513.877658
21
105.778832
0
LINE
8
boundary
62
5
39
2
10
513.877658
20
105.778832
11
511.684466
21
106.047232
0
LINE
8
boundary
62
5
39
2
10
511.684466
20
106.047232
11
508.153356
21
106.521882
0
LINE
8
boundary
62
5
39
2
10
508.153356
20
106.521882
11
506.647163
21
106.666251
0
LINE
8
boundary
62
5
39
2
10
506.647163
20
106.666251
11
504.837445
21
106.786641
0
LINE
8
boundary
62
5
39
2
10
504.837445
20
106.786641
11
500.926742
21
106.764189
0
LINE
8
boundary
62
5
39
2
10
500.926742
20
106.764189
11
494.623341
21
106.315487
0
LINE
8
boundary
62
5
39
2
10
494.623341
20
106.315487
11
491.359910
21
105.709577
0
LINE
8
boundary
62
5
39
2
10
491.359910
20
105.709577
11
489.876744
21
105.009575
0
LINE
8
boundary
62
5
39
2
10
489.876744
20
105.009575
11
486.566034
21
103.729144
0
LINE
8
boundary
62
5
39
2
10
486.566034
20
103.729144
11
484.906460
21
102.937612
0
LINE
8
boundary
62
5
39
2
10
484.906460
20
102.937612
11
482.600865
21
101.479106
0
LINE
8
boundary
62
5
39
2
10
482.600865
20
101.479106
11
480.878325
21
100.196385
0
LINE
8
boundary
62
5
39
2
10
480.878325
20
100.196385
11
478.893670
21
98.683647
0
LINE
8
boundary
62
5
39
2
10
478.893670
20
98.683647
11
476.784647
21
96.845158
0
LINE
8
boundary
62
5
39
2
10
476.784647
20
96.845158
11
474.973698
21
95.179078
0
LINE
8
boundary
62
5
39
2
10
474.973698
20
95.179078
11
473.084587
21
93.237136
0
LINE
8
boundary
62
5
39
2
10
473.084587
20
93.237136
11
469.751577
21
89.023154
0
LINE
8
boundary
62
5
39
2
10
469.751577
20
89.023154
11
468.037219
21
86.919400
0
LINE
8
boundary
62
5
39
2
10
468.037219
20
86.919400
11
466.604133
21
84.697397
0
LINE
8
boundary
62
5
39
2
10
466.604133
20
84.697397
11
465.213866
21
82.274996
0
LINE
8
boundary
62
5
39
2
10
465.213866
20
82.274996
11
463.950394
21
79.921297
0
LINE
8
boundary
62
5
39
2
10
463.950394
20
79.921297
11
463.336043
21
78.504835
0
LINE
8
boundary
62
5
39
2
10
463.336043
20
78.504835
11
462.553219
21
76.511605
0
LINE
8
boundary
62
5
39
2
10
462.553219
20
76.511605
11
462.125982
21
75.471123
0
LINE
8
boundary
62
5
39
2
10
462.125982
20
75.471123
11
461.391973
21
73.520260
0
LINE
8
boundary
62
5
39
2
10
461.391973
20
73.520260
11
460.820784
21
71.898849
0
LINE
8
boundary
62
5
39
2
10
460.820784
20
71.898849
11
460.605918
21
70.868477
0
LINE
8
boundary
62
5
39
2
10
460.605918
20
70.868477
11
460.408118
21
69.757083
0
LINE
8
boundary
62
5
39
2
10
460.408118
20
69.757083
11
460.359242
21
68.860579
0
LINE
8
boundary
62
5
39
2
10
460.359242
20
68.860579
11
460.359033
21
66.945889
0
LINE
8
boundary
62
5
39
2
10
460.359033
20
66.945889
11
459.084588
21
60.793020
0
LINE
8
boundary
62
5
39
2
10
459.084588
20
60.793020
11
459.028841
21
59.996610
0
LINE
8
boundary
62
5
39
2
10
459.028841
20
59.996610
11
458.993519
21
59.261261
0
LINE
8
boundary
62
5
39
2
10
458.993519
20
59.261261
11
458.777200
21
52.377263
0
LINE
8
boundary
62
5
39
2
10
458.777200
20
52.377263
11
458.653137
21
51.422242
0
LINE
8
boundary
62
5
39
2
10
458.653137
20
51.422242
11
458.612386
21
50.299434
0
LINE
8
boundary
62
5
39
2
10
458.612386
20
50.299434
11
458.566244
21
48.210413
0
LINE
8
boundary
62
5
39
2
10
458.566244
20
48.210413
11
458.621100
21
46.001077
0
LINE
8
boundary
62
5
39
2
10
458.621100
20
46.001077
11
458.776973
21
43.771443
0
LINE
8
boundary
62
5
39
2
10
458.776973
20
43.771443
11
458.859131
21
39.548664
0
LINE
8
boundary
62
5
39
2
10
458.859131
20
39.548664
11
458.912309
21
36.506353
0
LINE
8
boundary
62
5
39
2
10
458.912309
20
36.506353
11
459.084419
21
35.569644
0
LINE
8
boundary
62
5
39
2
10
459.084419
20
35.569644
11
459.661102
21
32.413385
0
LINE
8
boundary
62
5
39
2
10
459.661102
20
32.413385
11
459.856131
21
30.656157
0
LINE
8
boundary
62
5
39
2
10
459.856131
20
30.656157
11
460.061967
21
29.076037
0
LINE
8
boundary
62
5
39
2
10
460.061967
20
29.076037
11
459.969973
21
25.419911
0
LINE
8
boundary
62
5
39
2
10
459.969973
20
25.419911
11
460.038446
21
24.757773
0
LINE
8
boundary
62
5
39
2
10
460.038446
20
24.757773
11
460.195873
21
23.674395
0
LINE
8
boundary
62
5
39
2
10
460.195873
20
23.674395
11
461.166376
21
19.877010
0
LINE
8
boundary
62
5
39
2
10
461.166376
20
19.877010
11
461.369912
21
18.809832
0
LINE
8
boundary
62
5
39
2
10
461.369912
20
18.809832
11
461.590392
21
17.805524
0
LINE
8
boundary
62
5
39
2
10
461.590392
20
17.805524
11
461.787999
21
15.255933
0
LINE
8
boundary
62
5
39
2
10
461.787999
20
15.255933
11
462.239697
21
12.845513
0
LINE
8
boundary
62
5
39
2
10
462.239697
20
12.845513
11
462.972401
21
9.917873
0
LINE
8
boundary
62
5
39
2
10
462.972401
20
9.917873
11
464.560725
21
4.678332
0
LINE
8
boundary
62
5
39
2
10
464.560725
20
4.678332
11
465.523207
21
1.587500
0
LINE
8
boundary
62
5
39
2
10
465.523207
20
1.587500
11
468.083107
21
1.722821
0
LINE
8
boundary
62
5
39
2
10
468.083107
20
1.722821
11
472.697266
21
1.968341
0
LINE
8
boundary
62
5
39
2
10
472.697266
20
1.968341
11
477.023515
21
2.195393
0
LINE
8
boundary
62
5
39
2
10
477.023515
20
2.195393
11
482.580491
21
2.487694
0
LINE
8
boundary
62
5
39
2
10
482.580491
20
2.487694
11
490.336078
21
2.894073
0
LINE
8
boundary
62
5
39
2
10
490.336078
20
2.894073
11
497.760080
21
3.284904
0
LINE
8
boundary
62
5
39
2
10
497.760080
20
3.284904
11
504.191310
21
3.623201
0
LINE
8
boundary
62
5
39
2
10
504.191310
20
3.623201
11
514.116856
21
4.147952
0
LINE
8
boundary
62
5
39
2
10
514.116856
20
4.147952
11
518.168788
21
4.361899
0
LINE
8
boundary
62
5
39
2
10
518.168788
20
4.361899
11
519.765653
21
4.445608
0
LINE
8
boundary
62
5
39
2
10
519.765653
20
4.445608
11
522.674997
21
4.597799
0
LINE
8
boundary
62
5
39
2
10
522.674997
20
4.597799
11
531.903342
21
5.083615
0
LINE
8
boundary
62
5
39
2
10
531.903342
20
5.083615
11
533.835536
21
5.185906
0
LINE
8
annotation
62
1
39
211
10
489.022572
20
31.160395
11
490.484511
21
30.353351
0
LINE
8
annotation
62
1
39
211
10
490.484511
20
30.353351
11
490.484511
21
30.353351
0
LINE
8
annotation
62
1
39
211
10
490.484511
20
30.353351
11
490.760465
21
30.231790
0
LINE
8
annotation
62
1
39
211
10
490.760465
20
30.231790
11
491.045403
21
30.163188
0
LINE
8
annotation
62
1
39
211
10
491.045403
20
30.163188
11
491.332906
21
30.145647
0
LINE
8
annotation
62
1
39
211
10
491.332906
20
30.145647
11
491.616555
21
30.177264
0
LINE
8
annotation
62
1
39
211
10
491.616555
20
30.177264
11
491.889933
21
30.256138
0
LINE
8
annotation
62
1
39
211
10
491.889933
20
30.256138
11
492.146620
21
30.380368
0
LINE
8
annotation
62
1
39
211
10
492.146620
20
30.380368
11
492.380199
21
30.548053
0
LINE
8
annotation
62
1
39
211
10
492.380199
20
30.548053
11
492.584249
21
30.757292
0
LINE
8
annotation
62
1
39
211
10
492.584249
20
30.757292
11
492.752354
21
31.006183
0
LINE
8
annotation
62
1
39
211
10
492.752354
20
31.006183
11
493.156446
21
31.738185
0
LINE
8
annotation
62
1
39
211
10
493.156446
20
31.738185
11
493.156446
21
31.738185
0
LINE
8
annotation
62
1
39
211
10
493.156446
20
31.738185
11
493.277420
21
32.012952
0
LINE
8
annotation
62
1
39
211
10
493.277420
20
32.012952
11
493.345713
21
32.297059
0
LINE
8
annotation
62
1
39
211
10
493.345713
20
32.297059
11
493.363132
21
32.584049
0
LINE
8
annotation
62
1
39
211
10
493.363132
20
32.584049
11
493.331483
21
32.867469
0
LINE
8
annotation
62
1
39
211
10
493.331483
20
32.867469
11
493.252571
21
33.140865
0
LINE
8
annotation
62
1
39
211
10
493.252571
20
33.140865
11
493.128201
21
33.397780
0
LINE
8
annotation
62
1
39
211
10
493.128201
20
33.397780
11
492.960181
21
33.631762
0
LINE
8
annotation
62
1
39
211
10
492.960181
20
33.631762
11
492.750315
21
33.836354
0
LINE
8
annotation
62
1
39
211
10
492.750315
20
33.836354
11
492.500410
21
34.005103
0
LINE
8
annotation
62
1
39
211
10
492.500410
20
34.005103
11
491.768408
21
34.409195
0
LINE
8
annotation
62
1
39
211
10
491.768408
20
34.409195
11
492.500410
21
34.005103
0
LINE
8
annotation
62
1
39
211
10
492.500410
20
34.005103
11
492.500410
21
34.005103
0
LINE
8
annotation
62
1
39
211
10
492.500410
20
34.005103
11
492.776375
21
33.883561
0
LINE
8
annotation
62
1
39
211
10
492.776375
20
33.883561
11
493.061353
21
33.815033
0
LINE
8
annotation
62
1
39
211
10
493.061353
20
33.815033
11
493.348940
21
33.797643
0
LINE
8
annotation
62
1
39
211
10
493.348940
20
33.797643
11
493.632730
21
33.829514
0
LINE
8
annotation
62
1
39
211
10
493.632730
20
33.829514
11
493.906317
21
33.908767
0
LINE
8
annotation
62
1
39
211
10
493.906317
20
33.908767
11
494.163296
21
34.033526
0
LINE
8
annotation
62
1
39
211
10
494.163296
20
34.033526
11
494.397262
21
34.201914
0
LINE
8
annotation
62
1
39
211
10
494.397262
20
34.201914
11
494.601809
21
34.412052
0
LINE
8
annotation
62
1
39
211
10
494.601809
20
34.412052
11
494.770533
21
34.662064
0
LINE
8
annotation
62
1
39
211
10
494.770533
20
34.662064
11
494.770533
21
34.662064
0
LINE
8
annotation
62
1
39
211
10
494.770533
20
34.662064
11
494.891507
21
34.936831
0
LINE
8
annotation
62
1
39
211
10
494.891507
20
34.936831
11
494.959800
21
35.220937
0
LINE
8
annotation
62
1
39
211
10
494.959800
20
35.220937
11
494.977219
21
35.507928
0
LINE
8
annotation
62
1
39
211
10
494.977219
20
35.507928
11
494.945570
21
35.791348
0
LINE
8
annotation
62
1
39
211
10
494.945570
20
35.791348
11
494.866657
21
36.064743
0
LINE
8
annotation
62
1
39
211
10
494.866657
20
36.064743
11
494.742288
21
36.321659
0
LINE
8
annotation
62
1
39
211
10
494.742288
20
36.321659
11
494.574268
21
36.555640
0
LINE
8
annotation
62
1
39
211
10
494.574268
20
36.555640
11
494.364402
21
36.760233
0
LINE
8
annotation
62
1
39
211
10
494.364402
20
36.760233
11
494.114497
21
36.928982
0
LINE
8
annotation
62
1
39
211
10
494.114497
20
36.928982
11
492.652558
21
37.736026
0
LINE
8
annotation
62
1
39
211
10
529.695922
20
73.485157
11
526.108675
21
75.622031
0
LINE
8
annotation
62
1
39
211
10
526.108675
20
75.622031
11
530.534231
21
79.792966
0
LINE
8
annotation
62
1
39
211
10
527.765070
20
72.689412
11
529.474278
21
75.558723
0
LINE
8
annotation
62
1
39
211
10
479.412907
20
42.397483
11
471.119830
21
42.397483
0
LINE
8
annotation
62
1
39
211
10
471.119830
20
42.397483
11
479.412907
21
57.333265
0
LINE
8
annotation
62
1
39
211
10
479.412907
20
57.333265
11
471.119830
21
57.333265
0
LINE
8
annotation
62
1
39
211
10
493.181861
20
49.865374
11
485.015231
21
49.865374
0
LINE
8
annotation
62
1
39
211
10
500.437368
20
42.397483
11
500.437368
21
42.397483
0
LINE
8
annotation
62
1
39
211
10
500.437368
20
42.397483
11
501.385837
21
42.750929
0
LINE
8
annotation
62
1
39
211
10
501.385837
20
42.750929
11
502.256414
21
43.228676
0
LINE
8
annotation
62
1
39
211
10
502.256414
20
43.228676
11
503.040103
21
43.818551
0
LINE
8
annotation
62
1
39
211
10
503.040103
20
43.818551
11
503.727907
21
44.508381
0
LINE
8
annotation
62
1
39
211
10
503.727907
20
44.508381
11
504.310829
21
45.285993
0
LINE
8
annotation
62
1
39
211
10
504.310829
20
45.285993
11
504.779874
21
46.139216
0
LINE
8
annotation
62
1
39
211
10
504.779874
20
46.139216
11
505.126044
21
47.055877
0
LINE
8
annotation
62
1
39
211
10
505.126044
20
47.055877
11
505.340344
21
48.023803
0
LINE
8
annotation
62
1
39
211
10
505.340344
20
48.023803
11
505.413776
21
49.030821
0
LINE
8
annotation
62
1
39
211
10
505.413776
20
49.030821
11
505.413776
21
54.011913
0
LINE
8
annotation
62
1
39
211
10
505.413776
20
54.011913
11
505.413776
21
54.011913
0
LINE
8
annotation
62
1
39
211
10
505.413776
20
54.011913
11
505.360382
21
54.608584
0
LINE
8
annotation
62
1
39
211
10
505.360382
20
54.608584
11
505.206424
21
55.170311
0
LINE
8
annotation
62
1
39
211
10
505.206424
20
55.170311
11
504.961237
21
55.687679
0
LINE
8
annotation
62
1
39
211
10
504.961237
20
55.687679
11
504.634157
21
56.151278
0
LINE
8
annotation
62
1
39
211
10
504.634157
20
56.151278
11
504.234519
21
56.551693
0
LINE
8
annotation
62
1
39
211
10
504.234519
20
56.551693
11
503.771660
21
56.879512
0
LINE
8
annotation
62
1
39
211
10
503.771660
20
56.879512
11
503.254914
21
57.125322
0
LINE
8
annotation
62
1
39
211
10
503.254914
20
57.125322
11
502.693618
21
57.279711
0
LINE
8
annotation
62
1
39
211
10
502.693618
20
57.279711
11
502.097107
21
57.333265
0
LINE
8
annotation
62
1
39
211
10
502.097107
20
57.333265
11
502.097107
21
57.333265
0
LINE
8
annotation
62
1
39
211
10
502.097107
20
57.333265
11
501.501830
21
57.279711
0
LINE
8
annotation
62
1
39
211
10
501.501830
20
57.279711
11
500.941189
21
57.125322
0
LINE
8
annotation
62
1
39
211
10
500.941189
20
57.125322
11
500.424636
21
56.879512
0
LINE
8
annotation
62
1
39
211
10
500.424636
20
56.879512
11
499.961623
21
56.551693
0
LINE
8
annotation
62
1
39
211
10
499.961623
20
56.551693
11
499.561600
21
56.151278
0
LINE
8
annotation
62
1
39
211
10
499.561600
20
56.151278
11
499.234018
21
55.687679
0
LINE
8
annotation
62
1
39
211
10
499.234018
20
55.687679
11
498.988330
21
55.170311
0
LINE
8
annotation
62
1
39
211
10
498.988330
20
55.170311
11
498.833986
21
54.608584
0
LINE
8
annotation
62
1
39
211
10
498.833986
20
54.608584
11
498.780438
21
54.011913
0
LINE
8
annotation
62
1
39
211
10
498.780438
20
54.011913
11
498.780438
21
52.351237
0
LINE
8
annotation
62
1
39
211
10
498.780438
20
52.351237
11
498.780438
21
52.351237
0
LINE
8
annotation
62
1
39
211
10
498.780438
20
52.351237
11
498.833986
21
51.754597
0
LINE
8
annotation
62
1
39
211
10
498.833986
20
51.754597
11
498.988330
21
51.192957
0
LINE
8
annotation
62
1
39
211
10
498.988330
20
51.192957
11
499.234018
21
50.675713
0
LINE
8
annotation
62
1
39
211
10
499.234018
20
50.675713
11
499.561600
21
50.212263
0
LINE
8
annotation
62
1
39
211
10
499.561600
20
50.212263
11
499.961623
21
49.812003
0
LINE
8
annotation
62
1
39
211
10
499.961623
20
49.812003
11
500.424636
21
49.484332
0
LINE
8
annotation
62
1
39
211
10
500.424636
20
49.484332
11
500.941189
21
49.238646
0
LINE
8
annotation
62
1
39
211
10
500.941189
20
49.238646
11
501.501830
21
49.084344
0
LINE
8
annotation
62
1
39
211
10
501.501830
20
49.084344
11
502.097107
21
49.030821
0
LINE
8
annotation
62
1
39
211
10
502.097107
20
49.030821
11
505.413776
21
49.030821
0
LINE
8
annotation
62
1
39
211
10
498.365972
20
40.530510
11
505.833863
21
40.530510
0
LINE
8
annotation
62
1
39
211
10
519.183667
20
49.865374
11
511.017036
21
49.865374
0
LINE
8
annotation
62
1
39
211
10
528.104064
20
42.397483
11
528.104064
21
57.333265
0
LINE
8
annotation
62
1
39
211
10
528.104064
20
57.333265
11
524.783649
21
54.011913
0
LINE
8
boundary
62
5
39
2
10
460.188961
20
149.495290
11
458.564385
21
148.381554
0
LINE
8
boundary
62
5
39
2
10
458.564385
20
148.381554
11
460.554670
21
146.535798
0
LINE
8
boundary
62
5
39
2
10
460.554670
20
146.535798
11
464.264882
21
143.119419
0
LINE
8
boundary
62
5
39
2
10
464.264882
20
143.119419
11
464.725104
21
142.634954
0
LINE
8
boundary
62
5
39
2
10
464.725104
20
142.634954
11
467.116841
21
140.601922
0
LINE
8
boundary
62
5
39
2
10
467.116841
20
140.601922
11
472.813164
21
136.174410
0
LINE
8
boundary
62
5
39
2
10
472.813164
20
136.174410
11
473.596234
21
135.583807
0
LINE
8
boundary
62
5
39
2
10
473.596234
20
135.583807
11
474.633824
21
134.837610
0
LINE
8
boundary
62
5
39
2
10
474.633824
20
134.837610
11
476.080535
21
133.844399
0
LINE
8
boundary
62
5
39
2
10
476.080535
20
133.844399
11
477.424848
21
133.216412
0
LINE
8
boundary
62
5
39
2
10
477.424848
20
133.216412
11
479.705662
21
131.604438
0
LINE
8
boundary
62
5
39
2
10
479.705662
20
131.604438
11
482.480841
21
129.704686
0
LINE
8
boundary
62
5
39
2
10
482.480841
20
129.704686
11
483.371531
21
129.111857
0
LINE
8
boundary
62
5
39
2
10
483.371531
20
129.111857
11
485.315666
21
128.093730
0
LINE
8
boundary
62
5
39
2
10
485.315666
20
128.093730
11
486.864521
21
127.300803
0
LINE
8
boundary
62
5
39
2
10
486.864521
20
127.300803
11
487.760832
21
126.853659
0
LINE
8
boundary
62
5
39
2
10
487.760832
20
126.853659
11
488.999073
21
126.409185
0
LINE
8
boundary
62
5
39
2
10
488.999073
20
126.409185
11
495.927851
21
123.068032
0
LINE
8
boundary
62
5
39
2
10
495.927851
20
123.068032
11
496.578390
21
122.761330
0
LINE
8
boundary
62
5
39
2
10
496.578390
20
122.761330
11
497.480354
21
122.343750
0
LINE
8
boundary
62
5
39
2
10
497.480354
20
122.343750
11
501.682898
21
121.316100
0
LINE
8
boundary
62
5
39
2
10
501.682898
20
121.316100
11
503.482001
21
120.480529
0
LINE
8
boundary
62
5
39
2
10
503.482001
20
120.480529
11
505.604813
21
119.500526
0
LINE
8
boundary
62
5
39
2
10
505.604813
20
119.500526
11
506.617639
21
118.856959
0
LINE
8
boundary
62
5
39
2
10
506.617639
20
118.856959
11
507.322639
21
119.396858
0
LINE
8
boundary
62
5
39
2
10
507.322639
20
119.396858
11
507.322639
21
150.221198
0
LINE
8
boundary
62
5
39
2
10
507.322639
20
150.221198
11
511.768639
21
150.221198
0
LINE
8
boundary
62
5
39
2
10
511.768639
20
150.221198
11
511.768639
21
116.871947
0
LINE
8
boundary
62
5
39
2
10
511.768639
20
116.871947
11
512.473639
21
116.332047
0
LINE
8
boundary
62
5
39
2
10
512.473639
20
116.332047
11
514.967335
21
115.351745
0
LINE
8
boundary
62
5
39
2
10
514.967335
20
115.351745
11
521.648685
21
113.397930
0
LINE
8
boundary
62
5
39
2
10
521.648685
20
113.397930
11
524.165277
21
112.719586
0
LINE
8
boundary
62
5
39
2
10
524.165277
20
112.719586
11
529.709245
21
111.284209
0
LINE
8
boundary
62
5
39
2
10
529.709245
20
111.284209
11
533.431846
21
110.830469
0
LINE
8
boundary
62
5
39
2
10
533.431846
20
110.830469
11
535.916085
21
110.617812
0
LINE
8
boundary
62
5
39
2
10
535.916085
20
110.617812
11
541.666638
21
109.961641
0
LINE
8
boundary
62
5
39
2
10
541.666638
20
109.961641
11
542.902420
21
110.117255
0
LINE
8
boundary
62
5
39
2
10
542.902420
20
110.117255
11
545.256429
21
111.121528
0
LINE
8
boundary
62
5
39
2
10
545.256429
20
111.121528
11
552.724767
21
112.003870
0
LINE
8
boundary
62
5
39
2
10
552.724767
20
112.003870
11
557.352299
21
114.784314
0
LINE
8
boundary
62
5
39
2
10
557.352299
20
114.784314
11
559.199343
21
118.599670
0
LINE
8
boundary
62
5
39
2
10
559.199343
20
118.599670
11
559.907926
21
119.805368
0
LINE
8
boundary
62
5
39
2
10
559.907926
20
119.805368
11
559.907926
21
125.685481
0
LINE
8
boundary
62
5
39
2
10
559.907926
20
125.685481
11
560.429656
21
125.685481
0
LINE
8
boundary
62
5
39
2
10
560.429656
20
125.685481
11
560.392876
21
126.700447
0
LINE
8
boundary
62
5
39
2
10
560.392876
20
126.700447
11
560.471449
21
129.717507
0
LINE
8
boundary
62
5
39
2
10
560.471449
20
129.717507
11
560.061254
21
131.073227
0
LINE
8
boundary
62
5
39
2
10
560.061254
20
131.073227
11
559.357571
21
134.498611
0
LINE
8
boundary
62
5
39
2
10
559.357571
20
134.498611
11
558.106442
21
136.643449
0
LINE
8
boundary
62
5
39
2
10
558.106442
20
136.643449
11
557.680578
21
142.189130
0
LINE
8
boundary
62
5
39
2
10
557.680578
20
142.189130
11
557.353780
21
143.215457
0
LINE
8
boundary
62
5
39
2
10
557.353780
20
143.215457
11
556.393082
21
146.305492
0
LINE
8
boundary
62
5
39
2
10
556.393082
20
146.305492
11
555.266739
21
149.832931
0
LINE
8
boundary
62
5
39
2
10
555.266739
20
149.832931
11
554.740591
21
151.648535
0
LINE
8
boundary
62
5
39
2
10
554.740591
20
151.648535
11
553.565422
21
154.473648
0
LINE
8
boundary
62
5
39
2
10
553.565422
20
154.473648
11
552.359233
21
157.488540
0
LINE
8
boundary
62
5
39
2
10
552.359233
20
157.488540
11
550.215999
21
164.100769
0
LINE
8
boundary
62
5
39
2
10
550.215999
20
164.100769
11
549.748172
21
165.180142
0
LINE
8
boundary
62
5
39
2
10
549.748172
20
165.180142
11
549.172310
21
166.864740
0
LINE
8
boundary
62
5
39
2
10
549.172310
20
166.864740
11
547.430419
21
171.037539
0
LINE
8
boundary
62
5
39
2
10
547.430419
20
171.037539
11
547.099436
21
172.930171
0
LINE
8
boundary
62
5
39
2
10
547.099436
20
172.930171
11
546.102285
21
176.535295
0
LINE
8
boundary
62
5
39
2
10
546.102285
20
176.535295
11
545.416718
21
178.745805
0
LINE
8
boundary
62
5
39
2
10
545.416718
20
178.745805
11
545.144380
21
179.735679
0
LINE
8
boundary
62
5
39
2
10
545.144380
20
179.735679
11
542.954447
21
187.087512
0
LINE
8
boundary
62
5
39
2
10
542.954447
20
187.087512
11
542.688405
21
188.138725
0
LINE
8
boundary
62
5
39
2
10
542.688405
20
188.138725
11
542.274963
21
189.553506
0
LINE
8
boundary
62
5
39
2
10
542.274963
20
189.553506
11
541.393793
21
192.252376
0
LINE
8
boundary
62
5
39
2
10
541.393793
20
192.252376
11
539.372111
21
198.240276
0
LINE
8
boundary
62
5
39
2
10
539.372111
20
198.240276
11
539.035066
21
199.193693
0
LINE
8
boundary
62
5
39
2
10
539.035066
20
199.193693
11
538.653136
21
200.265949
0
LINE
8
boundary
62
5
39
2
10
538.653136
20
200.265949
11
538.308126
21
201.035990
0
LINE
8
boundary
62
5
39
2
10
538.308126
20
201.035990
11
537.909412
21
202.173420
0
LINE
8
boundary
62
5
39
2
10
537.909412
20
202.173420
11
537.241630
21
204.200880
0
LINE
8
boundary
62
5
39
2
10
537.241630
20
204.200880
11
535.312638
21
202.770460
0
LINE
8
boundary
62
5
39
2
10
535.312638
20
202.770460
11
531.541891
21
199.975049
0
LINE
8
boundary
62
5
39
2
10
531.541891
20
199.975049
11
530.755607
21
199.396281
0
LINE
8
boundary
62
5
39
2
10
530.755607
20
199.396281
11
525.939708
21
195.871509
0
LINE
8
boundary
62
5
39
2
10
525.939708
20
195.871509
11
516.730153
21
189.175230
0
LINE
8
boundary
62
5
39
2
10
516.730153
20
189.175230
11
509.641984
21
184.083122
0
LINE
8
boundary
62
5
39
2
10
509.641984
20
184.083122
11
505.653497
21
181.235332
0
LINE
8
boundary
62
5
39
2
10
505.653497
20
181.235332
11
503.951146
21
180.019316
0
LINE
8
boundary
62
5
39
2
10
503.951146
20
180.019316
11
497.551541
21
175.487680
0
LINE
8
boundary
62
5
39
2
10
497.551541
20
175.487680
11
495.362107
21
173.943329
0
LINE
8
boundary
62
5
39
2
10
495.362107
20
173.943329
11
491.681231
21
171.345438
0
LINE
8
boundary
62
5
39
2
10
491.681231
20
171.345438
11
486.500596
21
167.705286
0
LINE
8
boundary
62
5
39
2
10
486.500596
20
167.705286
11
481.844173
21
164.467048
0
LINE
8
boundary
62
5
39
2
10
481.844173
20
164.467048
11
479.368402
21
162.738643
0
LINE
8
boundary
62
5
39
2
10
479.368402
20
162.738643
11
475.539514
21
160.072050
0
LINE
8
boundary
62
5
39
2
10
475.539514
20
160.072050
11
472.097399
21
157.689267
0
LINE
8
boundary
62
5
39
2
10
472.097399
20
157.689267
11
470.520481
21
156.604149
0
LINE
8
boundary
62
5
39
2
10
470.520481
20
156.604149
11
467.126966
21
154.252111
0
LINE
8
boundary
62
5
39
2
10
467.126966
20
154.252111
11
464.103293
21
152.181898
0
LINE
8
boundary
62
5
39
2
10
464.103293
20
152.181898
11
463.096422
21
151.491024
0
LINE
8
boundary
62
5
39
2
10
463.096422
20
151.491024
11
461.400146
21
150.327197
0
LINE
8
boundary
62
5
39
2
10
461.400146
20
150.327197
11
460.188961
21
149.495290
0
LINE
8
annotation
62
1
39
211
10
505.785578
20
158.079235
11
505.785578
21
161.419047
0
LINE
8
annotation
62
1
39
211
10
505.785578
20
161.419047
11
510.753795
21
158.332952
0
LINE
8
annotation
62
1
39
211
10
510.753795
20
158.332952
11
510.753795
21
158.332952
0
LINE
8
annotation
62
1
39
211
10
510.753795
20
158.332952
11
510.758360
21
158.329262
0
LINE
8
annotation
62
1
39
211
10
510.758360
20
158.329262
11
510.762964
21
158.325724
0
LINE
8
annotation
62
1
39
211
10
510.762964
20
158.325724
11
510.767646
21
158.322315
0
LINE
8
annotation
62
1
39
211
10
510.767646
20
158.322315
11
510.772444
21
158.319010
0
LINE
8
annotation
62
1
39
211
10
510.772444
20
158.319010
11
510.777397
21
158.315786
0
LINE
8
annotation
62
1
39
211
10
510.777397
20
158.315786
11
510.782545
21
158.312621
0
LINE
8
annotation
62
1
39
211
10
510.782545
20
158.312621
11
510.787925
21
158.309490
0
LINE
8
annotation
62
1
39
211
10
510.787925
20
158.309490
11
510.793577
21
158.306372
0
LINE
8
annotation
62
1
39
211
10
510.793577
20
158.306372
11
510.799540
21
158.303241
0
LINE
8
annotation
62
1
39
211
10
510.799540
20
158.303241
11
510.799540
21
158.303241
0
LINE
8
annotation
62
1
39
211
10
510.799540
20
158.303241
11
511.073130
21
158.175817
0
LINE
8
annotation
62
1
39
211
10
511.073130
20
158.175817
11
511.356731
21
158.101378
0
LINE
8
annotation
62
1
39
211
10
511.356731
20
158.101378
11
511.643933
21
158.078100
0
LINE
8
annotation
62
1
39
211
10
511.643933
20
158.078100
11
511.928329
21
158.104159
0
LINE
8
annotation
62
1
39
211
10
511.928329
20
158.104159
11
512.203511
21
158.177729
0
LINE
8
annotation
62
1
39
211
10
512.203511
20
158.177729
11
512.463070
21
158.296988
0
LINE
8
annotation
62
1
39
211
10
512.463070
20
158.296988
11
512.700599
21
158.460111
0
LINE
8
annotation
62
1
39
211
10
512.700599
20
158.460111
11
512.909688
21
158.665274
0
LINE
8
annotation
62
1
39
211
10
512.909688
20
158.665274
11
513.083929
21
158.910651
0
LINE
8
annotation
62
1
39
211
10
513.083929
20
158.910651
11
513.083929
21
158.910651
0
LINE
8
annotation
62
1
39
211
10
513.083929
20
158.910651
11
513.209543
21
159.185003
0
LINE
8
annotation
62
1
39
211
10
513.209543
20
159.185003
11
513.282835
21
159.469038
0
LINE
8
annotation
62
1
39
211
10
513.282835
20
159.469038
11
513.305455
21
159.756407
0
LINE
8
annotation
62
1
39
211
10
513.305455
20
159.756407
11
513.279053
21
160.040761
0
LINE
8
annotation
62
1
39
211
10
513.279053
20
160.040761
11
513.205279
21
160.315749
0
LINE
8
annotation
62
1
39
211
10
513.205279
20
160.315749
11
513.085781
21
160.575021
0
LINE
8
annotation
62
1
39
211
10
513.085781
20
160.575021
11
512.922210
21
160.812227
0
LINE
8
annotation
62
1
39
211
10
512.922210
20
160.812227
11
512.716215
21
161.021017
0
LINE
8
annotation
62
1
39
211
10
512.716215
20
161.021017
11
512.469446
21
161.195041
0
LINE
8
annotation
62
1
39
211
10
512.469446
20
161.195041
11
512.048786
21
161.414331
0
LINE
8
annotation
62
1
39
211
10
560.866642
20
129.535242
11
560.866642
21
128.973708
0
LINE
8
annotation
62
1
39
211
10
560.866642
20
128.973708
11
560.866642
21
128.973708
0
LINE
8
annotation
62
1
39
211
10
560.866642
20
128.973708
11
560.875701
21
128.872715
0
LINE
8
annotation
62
1
39
211
10
560.875701
20
128.872715
11
560.901812
21
128.777683
0
LINE
8
annotation
62
1
39
211
10
560.901812
20
128.777683
11
560.943371
21
128.690195
0
LINE
8
annotation
62
1
39
211
10
560.943371
20
128.690195
11
560.998776
21
128.611830
0
LINE
8
annotation
62
1
39
211
10
560.998776
20
128.611830
11
561.066423
21
128.544168
0
LINE
8
annotation
62
1
39
211
10
561.066423
20
128.544168
11
561.144710
21
128.488792
0
LINE
8
annotation
62
1
39
211
10
561.144710
20
128.488792
11
561.232034
21
128.447280
0
LINE
8
annotation
62
1
39
211
10
561.232034
20
128.447280
11
561.326793
21
128.421214
0
LINE
8
annotation
62
1
39
211
10
561.326793
20
128.421214
11
561.427383
21
128.412174
0
LINE
8
annotation
62
1
39
211
10
561.427383
20
128.412174
11
561.708546
21
128.412174
0
LINE
8
annotation
62
1
39
211
10
561.708546
20
128.412174
11
561.708546
21
128.412174
0
LINE
8
annotation
62
1
39
211
10
561.708546
20
128.412174
11
561.809095
21
128.421214
0
LINE
8
annotation
62
1
39
211
10
561.809095
20
128.421214
11
561.903831
21
128.447280
0
LINE
8
annotation
62
1
39
211
10
561.903831
20
128.447280
11
561.991149
21
128.488792
0
LINE
8
annotation
62
1
39
211
10
561.991149
20
128.488792
11
562.069441
21
128.544168
0
LINE
8
annotation
62
1
39
211
10
562.069441
20
128.544168
11
562.137102
21
128.611830
0
LINE
8
annotation
62
1
39
211
10
562.137102
20
128.611830
11
562.192523
21
128.690195
0
LINE
8
annotation
62
1
39
211
10
562.192523
20
128.690195
11
562.234099
21
128.777683
0
LINE
8
annotation
62
1
39
211
10
562.234099
20
128.777683
11
562.260223
21
128.872715
0
LINE
8
annotation
62
1
39
211
10
562.260223
20
128.872715
11
562.269288
21
128.973708
0
LINE
8
annotation
62
1
39
211
10
562.269288
20
128.973708
11
562.269288
21
129.254871
0
LINE
8
annotation
62
1
39
211
10
562.269288
20
129.254871
11
562.269288
21
128.973708
0
LINE
8
annotation
62
1
39
211
10
562.269288
20
128.973708
11
562.269288
21
128.973708
0
LINE
8
annotation
62
1
39
211
10
562.269288
20
128.973708
11
562.278355
21
128.872715
0
LINE
8
annotation
62
1
39
211
10
562.278355
20
128.872715
11
562.304494
21
128.777683
0
LINE
8
annotation
62
1
39
211
10
562.304494
20
128.777683
11
562.346111
21
128.690195
0
LINE
8
annotation
62
1
39
211
10
562.346111
20
128.690195
11
562.401613
21
128.611830
0
LINE
8
annotation
62
1
39
211
10
562.401613
20
128.611830
11
562.469406
21
128.544168
0
LINE
8
annotation
62
1
39
211
10
562.469406
20
128.544168
11
562.547896
21
128.488792
0
LINE
8
annotation
62
1
39
211
10
562.547896
20
128.488792
11
562.635490
21
128.447280
0
LINE
8
annotation
62
1
39
211
10
562.635490
20
128.447280
11
562.730594
21
128.421214
0
LINE
8
annotation
62
1
39
211
10
562.730594
20
128.421214
11
562.831615
21
128.412174
0
LINE
8
annotation
62
1
39
211
10
562.831615
20
128.412174
11
562.831615
21
128.412174
0
LINE
8
annotation
62
1
39
211
10
562.831615
20
128.412174
11
562.932163
21
128.421214
0
LINE
8
annotation
62
1
39
211
10
562.932163
20
128.421214
11
563.026900
21
128.447280
0
LINE
8
annotation
62
1
39
211
10
563.026900
20
128.447280
11
563.114218
21
128.488792
0
LINE
8
annotation
62
1
39
211
10
563.114218
20
128.488792
11
563.192510
21
128.544168
0
LINE
8
annotation
62
1
39
211
10
563.192510
20
128.544168
11
563.260170
21
128.611830
0
LINE
8
annotation
62
1
39
211
10
563.260170
20
128.611830
11
563.315592
21
128.690195
0
LINE
8
annotation
62
1
39
211
10
563.315592
20
128.690195
11
563.357167
21
128.777683
0
LINE
8
annotation
62
1
39
211
10
563.357167
20
128.777683
11
563.383291
21
128.872715
0
LINE
8
annotation
62
1
39
211
10
563.383291
20
128.872715
11
563.392356
21
128.973708
0
LINE
8
annotation
62
1
39
211
10
563.392356
20
128.973708
11
563.392356
21
129.535242
0
LINE
8
annotation
62
1
39
211
10
523.970446
20
140.027074
11
521.520116
21
136.482896
0
LINE
8
annotation
62
1
39
211
10
521.520116
20
136.482896
11
519.069325
21
140.027074
0
LINE
8
annotation
62
1
39
211
10
521.520116
20
136.768107
11
521.520116
21
132.679310
0
LINE
8
annotation
62
1
39
211
10
530.743986
20
136.353192
11
526.726606
21
136.353192
0
LINE
8
annotation
62
1
39
211
10
535.132163
20
132.679540
11
536.765563
21
140.026843
0
LINE
8
annotation
62
1
39
211
10
536.765563
20
140.026843
11
533.498303
21
140.026843
0
LINE
8
annotation
62
1
39
211
10
536.765563
20
136.754976
11
535.132163
21
136.754976
0
LINE
8
annotation
62
1
39
211
10
543.539102
20
136.353192
11
539.521723
21
136.353192
0
LINE
8
annotation
62
1
39
211
10
547.927280
20
132.679540
11
547.927280
21
140.026843
0
LINE
8
annotation
62
1
39
211
10
547.927280
20
140.026843
11
546.293880
21
138.392983
0
LINE
8
boundary
62
5
39
2
10
76.435474
20
833.676143
11
70.724058
21
829.335787
0
LINE
8
boundary
62
5
39
2
10
70.724058
20
829.335787
11
66.161020
21
825.873934
0
LINE
8
boundary
62
5
39
2
10
66.161020
20
825.873934
11
59.776682
21
821.043618
0
LINE
8
boundary
62
5
39
2
10
59.776682
20
821.043618
11
58.571909
21
820.131867
0
LINE
8
boundary
62
5
39
2
10
58.571909
20
820.131867
11
50.896894
21
814.353093
0
LINE
8
boundary
62
5
39
2
10
50.896894
20
814.353093
11
50.080044
21
813.737443
0
LINE
8
boundary
62
5
39
2
10
50.080044
20
813.737443
11
46.565755
21
811.103217
0
LINE
8
boundary
62
5
39
2
10
46.565755
20
811.103217
11
41.904512
21
807.608379
0
LINE
8
boundary
62
5
39
2
10
41.904512
20
807.608379
11
41.044524
21
806.968665
0
LINE
8
boundary
62
5
39
2
10
41.044524
20
806.968665
11
39.212506
21
805.605076
0
LINE
8
boundary
62
5
39
2
10
39.212506
20
805.605076
11
35.402251
21
802.770898
0
LINE
8
boundary
62
5
39
2
10
35.402251
20
802.770898
11
32.497481
21
800.623320
0
LINE
8
boundary
62
5
39
2
10
32.497481
20
800.623320
11
27.383310
21
796.861338
0
LINE
8
boundary
62
5
39
2
10
27.383310
20
796.861338
11
26.788956
21
796.424314
0
LINE
8
boundary
62
5
39
2
10
26.788956
20
796.424314
11
26.207002
21
795.998593
0
LINE
8
boundary
62
5
39
2
10
26.207002
20
795.998593
11
25.190312
21
795.258079
0
LINE
8
boundary
62
5
39
2
10
25.190312
20
795.258079
11
20.000026
21
791.476628
0
LINE
8
boundary
62
5
39
2
10
20.000026
20
791.476628
11
17.002621
21
789.306743
0
LINE
8
boundary
62
5
39
2
10
17.002621
20
789.306743
11
12.608823
21
786.160249
0
LINE
8
boundary
62
5
39
2
10
12.608823
20
786.160249
11
10.156974
21
784.400516
0
LINE
8
boundary
62
5
39
2
10
10.156974
20
784.400516
11
6.846603
21
782.047480
0
LINE
8
boundary
62
5
39
2
10
6.846603
20
782.047480
11
5.594115
21
781.158563
0
LINE
8
boundary
62
5
39
2
10
5.594115
20
781.158563
11
5.114367
21
780.820698
0
LINE
8
boundary
62
5
39
2
10
5.114367
20
780.820698
11
1.834818
21
778.514511
0
LINE
8
boundary
62
5
39
2
10
1.834818
20
778.514511
11
1.908341
21
774.532651
0
LINE
8
boundary
62
5
39
2
10
1.908341
20
774.532651
11
2.045488
21
773.708061
0
LINE
8
boundary
62
5
39
2
10
2.045488
20
773.708061
11
2.671559
21
769.852527
0
LINE
8
boundary
62
5
39
2
10
2.671559
20
769.852527
11
3.097378
21
768.130468
0
LINE
8
boundary
62
5
39
2
10
3.097378
20
768.130468
11
3.798100
21
765.112379
0
LINE
8
boundary
62
5
39
2
10
3.798100
20
765.112379
11
5.609792
21
759.684563
0
LINE
8
boundary
62
5
39
2
10
5.609792
20
759.684563
11
7.532931
21
755.292441
0
LINE
8
boundary
62
5
39
2
10
7.532931
20
755.292441
11
10.165144
21
749.772474
0
LINE
8
boundary
62
5
39
2
10
10.165144
20
749.772474
11
11.835544
21
747.004437
0
LINE
8
boundary
62
5
39
2
10
11.835544
20
747.004437
11
12.518269
21
745.961344
0
LINE
8
boundary
62
5
39
2
10
12.518269
20
745.961344
11
15.594083
21
741.727320
0
LINE
8
boundary
62
5
39
2
10
15.594083
20
741.727320
11
18.019186
21
738.723351
0
LINE
8
boundary
62
5
39
2
10
18.019186
20
738.723351
11
19.884104
21
736.665244
0
LINE
8
boundary
62
5
39
2
10
19.884104
20
736.665244
11
21.303417
21
735.294171
0
LINE
8
boundary
62
5
39
2
10
21.303417
20
735.294171
11
22.380298
21
734.406912
0
LINE
8
boundary
62
5
39
2
10
22.380298
20
734.406912
11
28.037946
21
729.655476
0
LINE
8
boundary
62
5
39
2
10
28.037946
20
729.655476
11
30.764081
21
727.261605
0
LINE
8
boundary
62
5
39
2
10
30.764081
20
727.261605
11
31.295741
21
726.793118
0
LINE
8
boundary
62
5
39
2
10
31.295741
20
726.793118
11
32.181742
21
726.141552
0
LINE
8
boundary
62
5
39
2
10
32.181742
20
726.141552
11
33.966394
21
725.005303
0
LINE
8
boundary
62
5
39
2
10
33.966394
20
725.005303
11
35.683229
21
724.076146
0
LINE
8
boundary
62
5
39
2
10
35.683229
20
724.076146
11
38.895753
21
722.144369
0
LINE
8
boundary
62
5
39
2
10
38.895753
20
722.144369
11
42.090786
21
720.838974
0
LINE
8
boundary
62
5
39
2
10
42.090786
20
720.838974
11
42.776468
21
720.509384
0
LINE
8
boundary
62
5
39
2
10
42.776468
20
720.509384
11
44.643650
21
719.609407
0
LINE
8
boundary
62
5
39
2
10
44.643650
20
719.609407
11
45.348651
21
720.149307
0
LINE
8
boundary
62
5
39
2
10
45.348651
20
720.149307
11
45.348650
21
765.092903
0
LINE
8
boundary
62
5
39
2
10
45.348650
20
765.092903
11
49.794651
21
765.092902
0
LINE
8
boundary
62
5
39
2
10
49.794651
20
765.092902
11
49.794650
21
718.213480
0
LINE
8
boundary
62
5
39
2
10
49.794650
20
718.213480
11
50.499649
21
717.673581
0
LINE
8
boundary
62
5
39
2
10
50.499649
20
717.673581
11
53.094458
21
716.776072
0
LINE
8
boundary
62
5
39
2
10
53.094458
20
716.776072
11
54.338080
21
716.368220
0
LINE
8
boundary
62
5
39
2
10
54.338080
20
716.368220
11
56.166029
21
715.829076
0
LINE
8
boundary
62
5
39
2
10
56.166029
20
715.829076
11
59.407064
21
715.037129
0
LINE
8
boundary
62
5
39
2
10
59.407064
20
715.037129
11
60.671756
21
714.751864
0
LINE
8
boundary
62
5
39
2
10
60.671756
20
714.751864
11
62.649724
21
714.337489
0
LINE
8
boundary
62
5
39
2
10
62.649724
20
714.337489
11
64.038570
21
714.046343
0
LINE
8
boundary
62
5
39
2
10
64.038570
20
714.046343
11
65.523818
21
713.607247
0
LINE
8
boundary
62
5
39
2
10
65.523818
20
713.607247
11
66.412323
21
713.422933
0
LINE
8
boundary
62
5
39
2
10
66.412323
20
713.422933
11
68.235194
21
712.876358
0
LINE
8
boundary
62
5
39
2
10
68.235194
20
712.876358
11
69.013886
21
712.662452
0
LINE
8
boundary
62
5
39
2
10
69.013886
20
712.662452
11
70.869044
21
712.130466
0
LINE
8
boundary
62
5
39
2
10
70.869044
20
712.130466
11
71.420206
21
711.983114
0
LINE
8
boundary
62
5
39
2
10
71.420206
20
711.983114
11
73.010538
21
711.562248
0
LINE
8
boundary
62
5
39
2
10
73.010538
20
711.562248
11
74.348550
21
711.248382
0
LINE
8
boundary
62
5
39
2
10
74.348550
20
711.248382
11
80.876989
21
709.013729
0
LINE
8
boundary
62
5
39
2
10
80.876989
20
709.013729
11
81.382727
21
708.865813
0
LINE
8
boundary
62
5
39
2
10
81.382727
20
708.865813
11
84.354181
21
707.671528
0
LINE
8
boundary
62
5
39
2
10
84.354181
20
707.671528
11
87.589388
21
706.262589
0
LINE
8
boundary
62
5
39
2
10
87.589388
20
706.262589
11
90.012683
21
705.113226
0
LINE
8
boundary
62
5
39
2
10
90.012683
20
705.113226
11
90.637221
21
704.803463
0
LINE
8
boundary
62
5
39
2
10
90.637221
20
704.803463
11
91.718339
21
704.278254
0
LINE
8
boundary
62
5
39
2
10
91.718339
20
704.278254
11
92.656073
21
703.828428
0
LINE
8
boundary
62
5
39
2
10
92.656073
20
703.828428
11
93.987194
21
703.194641
0
LINE
8
boundary
62
5
39
2
10
93.987194
20
703.194641
11
96.119999
21
702.157945
0
LINE
8
boundary
62
5
39
2
10
96.119999
20
702.157945
11
96.927615
21
701.772459
0
LINE
8
boundary
62
5
39
2
10
96.927615
20
701.772459
11
97.933938
21
702.172446
0
LINE
8
boundary
62
5
39
2
10
97.933938
20
702.172446
11
97.933938
21
776.024203
0
LINE
8
boundary
62
5
39
2
10
97.933938
20
776.024203
11
102.379938
21
776.024203
0
LINE
8
boundary
62
5
39
2
10
102.379938
20
776.024203
11
102.379938
21
699.519221
0
LINE
8
boundary
62
5
39
2
10
102.379938
20
699.519221
11
103.084938
21
698.979320
0
LINE
8
boundary
62
5
39
2
10
103.084938
20
698.979320
11
105.096128
21
698.115515
0
LINE
8
boundary
62
5
39
2
10
105.096128
20
698.115515
11
107.591042
21
697.083510
0
LINE
8
boundary
62
5
39
2
10
107.591042
20
697.083510
11
108.708510
21
696.633409
0
LINE
8
boundary
62
5
39
2
10
108.708510
20
696.633409
11
111.976633
21
695.348609
0
LINE
8
boundary
62
5
39
2
10
111.976633
20
695.348609
11
112.488074
21
695.152531
0
LINE
8
boundary
62
5
39
2
10
112.488074
20
695.152531
11
113.334967
21
694.836349
0
LINE
8
boundary
62
5
39
2
10
113.334967
20
694.836349
11
114.662944
21
694.336067
0
LINE
8
boundary
62
5
39
2
10
114.662944
20
694.336067
11
118.070651
21
693.068234
0
LINE
8
boundary
62
5
39
2
10
118.070651
20
693.068234
11
121.084950
21
691.980833
0
LINE
8
boundary
62
5
39
2
10
121.084950
20
691.980833
11
123.129140
21
691.280625
0
LINE
8
boundary
62
5
39
2
10
123.129140
20
691.280625
11
123.853783
21
691.022896
0
LINE
8
boundary
62
5
39
2
10
123.853783
20
691.022896
11
125.683728
21
690.410831
0
LINE
8
boundary
62
5
39
2
10
125.683728
20
690.410831
11
130.849082
21
688.702058
0
LINE
8
boundary
62
5
39
2
10
130.849082
20
688.702058
11
131.836648
21
688.384431
0
LINE
8
boundary
62
5
39
2
10
131.836648
20
688.384431
11
132.826421
21
688.091867
0
LINE
8
boundary
62
5
39
2
10
132.826421
20
688.091867
11
133.637755
21
687.849511
0
LINE
8
boundary
62
5
39
2
10
133.637755
20
687.849511
11
135.464887
21
687.283840
0
LINE
8
boundary
62
5
39
2
10
135.464887
20
687.283840
11
142.496359
21
685.046295
0
LINE
8
boundary
62
5
39
2
10
142.496359
20
685.046295
11
146.328107
21
683.805567
0
LINE
8
boundary
62
5
39
2
10
146.328107
20
683.805567
11
149.378984
21
682.654291
0
LINE
8
boundary
62
5
39
2
10
149.378984
20
682.654291
11
150.519225
21
683.036106
0
LINE
8
boundary
62
5
39
2
10
150.519225
20
683.036106
11
150.519226
21
779.626719
0
LINE
8
boundary
62
5
39
2
10
150.519226
20
779.626719
11
154.965225
21
779.626719
0
LINE
8
boundary
62
5
39
2
10
154.965225
20
779.626719
11
154.965225
21
680.591947
0
LINE
8
boundary
62
5
39
2
10
154.965225
20
680.591947
11
155.670225
21
680.052047
0
LINE
8
boundary
62
5
39
2
10
155.670225
20
680.052047
11
158.530180
21
678.795206
0
LINE
8
boundary
62
5
39
2
10
158.530180
20
678.795206
11
161.034719
21
677.523230
0
LINE
8
boundary
62
5
39
2
10
161.034719
20
677.523230
11
164.962474
21
675.402176
0
LINE
8
boundary
62
5
39
2
10
164.962474
20
675.402176
11
169.393388
21
672.914612
0
LINE
8
boundary
62
5
39
2
10
169.393388
20
672.914612
11
175.709773
21
669.210115
0
LINE
8
boundary
62
5
39
2
10
175.709773
20
669.210115
11
177.409232
21
668.246218
0
LINE
8
boundary
62
5
39
2
10
177.409232
20
668.246218
11
178.433958
21
667.656264
0
LINE
8
boundary
62
5
39
2
10
178.433958
20
667.656264
11
179.655814
21
666.950149
0
LINE
8
boundary
62
5
39
2
10
179.655814
20
666.950149
11
184.196771
21
664.269055
0
LINE
8
boundary
62
5
39
2
10
184.196771
20
664.269055
11
184.906336
21
663.847686
0
LINE
8
boundary
62
5
39
2
10
184.906336
20
663.847686
11
188.803703
21
661.462056
0
LINE
8
boundary
62
5
39
2
10
188.803703
20
661.462056
11
190.954635
21
660.091728
0
LINE
8
boundary
62
5
39
2
10
190.954635
20
660.091728
11
192.759786
21
658.823530
0
LINE
8
boundary
62
5
39
2
10
192.759786
20
658.823530
11
196.790382
21
656.021925
0
LINE
8
boundary
62
5
39
2
10
196.790382
20
656.021925
11
199.854315
21
653.420980
0
LINE
8
boundary
62
5
39
2
10
199.854315
20
653.420980
11
202.044203
21
651.619811
0
LINE
8
boundary
62
5
39
2
10
202.044203
20
651.619811
11
203.104513
21
651.834069
0
LINE
8
boundary
62
5
39
2
10
203.104513
20
651.834069
11
203.104513
21
739.744486
0
LINE
8
boundary
62
5
39
2
10
203.104513
20
739.744486
11
207.550513
21
739.744486
0
LINE
8
boundary
62
5
39
2
10
207.550513
20
739.744486
11
207.550513
21
646.745950
0
LINE
8
boundary
62
5
39
2
10
207.550513
20
646.745950
11
208.255513
21
646.067811
0
LINE
8
boundary
62
5
39
2
10
208.255513
20
646.067811
11
208.739296
21
645.578765
0
LINE
8
boundary
62
5
39
2
10
208.739296
20
645.578765
11
212.122440
21
642.436515
0
LINE
8
boundary
62
5
39
2
10
212.122440
20
642.436515
11
212.784592
21
641.780384
0
LINE
8
boundary
62
5
39
2
10
212.784592
20
641.780384
11
213.235737
21
641.312737
0
LINE
8
boundary
62
5
39
2
10
213.235737
20
641.312737
11
215.790709
21
638.736179
0
LINE
8
boundary
62
5
39
2
10
215.790709
20
638.736179
11
219.909683
21
635.039807
0
LINE
8
boundary
62
5
39
2
10
219.909683
20
635.039807
11
221.966536
21
633.209484
0
LINE
8
boundary
62
5
39
2
10
221.966536
20
633.209484
11
226.468472
21
628.877916
0
LINE
8
boundary
62
5
39
2
10
226.468472
20
628.877916
11
226.922018
21
628.471276
0
LINE
8
boundary
62
5
39
2
10
226.922018
20
628.471276
11
231.392764
21
624.142023
0
LINE
8
boundary
62
5
39
2
10
231.392764
20
624.142023
11
233.383988
21
621.853481
0
LINE
8
boundary
62
5
39
2
10
233.383988
20
621.853481
11
238.326324
21
615.754727
0
LINE
8
boundary
62
5
39
2
10
238.326324
20
615.754727
11
239.238862
21
614.543206
0
LINE
8
boundary
62
5
39
2
10
239.238862
20
614.543206
11
239.583736
21
614.043896
0
LINE
8
boundary
62
5
39
2
10
239.583736
20
614.043896
11
239.894408
21
613.571055
0
LINE
8
boundary
62
5
39
2
10
239.894408
20
613.571055
11
245.227630
21
605.061406
0
LINE
8
boundary
62
5
39
2
10
245.227630
20
605.061406
11
245.693168
21
604.306396
0
LINE
8
boundary
62
5
39
2
10
245.693168
20
604.306396
11
246.123456
21
603.560364
0
LINE
8
boundary
62
5
39
2
10
246.123456
20
603.560364
11
250.739444
21
594.906260
0
LINE
8
boundary
62
5
39
2
10
250.739444
20
594.906260
11
251.075546
21
594.301537
0
LINE
8
boundary
62
5
39
2
10
251.075546
20
594.301537
11
251.413921
21
593.680341
0
LINE
8
boundary
62
5
39
2
10
251.413921
20
593.680341
11
252.117341
21
592.346775
0
LINE
8
boundary
62
5
39
2
10
252.117341
20
592.346775
11
254.393440
21
588.455250
0
LINE
8
boundary
62
5
39
2
10
254.393440
20
588.455250
11
254.984801
21
586.860884
0
LINE
8
boundary
62
5
39
2
10
254.984801
20
586.860884
11
255.689801
21
587.400784
0
LINE
8
boundary
62
5
39
2
10
255.689801
20
587.400784
11
255.689801
21
666.102743
0
LINE
8
boundary
62
5
39
2
10
255.689801
20
666.102743
11
260.135801
21
666.102743
0
LINE
8
boundary
62
5
39
2
10
260.135801
20
666.102743
11
260.135801
21
574.384301
0
LINE
8
boundary
62
5
39
2
10
260.135801
20
574.384301
11
260.840801
21
572.554454
0
LINE
8
boundary
62
5
39
2
10
260.840801
20
572.554454
11
261.221545
21
571.566220
0
LINE
8
boundary
62
5
39
2
10
261.221545
20
571.566220
11
262.815661
21
566.885919
0
LINE
8
boundary
62
5
39
2
10
262.815661
20
566.885919
11
263.436613
21
564.999724
0
LINE
8
boundary
62
5
39
2
10
263.436613
20
564.999724
11
263.602933
21
564.429836
0
LINE
8
boundary
62
5
39
2
10
263.602933
20
564.429836
11
265.037218
21
560.190184
0
LINE
8
boundary
62
5
39
2
10
265.037218
20
560.190184
11
266.098361
21
557.278360
0
LINE
8
boundary
62
5
39
2
10
266.098361
20
557.278360
11
267.002326
21
554.903202
0
LINE
8
boundary
62
5
39
2
10
267.002326
20
554.903202
11
267.564319
21
553.409811
0
LINE
8
boundary
62
5
39
2
10
267.564319
20
553.409811
11
268.570878
21
550.852653
0
LINE
8
boundary
62
5
39
2
10
268.570878
20
550.852653
11
269.503087
21
548.579541
0
LINE
8
boundary
62
5
39
2
10
269.503087
20
548.579541
11
271.265271
21
544.590846
0
LINE
8
boundary
62
5
39
2
10
271.265271
20
544.590846
11
271.840608
21
543.479220
0
LINE
8
boundary
62
5
39
2
10
271.840608
20
543.479220
11
272.182303
21
542.679399
0
LINE
8
boundary
62
5
39
2
10
272.182303
20
542.679399
11
272.722436
21
541.336893
0
LINE
8
boundary
62
5
39
2
10
272.722436
20
541.336893
11
274.579538
21
537.628898
0
LINE
8
boundary
62
5
39
2
10
274.579538
20
537.628898
11
276.625845
21
534.126176
0
LINE
8
boundary
62
5
39
2
10
276.625845
20
534.126176
11
277.654292
21
532.515515
0
LINE
8
boundary
62
5
39
2
10
277.654292
20
532.515515
11
278.525775
21
530.946309
0
LINE
8
boundary
62
5
39
2
10
278.525775
20
530.946309
11
280.830834
21
527.492846
0
LINE
8
boundary
62
5
39
2
10
280.830834
20
527.492846
11
283.659213
21
523.652500
0
LINE
8
boundary
62
5
39
2
10
283.659213
20
523.652500
11
284.890188
21
521.988520
0
LINE
8
boundary
62
5
39
2
10
284.890188
20
521.988520
11
287.934159
21
518.132070
0
LINE
8
boundary
62
5
39
2
10
287.934159
20
518.132070
11
289.714428
21
515.938893
0
LINE
8
boundary
62
5
39
2
10
289.714428
20
515.938893
11
290.723378
21
514.712759
0
LINE
8
boundary
62
5
39
2
10
290.723378
20
514.712759
11
291.457183
21
513.842833
0
LINE
8
boundary
62
5
39
2
10
291.457183
20
513.842833
11
293.667439
21
511.321851
0
LINE
8
boundary
62
5
39
2
10
293.667439
20
511.321851
11
295.369666
21
509.345230
0
LINE
8
boundary
62
5
39
2
10
295.369666
20
509.345230
11
296.638883
21
507.909492
0
LINE
8
boundary
62
5
39
2
10
296.638883
20
507.909492
11
298.376440
21
506.035689
0
LINE
8
boundary
62
5
39
2
10
298.376440
20
506.035689
11
299.272202
21
505.261369
0
LINE
8
boundary
62
5
39
2
10
299.272202
20
505.261369
11
300.181635
21
504.177202
0
LINE
8
boundary
62
5
39
2
10
300.181635
20
504.177202
11
301.652731
21
502.586576
0
LINE
8
boundary
62
5
39
2
10
301.652731
20
502.586576
11
302.176414
21
501.926805
0
LINE
8
boundary
62
5
39
2
10
302.176414
20
501.926805
11
302.933728
21
501.113627
0
LINE
8
boundary
62
5
39
2
10
302.933728
20
501.113627
11
303.575050
21
500.435472
0
LINE
8
boundary
62
5
39
2
10
303.575050
20
500.435472
11
304.133563
21
499.850767
0
LINE
8
boundary
62
5
39
2
10
304.133563
20
499.850767
11
305.343563
21
498.699541
0
LINE
8
boundary
62
5
39
2
10
305.343563
20
498.699541
11
307.570089
21
496.431222
0
LINE
8
boundary
62
5
39
2
10
307.570089
20
496.431222
11
308.275088
21
496.971122
0
LINE
8
boundary
62
5
39
2
10
308.275088
20
496.971122
11
308.275088
21
566.843391
0
LINE
8
boundary
62
5
39
2
10
308.275088
20
566.843391
11
312.721088
21
566.843391
0
LINE
8
boundary
62
5
39
2
10
312.721088
20
566.843391
11
312.721088
21
491.078530
0
LINE
8
boundary
62
5
39
2
10
312.721088
20
491.078530
11
313.426087
21
490.392952
0
LINE
8
boundary
62
5
39
2
10
313.426087
20
490.392952
11
313.929639
21
489.903273
0
LINE
8
boundary
62
5
39
2
10
313.929639
20
489.903273
11
315.381280
21
488.059269
0
LINE
8
boundary
62
5
39
2
10
315.381280
20
488.059269
11
317.014548
21
486.251445
0
LINE
8
boundary
62
5
39
2
10
317.014548
20
486.251445
11
317.463306
21
485.802620
0
LINE
8
boundary
62
5
39
2
10
317.463306
20
485.802620
11
319.168537
21
484.283940
0
LINE
8
boundary
62
5
39
2
10
319.168537
20
484.283940
11
322.718241
21
480.685121
0
LINE
8
boundary
62
5
39
2
10
322.718241
20
480.685121
11
324.609361
21
478.940993
0
LINE
8
boundary
62
5
39
2
10
324.609361
20
478.940993
11
326.391085
21
477.604237
0
LINE
8
boundary
62
5
39
2
10
326.391085
20
477.604237
11
330.853019
21
473.362830
0
LINE
8
boundary
62
5
39
2
10
330.853019
20
473.362830
11
332.492349
21
472.059346
0
LINE
8
boundary
62
5
39
2
10
332.492349
20
472.059346
11
333.916736
21
470.928048
0
LINE
8
boundary
62
5
39
2
10
333.916736
20
470.928048
11
337.276486
21
468.206147
0
LINE
8
boundary
62
5
39
2
10
337.276486
20
468.206147
11
341.013904
21
464.925943
0
LINE
8
boundary
62
5
39
2
10
341.013904
20
464.925943
11
341.542741
21
464.600709
0
LINE
8
boundary
62
5
39
2
10
341.542741
20
464.600709
11
342.022865
21
464.344722
0
LINE
8
boundary
62
5
39
2
10
342.022865
20
464.344722
11
347.633921
21
461.386727
0
LINE
8
boundary
62
5
39
2
10
347.633921
20
461.386727
11
351.028063
21
459.483114
0
LINE
8
boundary
62
5
39
2
10
351.028063
20
459.483114
11
351.684163
21
459.155183
0
LINE
8
boundary
62
5
39
2
10
351.684163
20
459.155183
11
352.964419
21
458.704945
0
LINE
8
boundary
62
5
39
2
10
352.964419
20
458.704945
11
357.909440
21
457.001977
0
LINE
8
boundary
62
5
39
2
10
357.909440
20
457.001977
11
360.155376
21
456.561855
0
LINE
8
boundary
62
5
39
2
10
360.155376
20
456.561855
11
360.860376
21
457.101755
0
LINE
8
boundary
62
5
39
2
10
360.860376
20
457.101755
11
360.860375
21
520.840295
0
LINE
8
boundary
62
5
39
2
10
360.860375
20
520.840295
11
365.306376
21
520.840295
0
LINE
8
boundary
62
5
39
2
10
365.306376
20
520.840295
11
365.306376
21
455.959537
0
LINE
8
boundary
62
5
39
2
10
365.306376
20
455.959537
11
366.011376
21
455.419637
0
LINE
8
boundary
62
5
39
2
10
366.011376
20
455.419637
11
368.570714
21
455.111120
0
LINE
8
boundary
62
5
39
2
10
368.570714
20
455.111120
11
370.455491
21
454.871022
0
LINE
8
boundary
62
5
39
2
10
370.455491
20
454.871022
11
377.218002
21
454.650352
0
LINE
8
boundary
62
5
39
2
10
377.218002
20
454.650352
11
379.800688
21
454.468394
0
LINE
8
boundary
62
5
39
2
10
379.800688
20
454.468394
11
380.910865
21
454.489810
0
LINE
8
boundary
62
5
39
2
10
380.910865
20
454.489810
11
381.672309
21
454.548526
0
LINE
8
boundary
62
5
39
2
10
381.672309
20
454.548526
11
385.265656
21
455.041834
0
LINE
8
boundary
62
5
39
2
10
385.265656
20
455.041834
11
392.569391
21
455.686160
0
LINE
8
boundary
62
5
39
2
10
392.569391
20
455.686160
11
394.712942
21
456.080143
0
LINE
8
boundary
62
5
39
2
10
394.712942
20
456.080143
11
395.316170
21
456.160659
0
LINE
8
boundary
62
5
39
2
10
395.316170
20
456.160659
11
396.601157
21
456.430056
0
LINE
8
boundary
62
5
39
2
10
396.601157
20
456.430056
11
400.227227
21
457.496624
0
LINE
8
boundary
62
5
39
2
10
400.227227
20
457.496624
11
403.247350
21
458.397798
0
LINE
8
boundary
62
5
39
2
10
403.247350
20
458.397798
11
408.139290
21
460.853986
0
LINE
8
boundary
62
5
39
2
10
408.139290
20
460.853986
11
412.307984
21
462.709369
0
LINE
8
boundary
62
5
39
2
10
412.307984
20
462.709369
11
413.445663
21
463.443394
0
LINE
8
boundary
62
5
39
2
10
413.445663
20
463.443394
11
413.445663
21
512.465078
0
LINE
8
boundary
62
5
39
2
10
413.445663
20
512.465078
11
417.891663
21
512.465078
0
LINE
8
boundary
62
5
39
2
10
417.891663
20
512.465078
11
417.891663
21
467.614091
0
LINE
8
boundary
62
5
39
2
10
417.891663
20
467.614091
11
418.596663
21
467.074191
0
LINE
8
boundary
62
5
39
2
10
418.596663
20
467.074191
11
421.189194
21
469.008271
0
LINE
8
boundary
62
5
39
2
10
421.189194
20
469.008271
11
421.578205
21
469.357895
0
LINE
8
boundary
62
5
39
2
10
421.578205
20
469.357895
11
427.177554
21
474.913735
0
LINE
8
boundary
62
5
39
2
10
427.177554
20
474.913735
11
428.068683
21
475.851458
0
LINE
8
boundary
62
5
39
2
10
428.068683
20
475.851458
11
428.521997
21
476.405043
0
LINE
8
boundary
62
5
39
2
10
428.521997
20
476.405043
11
428.938251
21
477.036195
0
LINE
8
boundary
62
5
39
2
10
428.938251
20
477.036195
11
434.393377
21
484.466622
0
LINE
8
boundary
62
5
39
2
10
434.393377
20
484.466622
11
435.065482
21
485.668769
0
LINE
8
boundary
62
5
39
2
10
435.065482
20
485.668769
11
436.601932
21
488.674898
0
LINE
8
boundary
62
5
39
2
10
436.601932
20
488.674898
11
438.106769
21
491.694122
0
LINE
8
boundary
62
5
39
2
10
438.106769
20
491.694122
11
438.649544
21
493.691753
0
LINE
8
boundary
62
5
39
2
10
438.649544
20
493.691753
11
440.683112
21
500.622833
0
LINE
8
boundary
62
5
39
2
10
440.683112
20
500.622833
11
441.161682
21
502.965744
0
LINE
8
boundary
62
5
39
2
10
441.161682
20
502.965744
11
441.280805
21
503.807300
0
LINE
8
boundary
62
5
39
2
10
441.280805
20
503.807300
11
441.593109
21
505.388882
0
LINE
8
boundary
62
5
39
2
10
441.593109
20
505.388882
11
441.904531
21
509.982104
0
LINE
8
boundary
62
5
39
2
10
441.904531
20
509.982104
11
441.840493
21
510.763682
0
LINE
8
boundary
62
5
39
2
10
441.840493
20
510.763682
11
441.287502
21
516.053908
0
LINE
8
boundary
62
5
39
2
10
441.287502
20
516.053908
11
440.975010
21
518.235129
0
LINE
8
boundary
62
5
39
2
10
440.975010
20
518.235129
11
440.597864
21
521.233827
0
LINE
8
boundary
62
5
39
2
10
440.597864
20
521.233827
11
440.475124
21
523.982779
0
LINE
8
boundary
62
5
39
2
10
440.475124
20
523.982779
11
440.280996
21
525.341824
0
LINE
8
boundary
62
5
39
2
10
440.280996
20
525.341824
11
440.053786
21
526.228132
0
LINE
8
boundary
62
5
39
2
10
440.053786
20
526.228132
11
439.197064
21
529.385949
0
LINE
8
boundary
62
5
39
2
10
439.197064
20
529.385949
11
438.880722
21
530.348462
0
LINE
8
boundary
62
5
39
2
10
438.880722
20
530.348462
11
438.463470
21
531.383048
0
LINE
8
boundary
62
5
39
2
10
438.463470
20
531.383048
11
437.682154
21
533.329350
0
LINE
8
boundary
62
5
39
2
10
437.682154
20
533.329350
11
436.450745
21
536.485599
0
LINE
8
boundary
62
5
39
2
10
436.450745
20
536.485599
11
435.120098
21
539.648049
0
LINE
8
boundary
62
5
39
2
10
435.120098
20
539.648049
11
434.614063
21
540.658256
0
LINE
8
boundary
62
5
39
2
10
434.614063
20
540.658256
11
433.952158
21
541.896011
0
LINE
8
boundary
62
5
39
2
10
433.952158
20
541.896011
11
433.284408
21
543.165983
0
LINE
8
boundary
62
5
39
2
10
433.284408
20
543.165983
11
432.706250
21
544.217200
0
LINE
8
boundary
62
5
39
2
10
432.706250
20
544.217200
11
431.432326
21
546.332447
0
LINE
8
boundary
62
5
39
2
10
431.432326
20
546.332447
11
430.607560
21
547.640720
0
LINE
8
boundary
62
5
39
2
10
430.607560
20
547.640720
11
429.836712
21
548.865029
0
LINE
8
boundary
62
5
39
2
10
429.836712
20
548.865029
11
429.350837
21
549.584405
0
LINE
8
boundary
62
5
39
2
10
429.350837
20
549.584405
11
428.823243
21
550.324844
0
LINE
8
boundary
62
5
39
2
10
428.823243
20
550.324844
11
427.515623
21
552.166075
0
LINE
8
boundary
62
5
39
2
10
427.515623
20
552.166075
11
427.111297
21
552.688034
0
LINE
8
boundary
62
5
39
2
10
427.111297
20
552.688034
11
425.153885
21
555.165374
0
LINE
8
boundary
62
5
39
2
10
425.153885
20
555.165374
11
422.721527
21
557.897443
0
LINE
8
boundary
62
5
39
2
10
422.721527
20
557.897443
11
421.098590
21
559.516348
0
LINE
8
boundary
62
5
39
2
10
421.098590
20
559.516348
11
420.134589
21
560.390206
0
LINE
8
boundary
62
5
39
2
10
420.134589
20
560.390206
11
417.196408
21
560.762025
0
LINE
8
boundary
62
5
39
2
10
417.196408
20
560.762025
11
413.244275
21
561.467866
0
LINE
8
boundary
62
5
39
2
10
413.244275
20
561.467866
11
410.622003
21
561.881891
0
LINE
8
boundary
62
5
39
2
10
410.622003
20
561.881891
11
406.769860
21
562.493844
0
LINE
8
boundary
62
5
39
2
10
406.769860
20
562.493844
11
403.403363
21
563.014350
0
LINE
8
boundary
62
5
39
2
10
403.403363
20
563.014350
11
398.250399
21
563.824846
0
LINE
8
boundary
62
5
39
2
10
398.250399
20
563.824846
11
396.167174
21
564.154456
0
LINE
8
boundary
62
5
39
2
10
396.167174
20
564.154456
11
394.886270
21
564.356319
0
LINE
8
boundary
62
5
39
2
10
394.886270
20
564.356319
11
392.503024
21
564.732201
0
LINE
8
boundary
62
5
39
2
10
392.503024
20
564.732201
11
389.507742
21
565.205339
0
LINE
8
boundary
62
5
39
2
10
389.507742
20
565.205339
11
388.430507
21
564.960385
0
LINE
8
boundary
62
5
39
2
10
388.430507
20
564.960385
11
387.141012
21
564.582569
0
LINE
8
boundary
62
5
39
2
10
387.141012
20
564.582569
11
384.431432
21
564.478685
0
LINE
8
boundary
62
5
39
2
10
384.431432
20
564.478685
11
381.941626
21
563.942294
0
LINE
8
boundary
62
5
39
2
10
381.941626
20
563.942294
11
380.791427
21
564.103755
0
LINE
8
boundary
62
5
39
2
10
380.791427
20
564.103755
11
380.245853
21
564.308168
0
LINE
8
boundary
62
5
39
2
10
380.245853
20
564.308168
11
377.111517
21
565.848624
0
LINE
8
boundary
62
5
39
2
10
377.111517
20
565.848624
11
375.428423
21
567.424862
0
LINE
8
boundary
62
5
39
2
10
375.428423
20
567.424862
11
373.741860
21
569.318556
0
LINE
8
boundary
62
5
39
2
10
373.741860
20
569.318556
11
373.174056
21
570.005084
0
LINE
8
boundary
62
5
39
2
10
373.174056
20
570.005084
11
371.419479
21
572.179695
0
LINE
8
boundary
62
5
39
2
10
371.419479
20
572.179695
11
369.989916
21
574.070383
0
LINE
8
boundary
62
5
39
2
10
369.989916
20
574.070383
11
369.431583
21
574.706625
0
LINE
8
boundary
62
5
39
2
10
369.431583
20
574.706625
11
368.774452
21
575.761825
0
LINE
8
boundary
62
5
39
2
10
368.774452
20
575.761825
11
367.423206
21
577.700376
0
LINE
8
boundary
62
5
39
2
10
367.423206
20
577.700376
11
366.251592
21
579.486527
0
LINE
8
boundary
62
5
39
2
10
366.251592
20
579.486527
11
365.180640
21
580.761769
0
LINE
8
boundary
62
5
39
2
10
365.180640
20
580.761769
11
363.755143
21
582.900161
0
LINE
8
boundary
62
5
39
2
10
363.755143
20
582.900161
11
362.716120
21
584.473948
0
LINE
8
boundary
62
5
39
2
10
362.716120
20
584.473948
11
356.423178
21
591.106933
0
LINE
8
boundary
62
5
39
2
10
356.423178
20
591.106933
11
355.777545
21
591.769952
0
LINE
8
boundary
62
5
39
2
10
355.777545
20
591.769952
11
354.281681
21
593.171118
0
LINE
8
boundary
62
5
39
2
10
354.281681
20
593.171118
11
353.392792
21
594.033087
0
LINE
8
boundary
62
5
39
2
10
353.392792
20
594.033087
11
351.668642
21
595.648366
0
LINE
8
boundary
62
5
39
2
10
351.668642
20
595.648366
11
350.215055
21
597.005648
0
LINE
8
boundary
62
5
39
2
10
350.215055
20
597.005648
11
348.039223
21
599.311443
0
LINE
8
boundary
62
5
39
2
10
348.039223
20
599.311443
11
347.539924
21
599.792954
0
LINE
8
boundary
62
5
39
2
10
347.539924
20
599.792954
11
347.150484
21
600.168589
0
LINE
8
boundary
62
5
39
2
10
347.150484
20
600.168589
11
344.362329
21
602.920775
0
LINE
8
boundary
62
5
39
2
10
344.362329
20
602.920775
11
343.273462
21
603.985769
0
LINE
8
boundary
62
5
39
2
10
343.273462
20
603.985769
11
342.251925
21
604.995157
0
LINE
8
boundary
62
5
39
2
10
342.251925
20
604.995157
11
339.517918
21
607.965510
0
LINE
8
boundary
62
5
39
2
10
339.517918
20
607.965510
11
339.105974
21
608.391812
0
LINE
8
boundary
62
5
39
2
10
339.105974
20
608.391812
11
337.724978
21
609.643667
0
LINE
8
boundary
62
5
39
2
10
337.724978
20
609.643667
11
336.327330
21
611.046796
0
LINE
8
boundary
62
5
39
2
10
336.327330
20
611.046796
11
332.934926
21
614.523713
0
LINE
8
boundary
62
5
39
2
10
332.934926
20
614.523713
11
331.438752
21
616.127980
0
LINE
8
boundary
62
5
39
2
10
331.438752
20
616.127980
11
330.865356
21
616.694840
0
LINE
8
boundary
62
5
39
2
10
330.865356
20
616.694840
11
330.205374
21
617.346774
0
LINE
8
boundary
62
5
39
2
10
330.205374
20
617.346774
11
328.627448
21
618.925626
0
LINE
8
boundary
62
5
39
2
10
328.627448
20
618.925626
11
323.125168
21
624.618250
0
LINE
8
boundary
62
5
39
2
10
323.125168
20
624.618250
11
321.319805
21
626.512654
0
LINE
8
boundary
62
5
39
2
10
321.319805
20
626.512654
11
320.382895
21
627.558350
0
LINE
8
boundary
62
5
39
2
10
320.382895
20
627.558350
11
319.495412
21
628.596002
0
LINE
8
boundary
62
5
39
2
10
319.495412
20
628.596002
11
318.249265
21
629.934396
0
LINE
8
boundary
62
5
39
2
10
318.249265
20
629.934396
11
315.916572
21
632.713150
0
LINE
8
boundary
62
5
39
2
10
315.916572
20
632.713150
11
314.616975
21
634.420595
0
LINE
8
boundary
62
5
39
2
10
314.616975
20
634.420595
11
313.885149
21
635.316710
0
LINE
8
boundary
62
5
39
2
10
313.885149
20
635.316710
11
313.223463
21
636.163487
0
LINE
8
boundary
62
5
39
2
10
313.223463
20
636.163487
11
312.656700
21
636.922166
0
LINE
8
boundary
62
5
39
2
10
312.656700
20
636.922166
11
311.960845
21
637.752669
0
LINE
8
boundary
62
5
39
2
10
311.960845
20
637.752669
11
310.856338
21
639.031774
0
LINE
8
boundary
62
5
39
2
10
310.856338
20
639.031774
11
309.357855
21
641.090745
0
LINE
8
boundary
62
5
39
2
10
309.357855
20
641.090745
11
307.793970
21
643.649406
0
LINE
8
boundary
62
5
39
2
10
307.793970
20
643.649406
11
306.829978
21
645.040480
0
LINE
8
boundary
62
5
39
2
10
306.829978
20
645.040480
11
305.992094
21
646.286238
0
LINE
8
boundary
62
5
39
2
10
305.992094
20
646.286238
11
304.661251
21
648.346559
0
LINE
8
boundary
62
5
39
2
10
304.661251
20
648.346559
11
299.864398
21
655.980254
0
LINE
8
boundary
62
5
39
2
10
299.864398
20
655.980254
11
299.421396
21
656.700601
0
LINE
8
boundary
62
5
39
2
10
299.421396
20
656.700601
11
299.125650
21
657.200863
0
LINE
8
boundary
62
5
39
2
10
299.125650
20
657.200863
11
297.760310
21
659.478475
0
LINE
8
boundary
62
5
39
2
10
297.760310
20
659.478475
11
293.674916
21
665.849168
0
LINE
8
boundary
62
5
39
2
10
293.674916
20
665.849168
11
292.883080
21
667.029644
0
LINE
8
boundary
62
5
39
2
10
292.883080
20
667.029644
11
291.707544
21
668.829156
0
LINE
8
boundary
62
5
39
2
10
291.707544
20
668.829156
11
289.393037
21
671.969164
0
LINE
8
boundary
62
5
39
2
10
289.393037
20
671.969164
11
288.340773
21
674.243216
0
LINE
8
boundary
62
5
39
2
10
288.340773
20
674.243216
11
287.618121
21
675.590233
0
LINE
8
boundary
62
5
39
2
10
287.618121
20
675.590233
11
286.532633
21
677.384092
0
LINE
8
boundary
62
5
39
2
10
286.532633
20
677.384092
11
285.412792
21
679.489428
0
LINE
8
boundary
62
5
39
2
10
285.412792
20
679.489428
11
284.542768
21
681.240392
0
LINE
8
boundary
62
5
39
2
10
284.542768
20
681.240392
11
283.930567
21
682.448968
0
LINE
8
boundary
62
5
39
2
10
283.930567
20
682.448968
11
283.252346
21
683.812620
0
LINE
8
boundary
62
5
39
2
10
283.252346
20
683.812620
11
281.877561
21
686.738877
0
LINE
8
boundary
62
5
39
2
10
281.877561
20
686.738877
11
281.092071
21
688.565698
0
LINE
8
boundary
62
5
39
2
10
281.092071
20
688.565698
11
280.637357
21
689.759143
0
LINE
8
boundary
62
5
39
2
10
280.637357
20
689.759143
11
280.376483
21
690.564345
0
LINE
8
boundary
62
5
39
2
10
280.376483
20
690.564345
11
279.161720
21
694.335805
0
LINE
8
boundary
62
5
39
2
10
279.161720
20
694.335805
11
277.387863
21
698.655429
0
LINE
8
boundary
62
5
39
2
10
277.387863
20
698.655429
11
276.610389
21
700.710618
0
LINE
8
boundary
62
5
39
2
10
276.610389
20
700.710618
11
274.887037
21
706.245892
0
LINE
8
boundary
62
5
39
2
10
274.887037
20
706.245892
11
274.706884
21
706.761794
0
LINE
8
boundary
62
5
39
2
10
274.706884
20
706.761794
11
274.296456
21
708.003380
0
LINE
8
boundary
62
5
39
2
10
274.296456
20
708.003380
11
272.626503
21
713.394894
0
LINE
8
boundary
62
5
39
2
10
272.626503
20
713.394894
11
272.329033
21
714.279548
0
LINE
8
boundary
62
5
39
2
10
272.329033
20
714.279548
11
272.170988
21
714.846808
0
LINE
8
boundary
62
5
39
2
10
272.170988
20
714.846808
11
271.497573
21
717.324858
0
LINE
8
boundary
62
5
39
2
10
271.497573
20
717.324858
11
269.644540
21
722.936108
0
LINE
8
boundary
62
5
39
2
10
269.644540
20
722.936108
11
269.215298
21
724.455439
0
LINE
8
boundary
62
5
39
2
10
269.215298
20
724.455439
11
269.031262
21
724.992033
0
LINE
8
boundary
62
5
39
2
10
269.031262
20
724.992033
11
268.679906
21
726.114598
0
LINE
8
boundary
62
5
39
2
10
268.679906
20
726.114598
11
267.945654
21
728.623594
0
LINE
8
boundary
62
5
39
2
10
267.945654
20
728.623594
11
267.771308
21
729.155823
0
LINE
8
boundary
62
5
39
2
10
267.771308
20
729.155823
11
267.183304
21
731.072535
0
LINE
8
boundary
62
5
39
2
10
267.183304
20
731.072535
11
265.252557
21
737.286625
0
LINE
8
boundary
62
5
39
2
10
265.252557
20
737.286625
11
264.802928
21
738.822369
0
LINE
8
boundary
62
5
39
2
10
264.802928
20
738.822369
11
264.433196
21
739.990747
0
LINE
8
boundary
62
5
39
2
10
264.433196
20
739.990747
11
263.215254
21
743.521646
0
LINE
8
boundary
62
5
39
2
10
263.215254
20
743.521646
11
261.777263
21
747.287017
0
LINE
8
boundary
62
5
39
2
10
261.777263
20
747.287017
11
260.348776
21
751.112972
0
LINE
8
boundary
62
5
39
2
10
260.348776
20
751.112972
11
260.093130
21
751.801665
0
LINE
8
boundary
62
5
39
2
10
260.093130
20
751.801665
11
258.595954
21
755.304956
0
LINE
8
boundary
62
5
39
2
10
258.595954
20
755.304956
11
257.754677
21
756.995109
0
LINE
8
boundary
62
5
39
2
10
257.754677
20
756.995109
11
255.718597
21
762.127744
0
LINE
8
boundary
62
5
39
2
10
255.718597
20
762.127744
11
255.351965
21
763.023741
0
LINE
8
boundary
62
5
39
2
10
255.351965
20
763.023741
11
254.973729
21
763.921561
0
LINE
8
boundary
62
5
39
2
10
254.973729
20
763.921561
11
251.661709
21
771.210358
0
LINE
8
boundary
62
5
39
2
10
251.661709
20
771.210358
11
251.155463
21
772.449495
0
LINE
8
boundary
62
5
39
2
10
251.155463
20
772.449495
11
250.798765
21
773.231723
0
LINE
8
boundary
62
5
39
2
10
250.798765
20
773.231723
11
250.117244
21
774.730293
0
LINE
8
boundary
62
5
39
2
10
250.117244
20
774.730293
11
249.434430
21
776.225030
0
LINE
8
boundary
62
5
39
2
10
249.434430
20
776.225030
11
248.380697
21
778.416965
0
LINE
8
boundary
62
5
39
2
10
248.380697
20
778.416965
11
248.013307
21
779.106267
0
LINE
8
boundary
62
5
39
2
10
248.013307
20
779.106267
11
247.245151
21
780.421567
0
LINE
8
boundary
62
5
39
2
10
247.245151
20
780.421567
11
245.414161
21
784.253708
0
LINE
8
boundary
62
5
39
2
10
245.414161
20
784.253708
11
244.426366
21
786.199061
0
LINE
8
boundary
62
5
39
2
10
244.426366
20
786.199061
11
244.066585
21
786.879063
0
LINE
8
boundary
62
5
39
2
10
244.066585
20
786.879063
11
243.286011
21
788.295589
0
LINE
8
boundary
62
5
39
2
10
243.286011
20
788.295589
11
239.591769
21
794.329301
0
LINE
8
boundary
62
5
39
2
10
239.591769
20
794.329301
11
237.738152
21
797.167471
0
LINE
8
boundary
62
5
39
2
10
237.738152
20
797.167471
11
236.047678
21
799.720995
0
LINE
8
boundary
62
5
39
2
10
236.047678
20
799.720995
11
234.684828
21
801.554059
0
LINE
8
boundary
62
5
39
2
10
234.684828
20
801.554059
11
233.944920
21
802.402459
0
LINE
8
boundary
62
5
39
2
10
233.944920
20
802.402459
11
231.917933
21
805.117534
0
LINE
8
boundary
62
5
39
2
10
231.917933
20
805.117534
11
229.995904
21
807.613715
0
LINE
8
boundary
62
5
39
2
10
229.995904
20
807.613715
11
229.362370
21
808.428686
0
LINE
8
boundary
62
5
39
2
10
229.362370
20
808.428686
11
228.068487
21
810.008387
0
LINE
8
boundary
62
5
39
2
10
228.068487
20
810.008387
11
223.659587
21
814.907004
0
LINE
8
boundary
62
5
39
2
10
223.659587
20
814.907004
11
222.720823
21
815.875730
0
LINE
8
boundary
62
5
39
2
10
222.720823
20
815.875730
11
221.333347
21
817.311858
0
LINE
8
boundary
62
5
39
2
10
221.333347
20
817.311858
11
219.201769
21
819.549001
0
LINE
8
boundary
62
5
39
2
10
219.201769
20
819.549001
11
218.012683
21
820.726146
0
LINE
8
boundary
62
5
39
2
10
218.012683
20
820.726146
11
217.621023
21
821.092866
0
LINE
8
boundary
62
5
39
2
10
217.621023
20
821.092866
11
216.824253
21
821.766195
0
LINE
8
boundary
62
5
39
2
10
216.824253
20
821.766195
11
214.712264
21
823.725606
0
LINE
8
boundary
62
5
39
2
10
214.712264
20
823.725606
11
212.227648
21
826.104398
0
LINE
8
boundary
62
5
39
2
10
212.227648
20
826.104398
11
209.157667
21
828.909122
0
LINE
8
boundary
62
5
39
2
10
209.157667
20
828.909122
11
204.850603
21
832.632790
0
LINE
8
boundary
62
5
39
2
10
204.850603
20
832.632790
11
203.254994
21
834.019851
0
LINE
8
boundary
62
5
39
2
10
203.254994
20
834.019851
11
202.854387
21
834.357836
0
LINE
8
boundary
62
5
39
2
10
202.854387
20
834.357836
11
199.087660
21
837.675524
0
LINE
8
boundary
62
5
39
2
10
199.087660
20
837.675524
11
198.374084
21
838.303907
0
LINE
8
boundary
62
5
39
2
10
198.374084
20
838.303907
11
197.643876
21
838.978101
0
LINE
8
boundary
62
5
39
2
10
197.643876
20
838.978101
11
194.331381
21
842.049375
0
LINE
8
boundary
62
5
39
2
10
194.331381
20
842.049375
11
193.763256
21
842.571656
0
LINE
8
boundary
62
5
39
2
10
193.763256
20
842.571656
11
192.806451
21
843.495714
0
LINE
8
boundary
62
5
39
2
10
192.806451
20
843.495714
11
192.049911
21
844.212730
0
LINE
8
boundary
62
5
39
2
10
192.049911
20
844.212730
11
191.281405
21
844.944631
0
LINE
8
boundary
62
5
39
2
10
191.281405
20
844.944631
11
190.380834
21
845.827304
0
LINE
8
boundary
62
5
39
2
10
190.380834
20
845.827304
11
188.795175
21
847.368790
0
LINE
8
boundary
62
5
39
2
10
188.795175
20
847.368790
11
187.191029
21
848.936268
0
LINE
8
boundary
62
5
39
2
10
187.191029
20
848.936268
11
186.519701
21
849.578580
0
LINE
8
boundary
62
5
39
2
10
186.519701
20
849.578580
11
185.754786
21
850.340760
0
LINE
8
boundary
62
5
39
2
10
185.754786
20
850.340760
11
185.003836
21
851.091993
0
LINE
8
boundary
62
5
39
2
10
185.003836
20
851.091993
11
184.545504
21
851.530473
0
LINE
8
boundary
62
5
39
2
10
184.545504
20
851.530473
11
183.759748
21
852.316323
0
LINE
8
boundary
62
5
39
2
10
183.759748
20
852.316323
11
182.736558
21
853.292198
0
LINE
8
boundary
62
5
39
2
10
182.736558
20
853.292198
11
181.921189
21
854.096707
0
LINE
8
boundary
62
5
39
2
10
181.921189
20
854.096707
11
181.037205
21
854.964951
0
LINE
8
boundary
62
5
39
2
10
181.037205
20
854.964951
11
180.487675
21
855.486733
0
LINE
8
boundary
62
5
39
2
10
180.487675
20
855.486733
11
180.057365
21
855.865130
0
LINE
8
boundary
62
5
39
2
10
180.057365
20
855.865130
11
178.591224
21
857.233729
0
LINE
8
boundary
62
5
39
2
10
178.591224
20
857.233729
11
177.884803
21
857.849591
0
LINE
8
boundary
62
5
39
2
10
177.884803
20
857.849591
11
176.722811
21
858.890258
0
LINE
8
boundary
62
5
39
2
10
176.722811
20
858.890258
11
176.057118
21
859.455751
0
LINE
8
boundary
62
5
39
2
10
176.057118
20
859.455751
11
175.428152
21
860.003263
0
LINE
8
boundary
62
5
39
2
10
175.428152
20
860.003263
11
174.886852
21
860.478803
0
LINE
8
boundary
62
5
39
2
10
174.886852
20
860.478803
11
173.329690
21
861.765520
0
LINE
8
boundary
62
5
39
2
10
173.329690
20
861.765520
11
172.064451
21
862.815503
0
LINE
8
boundary
62
5
39
2
10
172.064451
20
862.815503
11
170.540059
21
863.984202
0
LINE
8
boundary
62
5
39
2
10
170.540059
20
863.984202
11
169.410627
21
864.901704
0
LINE
8
boundary
62
5
39
2
10
169.410627
20
864.901704
11
167.863184
21
866.033956
0
LINE
8
boundary
62
5
39
2
10
167.863184
20
866.033956
11
165.720809
21
867.702858
0
LINE
8
boundary
62
5
39
2
10
165.720809
20
867.702858
11
162.434707
21
870.026984
0
LINE
8
boundary
62
5
39
2
10
162.434707
20
870.026984
11
160.067880
21
871.771751
0
LINE
8
boundary
62
5
39
2
10
160.067880
20
871.771751
11
159.172907
21
872.333228
0
LINE
8
boundary
62
5
39
2
10
159.172907
20
872.333228
11
154.620429
21
876.047280
0
LINE
8
boundary
62
5
39
2
10
154.620429
20
876.047280
11
153.305335
21
876.937504
0
LINE
8
boundary
62
5
39
2
10
153.305335
20
876.937504
11
151.741071
21
878.189169
0
LINE
8
boundary
62
5
39
2
10
151.741071
20
878.189169
11
148.337641
21
880.853209
0
LINE
8
boundary
62
5
39
2
10
148.337641
20
880.853209
11
147.017322
21
882.015843
0
LINE
8
boundary
62
5
39
2
10
147.017322
20
882.015843
11
145.238196
21
883.402490
0
LINE
8
boundary
62
5
39
2
10
145.238196
20
883.402490
11
143.263674
21
884.959069
0
LINE
8
boundary
62
5
39
2
10
143.263674
20
884.959069
11
141.469500
21
883.783671
0
LINE
8
boundary
62
5
39
2
10
141.469500
20
883.783671
11
140.973082
21
883.387766
0
LINE
8
boundary
62
5
39
2
10
140.973082
20
883.387766
11
140.297938
21
882.853207
0
LINE
8
boundary
62
5
39
2
10
140.297938
20
882.853207
11
138.994172
21
881.823586
0
LINE
8
boundary
62
5
39
2
10
138.994172
20
881.823586
11
138.275250
21
881.255877
0
LINE
8
boundary
62
5
39
2
10
138.275250
20
881.255877
11
136.793187
21
880.086301
0
LINE
8
boundary
62
5
39
2
10
136.793187
20
880.086301
11
135.163806
21
878.803836
0
LINE
8
boundary
62
5
39
2
10
135.163806
20
878.803836
11
134.648507
21
878.398922
0
LINE
8
boundary
62
5
39
2
10
134.648507
20
878.398922
11
133.473099
21
877.475906
0
LINE
8
boundary
62
5
39
2
10
133.473099
20
877.475906
11
132.726347
21
876.890422
0
LINE
8
boundary
62
5
39
2
10
132.726347
20
876.890422
11
131.347088
21
875.810257
0
LINE
8
boundary
62
5
39
2
10
131.347088
20
875.810257
11
128.503844
21
873.589415
0
LINE
8
boundary
62
5
39
2
10
128.503844
20
873.589415
11
125.394475
21
871.168973
0
LINE
8
boundary
62
5
39
2
10
125.394475
20
871.168973
11
123.906829
21
870.013307
0
LINE
8
boundary
62
5
39
2
10
123.906829
20
870.013307
11
120.975390
21
867.741417
0
LINE
8
boundary
62
5
39
2
10
120.975390
20
867.741417
11
119.936084
21
866.938276
0
LINE
8
boundary
62
5
39
2
10
119.936084
20
866.938276
11
113.499812
21
861.978830
0
LINE
8
boundary
62
5
39
2
10
113.499812
20
861.978830
11
112.881739
21
861.503422
0
LINE
8
boundary
62
5
39
2
10
112.881739
20
861.503422
11
104.973756
21
855.439401
0
LINE
8
boundary
62
5
39
2
10
104.973756
20
855.439401
11
97.032891
21
849.367912
0
LINE
8
boundary
62
5
39
2
10
97.032891
20
849.367912
11
92.541160
21
845.940616
0
LINE
8
boundary
62
5
39
2
10
92.541160
20
845.940616
11
88.369516
21
842.760939
0
LINE
8
boundary
62
5
39
2
10
88.369516
20
842.760939
11
84.258411
21
839.627928
0
LINE
8
boundary
62
5
39
2
10
84.258411
20
839.627928
11
81.636626
21
837.632674
0
LINE
8
boundary
62
5
39
2
10
81.636626
20
837.632674
11
76.435474
21
833.676143
0
LINE
8
annotation
62
1
39
211
10
43.811589
20
772.950940
11
43.811589
21
776.290752
0
LINE
8
annotation
62
1
39
211
10
43.811589
20
776.290752
11
48.779807
21
773.204656
0
LINE
8
annotation
62
1
39
211
10
48.779807
20
773.204656
11
48.779807
21
773.204656
0
LINE
8
annotation
62
1
39
211
10
48.779807
20
773.204656
11
48.784372
21
773.200967
0
LINE
8
annotation
62
1
39
211
10
48.784372
20
773.200967
11
48.788976
21
773.197429
0
LINE
8
annotation
62
1
39
211
10
48.788976
20
773.197429
11
48.793658
21
773.194019
0
LINE
8
annotation
62
1
39
211
10
48.793658
20
773.194019
11
48.798456
21
773.190714
0
LINE
8
annotation
62
1
39
211
10
48.798456
20
773.190714
11
48.803409
21
773.187490
0
LINE
8
annotation
62
1
39
211
10
48.803409
20
773.187490
11
48.808557
21
773.184325
0
LINE
8
annotation
62
1
39
211
10
48.808557
20
773.184325
11
48.813937
21
773.181195
0
LINE
8
annotation
62
1
39
211
10
48.813937
20
773.181195
11
48.819589
21
773.178076
0
LINE
8
annotation
62
1
39
211
10
48.819589
20
773.178076
11
48.825552
21
773.174946
0
LINE
8
annotation
62
1
39
211
10
48.825552
20
773.174946
11
48.825552
21
773.174946
0
LINE
8
annotation
62
1
39
211
10
48.825552
20
773.174946
11
49.099142
21
773.047522
0
LINE
8
annotation
62
1
39
211
10
49.099142
20
773.047522
11
49.382743
21
772.973083
0
LINE
8
annotation
62
1
39
211
10
49.382743
20
772.973083
11
49.669945
21
772.949804
0
LINE
8
annotation
62
1
39
211
10
49.669945
20
772.949804
11
49.954341
21
772.975863
0
LINE
8
annotation
62
1
39
211
10
49.954341
20
772.975863
11
50.229523
21
773.049434
0
LINE
8
annotation
62
1
39
211
10
50.229523
20
773.049434
11
50.489082
21
773.168693
0
LINE
8
annotation
62
1
39
211
10
50.489082
20
773.168693
11
50.726610
21
773.331816
0
LINE
8
annotation
62
1
39
211
10
50.726610
20
773.331816
11
50.935700
21
773.536978
0
LINE
8
annotation
62
1
39
211
10
50.935700
20
773.536978
11
51.109941
21
773.782356
0
LINE
8
annotation
62
1
39
211
10
51.109941
20
773.782356
11
51.109941
21
773.782356
0
LINE
8
annotation
62
1
39
211
10
51.109941
20
773.782356
11
51.235555
21
774.056707
0
LINE
8
annotation
62
1
39
211
10
51.235555
20
774.056707
11
51.308847
21
774.340742
0
LINE
8
annotation
62
1
39
211
10
51.308847
20
774.340742
11
51.331467
21
774.628112
0
LINE
8
annotation
62
1
39
211
10
51.331467
20
774.628112
11
51.305065
21
774.912465
0
LINE
8
annotation
62
1
39
211
10
51.305065
20
774.912465
11
51.231290
21
775.187453
0
LINE
8
annotation
62
1
39
211
10
51.231290
20
775.187453
11
51.111793
21
775.446725
0
LINE
8
annotation
62
1
39
211
10
51.111793
20
775.446725
11
50.948222
21
775.683931
0
LINE
8
annotation
62
1
39
211
10
50.948222
20
775.683931
11
50.742227
21
775.892721
0
LINE
8
annotation
62
1
39
211
10
50.742227
20
775.892721
11
50.495457
21
776.066746
0
LINE
8
annotation
62
1
39
211
10
50.495457
20
776.066746
11
50.074798
21
776.286036
0
LINE
8
annotation
62
1
39
211
10
96.397174
20
787.222052
11
96.397174
21
785.552146
0
LINE
8
annotation
62
1
39
211
10
96.397174
20
785.552146
11
96.397174
21
785.552146
0
LINE
8
annotation
62
1
39
211
10
96.397174
20
785.552146
11
96.424116
21
785.251810
0
LINE
8
annotation
62
1
39
211
10
96.424116
20
785.251810
11
96.501765
21
784.969203
0
LINE
8
annotation
62
1
39
211
10
96.501765
20
784.969203
11
96.625354
21
784.709028
0
LINE
8
annotation
62
1
39
211
10
96.625354
20
784.709028
11
96.790118
21
784.475983
0
LINE
8
annotation
62
1
39
211
10
96.790118
20
784.475983
11
96.991289
21
784.274770
0
LINE
8
annotation
62
1
39
211
10
96.991289
20
784.274770
11
97.224101
21
784.110089
0
LINE
8
annotation
62
1
39
211
10
97.224101
20
784.110089
11
97.483788
21
783.986640
0
LINE
8
annotation
62
1
39
211
10
97.483788
20
783.986640
11
97.765584
21
783.909124
0
LINE
8
annotation
62
1
39
211
10
97.765584
20
783.909124
11
98.064722
21
783.882240
0
LINE
8
annotation
62
1
39
211
10
98.064722
20
783.882240
11
98.900854
21
783.882240
0
LINE
8
annotation
62
1
39
211
10
98.900854
20
783.882240
11
98.900854
21
783.882240
0
LINE
8
annotation
62
1
39
211
10
98.900854
20
783.882240
11
99.199867
21
783.909124
0
LINE
8
annotation
62
1
39
211
10
99.199867
20
783.909124
11
99.481597
21
783.986640
0
LINE
8
annotation
62
1
39
211
10
99.481597
20
783.986640
11
99.741265
21
784.110089
0
LINE
8
annotation
62
1
39
211
10
99.741265
20
784.110089
11
99.974093
21
784.274770
0
LINE
8
annotation
62
1
39
211
10
99.974093
20
784.274770
11
100.175303
21
784.475983
0
LINE
8
annotation
62
1
39
211
10
100.175303
20
784.475983
11
100.340116
21
784.709028
0
LINE
8
annotation
62
1
39
211
10
100.340116
20
784.709028
11
100.463756
21
784.969203
0
LINE
8
annotation
62
1
39
211
10
100.463756
20
784.969203
11
100.541444
21
785.251810
0
LINE
8
annotation
62
1
39
211
10
100.541444
20
785.251810
11
100.568402
21
785.552146
0
LINE
8
annotation
62
1
39
211
10
100.568402
20
785.552146
11
100.568402
21
786.388278
0
LINE
8
annotation
62
1
39
211
10
100.568402
20
786.388278
11
100.568402
21
785.552146
0
LINE
8
annotation
62
1
39
211
10
100.568402
20
785.552146
11
100.568402
21
785.552146
0
LINE
8
annotation
62
1
39
211
10
100.568402
20
785.552146
11
100.595366
21
785.251810
0
LINE
8
annotation
62
1
39
211
10
100.595366
20
785.251810
11
100.673099
21
784.969203
0
LINE
8
annotation
62
1
39
211
10
100.673099
20
784.969203
11
100.796862
21
784.709028
0
LINE
8
annotation
62
1
39
211
10
100.796862
20
784.709028
11
100.961915
21
784.475983
0
LINE
8
annotation
62
1
39
211
10
100.961915
20
784.475983
11
101.163519
21
784.274770
0
LINE
8
annotation
62
1
39
211
10
101.163519
20
784.274770
11
101.396936
21
784.110089
0
LINE
8
annotation
62
1
39
211
10
101.396936
20
784.110089
11
101.657425
21
783.986640
0
LINE
8
annotation
62
1
39
211
10
101.657425
20
783.986640
11
101.940248
21
783.909124
0
LINE
8
annotation
62
1
39
211
10
101.940248
20
783.909124
11
102.240666
21
783.882240
0
LINE
8
annotation
62
1
39
211
10
102.240666
20
783.882240
11
102.240666
21
783.882240
0
LINE
8
annotation
62
1
39
211
10
102.240666
20
783.882240
11
102.539679
21
783.909124
0
LINE
8
annotation
62
1
39
211
10
102.539679
20
783.909124
11
102.821409
21
783.986640
0
LINE
8
annotation
62
1
39
211
10
102.821409
20
783.986640
11
103.081077
21
784.110089
0
LINE
8
annotation
62
1
39
211
10
103.081077
20
784.110089
11
103.313905
21
784.274770
0
LINE
8
annotation
62
1
39
211
10
103.313905
20
784.274770
11
103.515114
21
784.475983
0
LINE
8
annotation
62
1
39
211
10
103.515114
20
784.475983
11
103.679928
21
784.709028
0
LINE
8
annotation
62
1
39
211
10
103.679928
20
784.709028
11
103.803568
21
784.969203
0
LINE
8
annotation
62
1
39
211
10
103.803568
20
784.969203
11
103.881256
21
785.251810
0
LINE
8
annotation
62
1
39
211
10
103.881256
20
785.251810
11
103.908214
21
785.552146
0
LINE
8
annotation
62
1
39
211
10
103.908214
20
785.552146
11
103.908214
21
787.222052
0
LINE
8
annotation
62
1
39
211
10
150.654018
20
787.066926
11
150.654018
21
791.242398
0
LINE
8
annotation
62
1
39
211
10
150.654018
20
791.242398
11
156.502226
21
789.574850
0
LINE
8
annotation
62
1
39
211
10
148.982226
20
788.318530
11
152.322037
21
788.318530
0
LINE
8
annotation
62
1
39
211
10
201.567513
20
750.942335
11
201.567513
21
749.272429
0
LINE
8
annotation
62
1
39
211
10
201.567513
20
749.272429
11
201.567513
21
749.272429
0
LINE
8
annotation
62
1
39
211
10
201.567513
20
749.272429
11
201.594461
21
748.972714
0
LINE
8
annotation
62
1
39
211
10
201.594461
20
748.972714
11
201.672151
21
748.690437
0
LINE
8
annotation
62
1
39
211
10
201.672151
20
748.690437
11
201.795851
21
748.430359
0
LINE
8
annotation
62
1
39
211
10
201.795851
20
748.430359
11
201.960830
21
748.197237
0
LINE
8
annotation
62
1
39
211
10
201.960830
20
748.197237
11
202.162356
21
747.995830
0
LINE
8
annotation
62
1
39
211
10
202.162356
20
747.995830
11
202.395698
21
747.830896
0
LINE
8
annotation
62
1
39
211
10
202.395698
20
747.830896
11
202.656124
21
747.707195
0
LINE
8
annotation
62
1
39
211
10
202.656124
20
747.707195
11
202.938904
21
747.629484
0
LINE
8
annotation
62
1
39
211
10
202.938904
20
747.629484
11
203.239305
21
747.602523
0
LINE
8
annotation
62
1
39
211
10
203.239305
20
747.602523
11
204.071193
21
747.602523
0
LINE
8
annotation
62
1
39
211
10
204.071193
20
747.602523
11
204.071193
21
747.602523
0
LINE
8
annotation
62
1
39
211
10
204.071193
20
747.602523
11
204.371449
21
747.629469
0
LINE
8
annotation
62
1
39
211
10
204.371449
20
747.629469
11
204.653838
21
747.707140
0
LINE
8
annotation
62
1
39
211
10
204.653838
20
747.707140
11
204.913700
21
747.830791
0
LINE
8
annotation
62
1
39
211
10
204.913700
20
747.830791
11
205.146373
21
747.995674
0
LINE
8
annotation
62
1
39
211
10
205.146373
20
747.995674
11
205.347194
21
748.197043
0
LINE
8
annotation
62
1
39
211
10
205.347194
20
748.197043
11
205.511504
21
748.430149
0
LINE
8
annotation
62
1
39
211
10
205.511504
20
748.430149
11
205.634639
21
748.690247
0
LINE
8
annotation
62
1
39
211
10
205.634639
20
748.690247
11
205.711938
21
748.972590
0
LINE
8
annotation
62
1
39
211
10
205.711938
20
748.972590
11
205.738741
21
749.272429
0
LINE
8
annotation
62
1
39
211
10
205.738741
20
749.272429
11
205.738741
21
750.942335
0
LINE
8
annotation
62
1
39
211
10
205.738741
20
750.942335
11
209.087513
21
750.942335
0
LINE
8
annotation
62
1
39
211
10
209.087513
20
750.942335
11
209.087513
21
747.602523
0
LINE
8
annotation
62
1
39
211
10
261.672801
20
674.792196
11
261.672801
21
674.792196
0
LINE
8
annotation
62
1
39
211
10
261.672801
20
674.792196
11
261.493435
21
675.270582
0
LINE
8
annotation
62
1
39
211
10
261.493435
20
675.270582
11
261.251760
21
675.709564
0
LINE
8
annotation
62
1
39
211
10
261.251760
20
675.709564
11
260.953833
21
676.104636
0
LINE
8
annotation
62
1
39
211
10
260.953833
20
676.104636
11
260.605707
21
676.451291
0
LINE
8
annotation
62
1
39
211
10
260.605707
20
676.451291
11
260.213438
21
676.745022
0
LINE
8
annotation
62
1
39
211
10
260.213438
20
676.745022
11
259.783081
21
676.981325
0
LINE
8
annotation
62
1
39
211
10
259.783081
20
676.981325
11
259.320690
21
677.155691
0
LINE
8
annotation
62
1
39
211
10
259.320690
20
677.155691
11
258.832321
21
677.263616
0
LINE
8
annotation
62
1
39
211
10
258.832321
20
677.263616
11
258.324028
21
677.300592
0
LINE
8
annotation
62
1
39
211
10
258.324028
20
677.300592
11
255.824593
21
677.300592
0
LINE
8
annotation
62
1
39
211
10
255.824593
20
677.300592
11
255.824593
21
677.300592
0
LINE
8
annotation
62
1
39
211
10
255.824593
20
677.300592
11
255.524192
21
677.273631
0
LINE
8
annotation
62
1
39
211
10
255.524192
20
677.273631
11
255.241412
21
677.195921
0
LINE
8
annotation
62
1
39
211
10
255.241412
20
677.195921
11
254.980985
21
677.072220
0
LINE
8
annotation
62
1
39
211
10
254.980985
20
677.072220
11
254.747643
21
676.907286
0
LINE
8
annotation
62
1
39
211
10
254.747643
20
676.907286
11
254.546117
21
676.705879
0
LINE
8
annotation
62
1
39
211
10
254.546117
20
676.705879
11
254.381138
21
676.472757
0
LINE
8
annotation
62
1
39
211
10
254.381138
20
676.472757
11
254.257438
21
676.212678
0
LINE
8
annotation
62
1
39
211
10
254.257438
20
676.212678
11
254.179749
21
675.930402
0
LINE
8
annotation
62
1
39
211
10
254.179749
20
675.930402
11
254.152801
21
675.630686
0
LINE
8
annotation
62
1
39
211
10
254.152801
20
675.630686
11
254.152801
21
675.630686
0
LINE
8
annotation
62
1
39
211
10
254.152801
20
675.630686
11
254.179749
21
675.330350
0
LINE
8
annotation
62
1
39
211
10
254.179749
20
675.330350
11
254.257438
21
675.047743
0
LINE
8
annotation
62
1
39
211
10
254.257438
20
675.047743
11
254.381138
21
674.787568
0
LINE
8
annotation
62
1
39
211
10
254.381138
20
674.787568
11
254.546117
21
674.554523
0
LINE
8
annotation
62
1
39
211
10
254.546117
20
674.554523
11
254.747643
21
674.353310
0
LINE
8
annotation
62
1
39
211
10
254.747643
20
674.353310
11
254.980985
21
674.188629
0
LINE
8
annotation
62
1
39
211
10
254.980985
20
674.188629
11
255.241412
21
674.065180
0
LINE
8
annotation
62
1
39
211
10
255.241412
20
674.065180
11
255.524192
21
673.987664
0
LINE
8
annotation
62
1
39
211
10
255.524192
20
673.987664
11
255.824593
21
673.960780
0
LINE
8
annotation
62
1
39
211
10
255.824593
20
673.960780
11
256.656480
21
673.960780
0
LINE
8
annotation
62
1
39
211
10
256.656480
20
673.960780
11
256.656480
21
673.960780
0
LINE
8
annotation
62
1
39
211
10
256.656480
20
673.960780
11
256.956736
21
673.987664
0
LINE
8
annotation
62
1
39
211
10
256.956736
20
673.987664
11
257.239126
21
674.065180
0
LINE
8
annotation
62
1
39
211
10
257.239126
20
674.065180
11
257.498988
21
674.188629
0
LINE
8
annotation
62
1
39
211
10
257.498988
20
674.188629
11
257.731660
21
674.353310
0
LINE
8
annotation
62
1
39
211
10
257.731660
20
674.353310
11
257.932482
21
674.554523
0
LINE
8
annotation
62
1
39
211
10
257.932482
20
674.554523
11
258.096791
21
674.787568
0
LINE
8
annotation
62
1
39
211
10
258.096791
20
674.787568
11
258.219926
21
675.047743
0
LINE
8
annotation
62
1
39
211
10
258.219926
20
675.047743
11
258.297226
21
675.330350
0
LINE
8
annotation
62
1
39
211
10
258.297226
20
675.330350
11
258.324028
21
675.630686
0
LINE
8
annotation
62
1
39
211
10
258.324028
20
675.630686
11
258.324028
21
677.300592
0
LINE
8
annotation
62
1
39
211
10
253.212801
20
677.509743
11
253.212801
21
673.749743
0
LINE
8
annotation
62
1
39
211
10
306.738088
20
576.371334
11
314.258088
21
574.699542
0
LINE
8
annotation
62
1
39
211
10
314.258088
20
574.699542
11
314.258088
21
578.043598
0
LINE
8
annotation
62
1
39
211
10
310.909316
20
574.699542
11
310.909316
21
576.371334
0
LINE
8
annotation
62
1
39
211
10
360.990688
20
532.038144
11
360.990688
21
532.038144
0
LINE
8
annotation
62
1
39
211
10
360.990688
20
532.038144
11
360.690432
21
532.011183
0
LINE
8
annotation
62
1
39
211
10
360.690432
20
532.011183
11
360.408042
21
531.933473
0
LINE
8
annotation
62
1
39
211
10
360.408042
20
531.933473
11
360.148181
21
531.809772
0
LINE
8
annotation
62
1
39
211
10
360.148181
20
531.809772
11
359.915508
21
531.644838
0
LINE
8
annotation
62
1
39
211
10
359.915508
20
531.644838
11
359.714686
21
531.443431
0
LINE
8
annotation
62
1
39
211
10
359.714686
20
531.443431
11
359.550377
21
531.210309
0
LINE
8
annotation
62
1
39
211
10
359.550377
20
531.210309
11
359.427242
21
530.950230
0
LINE
8
annotation
62
1
39
211
10
359.427242
20
530.950230
11
359.349942
21
530.667954
0
LINE
8
annotation
62
1
39
211
10
359.349942
20
530.667954
11
359.323140
21
530.368238
0
LINE
8
annotation
62
1
39
211
10
359.323140
20
530.368238
11
359.323140
21
530.368238
0
LINE
8
annotation
62
1
39
211
10
359.323140
20
530.368238
11
359.349942
21
530.068523
0
LINE
8
annotation
62
1
39
211
10
359.349942
20
530.068523
11
359.427242
21
529.786246
0
LINE
8
annotation
62
1
39
211
10
359.427242
20
529.786246
11
359.550377
21
529.526168
0
LINE
8
annotation
62
1
39
211
10
359.550377
20
529.526168
11
359.714686
21
529.293046
0
LINE
8
annotation
62
1
39
211
10
359.714686
20
529.293046
11
359.915508
21
529.091639
0
LINE
8
annotation
62
1
39
211
10
359.915508
20
529.091639
11
360.148181
21
528.926705
0
LINE
8
annotation
62
1
39
211
10
360.148181
20
528.926705
11
360.408042
21
528.803004
0
LINE
8
annotation
62
1
39
211
10
360.408042
20
528.803004
11
360.690432
21
528.725293
0
LINE
8
annotation
62
1
39
211
10
360.690432
20
528.725293
11
360.990688
21
528.698332
0
LINE
8
annotation
62
1
39
211
10
360.990688
20
528.698332
11
361.822575
21
528.698332
0
LINE
8
annotation
62
1
39
211
10
361.822575
20
528.698332
11
361.822575
21
528.698332
0
LINE
8
annotation
62
1
39
211
10
361.822575
20
528.698332
11
362.122977
21
528.725278
0
LINE
8
annotation
62
1
39
211
10
362.122977
20
528.725278
11
362.405756
21
528.802949
0
LINE
8
annotation
62
1
39
211
10
362.405756
20
528.802949
11
362.666183
21
528.926600
0
LINE
8
annotation
62
1
39
211
10
362.666183
20
528.926600
11
362.899525
21
529.091483
0
LINE
8
annotation
62
1
39
211
10
362.899525
20
529.091483
11
363.101051
21
529.292852
0
LINE
8
annotation
62
1
39
211
10
363.101051
20
529.292852
11
363.266030
21
529.525958
0
LINE
8
annotation
62
1
39
211
10
363.266030
20
529.525958
11
363.389730
21
529.786056
0
LINE
8
annotation
62
1
39
211
10
363.389730
20
529.786056
11
363.467420
21
530.068399
0
LINE
8
annotation
62
1
39
211
10
363.467420
20
530.068399
11
363.494368
21
530.368238
0
LINE
8
annotation
62
1
39
211
10
363.494368
20
530.368238
11
363.494368
21
530.368238
0
LINE
8
annotation
62
1
39
211
10
363.494368
20
530.368238
11
363.467404
21
530.668078
0
LINE
8
annotation
62
1
39
211
10
363.467404
20
530.668078
11
363.389676
21
530.950421
0
LINE
8
annotation
62
1
39
211
10
363.389676
20
530.950421
11
363.265925
21
531.210518
0
LINE
8
annotation
62
1
39
211
10
363.265925
20
531.210518
11
363.100896
21
531.443625
0
LINE
8
annotation
62
1
39
211
10
363.100896
20
531.443625
11
362.899331
21
531.644993
0
LINE
8
annotation
62
1
39
211
10
362.899331
20
531.644993
11
362.665973
21
531.809877
0
LINE
8
annotation
62
1
39
211
10
362.665973
20
531.809877
11
362.405566
21
531.933527
0
LINE
8
annotation
62
1
39
211
10
362.405566
20
531.933527
11
362.122852
21
532.011199
0
LINE
8
annotation
62
1
39
211
10
362.122852
20
532.011199
11
361.822575
21
532.038144
0
LINE
8
annotation
62
1
39
211
10
361.822575
20
532.038144
11
360.990688
21
532.038144
0
LINE
8
annotation
62
1
39
211
10
365.166632
20
528.698332
11
365.166632
21
528.698332
0
LINE
8
annotation
62
1
39
211
10
365.166632
20
528.698332
11
365.465645
21
528.725278
0
LINE
8
annotation
62
1
39
211
10
365.465645
20
528.725278
11
365.747375
21
528.802949
0
LINE
8
annotation
62
1
39
211
10
365.747375
20
528.802949
11
366.007043
21
528.926600
0
LINE
8
annotation
62
1
39
211
10
366.007043
20
528.926600
11
366.239871
21
529.091483
0
LINE
8
annotation
62
1
39
211
10
366.239871
20
529.091483
11
366.441080
21
529.292852
0
LINE
8
annotation
62
1
39
211
10
366.441080
20
529.292852
11
366.605894
21
529.525958
0
LINE
8
annotation
62
1
39
211
10
366.605894
20
529.525958
11
366.729534
21
529.786056
0
LINE
8
annotation
62
1
39
211
10
366.729534
20
529.786056
11
366.807222
21
530.068399
0
LINE
8
annotation
62
1
39
211
10
366.807222
20
530.068399
11
366.834180
21
530.368238
0
LINE
8
annotation
62
1
39
211
10
366.834180
20
530.368238
11
366.834180
21
530.368238
0
LINE
8
annotation
62
1
39
211
10
366.834180
20
530.368238
11
366.807222
21
530.668078
0
LINE
8
annotation
62
1
39
211
10
366.807222
20
530.668078
11
366.729534
21
530.950421
0
LINE
8
annotation
62
1
39
211
10
366.729534
20
530.950421
11
366.605894
21
531.210518
0
LINE
8
annotation
62
1
39
211
10
366.605894
20
531.210518
11
366.441080
21
531.443625
0
LINE
8
annotation
62
1
39
211
10
366.441080
20
531.443625
11
366.239871
21
531.644993
0
LINE
8
annotation
62
1
39
211
10
366.239871
20
531.644993
11
366.007043
21
531.809877
0
LINE
8
annotation
62
1
39
211
10
366.007043
20
531.809877
11
365.747375
21
531.933527
0
LINE
8
annotation
62
1
39
211
10
365.747375
20
531.933527
11
365.465645
21
532.011199
0
LINE
8
annotation
62
1
39
211
10
365.465645
20
532.011199
11
365.166632
21
532.038144
0
LINE
8
annotation
62
1
39
211
10
365.166632
20
532.038144
11
365.166632
21
532.038144
0
LINE
8
annotation
62
1
39
211
10
365.166632
20
532.038144
11
364.866214
21
532.011183
0
LINE
8
annotation
62
1
39
211
10
364.866214
20
532.011183
11
364.583391
21
531.933473
0
LINE
8
annotation
62
1
39
211
10
364.583391
20
531.933473
11
364.322902
21
531.809772
0
LINE
8
annotation
62
1
39
211
10
364.322902
20
531.809772
11
364.089485
21
531.644838
0
LINE
8
annotation
62
1
39
211
10
364.089485
20
531.644838
11
363.887881
21
531.443431
0
LINE
8
annotation
62
1
39
211
10
363.887881
20
531.443431
11
363.722828
21
531.210309
0
LINE
8
annotation
62
1
39
211
10
363.722828
20
531.210309
11
363.599065
21
530.950230
0
LINE
8
annotation
62
1
39
211
10
363.599065
20
530.950230
11
363.521332
21
530.667954
0
LINE
8
annotation
62
1
39
211
10
363.521332
20
530.667954
11
363.494368
21
530.368238
0
LINE
8
annotation
62
1
39
211
10
363.494368
20
530.368238
11
363.494368
21
530.368238
0
LINE
8
annotation
62
1
39
211
10
363.494368
20
530.368238
11
363.521332
21
530.068523
0
LINE
8
annotation
62
1
39
211
10
363.521332
20
530.068523
11
363.599065
21
529.786246
0
LINE
8
annotation
62
1
39
211
10
363.599065
20
529.786246
11
363.722828
21
529.526168
0
LINE
8
annotation
62
1
39
211
10
363.722828
20
529.526168
11
363.887881
21
529.293046
0
LINE
8
annotation
62
1
39
211
10
363.887881
20
529.293046
11
364.089485
21
529.091639
0
LINE
8
annotation
62
1
39
211
10
364.089485
20
529.091639
11
364.322902
21
528.926705
0
LINE
8
annotation
62
1
39
211
10
364.322902
20
528.926705
11
364.583391
21
528.803004
0
LINE
8
annotation
62
1
39
211
10
364.583391
20
528.803004
11
364.866214
21
528.725293
0
LINE
8
annotation
62
1
39
211
10
364.866214
20
528.725293
11
365.166632
21
528.698332
0
LINE
8
annotation
62
1
39
211
10
411.908663
20
522.829153
11
411.908663
21
522.829153
0
LINE
8
annotation
62
1
39
211
10
411.908663
20
522.829153
11
412.086619
21
522.351609
0
LINE
8
annotation
62
1
39
211
10
412.086619
20
522.351609
11
412.327160
21
521.913283
0
LINE
8
annotation
62
1
39
211
10
412.327160
20
521.913283
11
412.624155
21
521.518705
0
LINE
8
annotation
62
1
39
211
10
412.624155
20
521.518705
11
412.971477
21
521.172403
0
LINE
8
annotation
62
1
39
211
10
412.971477
20
521.172403
11
413.362996
21
520.878908
0
LINE
8
annotation
62
1
39
211
10
413.362996
20
520.878908
11
413.792584
21
520.642749
0
LINE
8
annotation
62
1
39
211
10
413.792584
20
520.642749
11
414.254113
21
520.468456
0
LINE
8
annotation
62
1
39
211
10
414.254113
20
520.468456
11
414.741452
21
520.360559
0
LINE
8
annotation
62
1
39
211
10
414.741452
20
520.360559
11
415.248475
21
520.323587
0
LINE
8
annotation
62
1
39
211
10
415.248475
20
520.323587
11
417.756399
21
520.323587
0
LINE
8
annotation
62
1
39
211
10
417.756399
20
520.323587
11
417.756399
21
520.323587
0
LINE
8
annotation
62
1
39
211
10
417.756399
20
520.323587
11
418.056817
21
520.350470
0
LINE
8
annotation
62
1
39
211
10
418.056817
20
520.350470
11
418.339640
21
520.427986
0
LINE
8
annotation
62
1
39
211
10
418.339640
20
520.427986
11
418.600129
21
520.551435
0
LINE
8
annotation
62
1
39
211
10
418.600129
20
520.551435
11
418.833545
21
520.716116
0
LINE
8
annotation
62
1
39
211
10
418.833545
20
520.716116
11
419.035150
21
520.917330
0
LINE
8
annotation
62
1
39
211
10
419.035150
20
520.917330
11
419.200203
21
521.150374
0
LINE
8
annotation
62
1
39
211
10
419.200203
20
521.150374
11
419.323966
21
521.410550
0
LINE
8
annotation
62
1
39
211
10
419.323966
20
521.410550
11
419.401699
21
521.693156
0
LINE
8
annotation
62
1
39
211
10
419.401699
20
521.693156
11
419.428663
21
521.993493
0
LINE
8
annotation
62
1
39
211
10
419.428663
20
521.993493
11
419.428663
21
521.993493
0
LINE
8
annotation
62
1
39
211
10
419.428663
20
521.993493
11
419.401699
21
522.293208
0
LINE
8
annotation
62
1
39
211
10
419.401699
20
522.293208
11
419.323966
21
522.575484
0
LINE
8
annotation
62
1
39
211
10
419.323966
20
522.575484
11
419.200203
21
522.835563
0
LINE
8
annotation
62
1
39
211
10
419.200203
20
522.835563
11
419.035150
21
523.068685
0
LINE
8
annotation
62
1
39
211
10
419.035150
20
523.068685
11
418.833545
21
523.270092
0
LINE
8
annotation
62
1
39
211
10
418.833545
20
523.270092
11
418.600129
21
523.435026
0
LINE
8
annotation
62
1
39
211
10
418.600129
20
523.435026
11
418.339640
21
523.558727
0
LINE
8
annotation
62
1
39
211
10
418.339640
20
523.558727
11
418.056817
21
523.636438
0
LINE
8
annotation
62
1
39
211
10
418.056817
20
523.636438
11
417.756399
21
523.663398
0
LINE
8
annotation
62
1
39
211
10
417.756399
20
523.663398
11
416.920267
21
523.663398
0
LINE
8
annotation
62
1
39
211
10
416.920267
20
523.663398
11
416.920267
21
523.663398
0
LINE
8
annotation
62
1
39
211
10
416.920267
20
523.663398
11
416.619866
21
523.636438
0
LINE
8
annotation
62
1
39
211
10
416.619866
20
523.636438
11
416.337086
21
523.558727
0
LINE
8
annotation
62
1
39
211
10
416.337086
20
523.558727
11
416.076660
21
523.435026
0
LINE
8
annotation
62
1
39
211
10
416.076660
20
523.435026
11
415.843318
21
523.270092
0
LINE
8
annotation
62
1
39
211
10
415.843318
20
523.270092
11
415.641791
21
523.068685
0
LINE
8
annotation
62
1
39
211
10
415.641791
20
523.068685
11
415.476813
21
522.835563
0
LINE
8
annotation
62
1
39
211
10
415.476813
20
522.835563
11
415.353113
21
522.575484
0
LINE
8
annotation
62
1
39
211
10
415.353113
20
522.575484
11
415.275423
21
522.293208
0
LINE
8
annotation
62
1
39
211
10
415.275423
20
522.293208
11
415.248475
21
521.993493
0
LINE
8
annotation
62
1
39
211
10
415.248475
20
521.993493
11
415.248475
21
520.323587
0
LINE
8
annotation
62
1
39
211
10
410.968663
20
523.872078
11
410.968663
21
520.112078
0
LINE
8
annotation
62
1
39
211
10
137.544657
20
822.195481
11
132.257673
21
814.548343
0
LINE
8
annotation
62
1
39
211
10
132.257673
20
814.548343
11
126.969695
21
822.195481
0
LINE
8
annotation
62
1
39
211
10
132.257673
20
815.163733
11
132.257673
21
806.341489
0
LINE
8
annotation
62
1
39
211
10
152.159668
20
814.268485
11
143.491520
21
814.268485
0
LINE
8
annotation
62
1
39
211
10
158.103051
20
806.342483
11
161.623399
21
806.342483
0
LINE
8
annotation
62
1
39
211
10
161.623399
20
806.342483
11
161.623399
21
806.342483
0
LINE
8
annotation
62
1
39
211
10
161.623399
20
806.342483
11
162.256542
21
806.399280
0
LINE
8
annotation
62
1
39
211
10
162.256542
20
806.399280
11
162.852308
21
806.562973
0
LINE
8
annotation
62
1
39
211
10
162.852308
20
806.562973
11
163.400787
21
806.823513
0
LINE
8
annotation
62
1
39
211
10
163.400787
20
806.823513
11
163.892071
21
807.170852
0
LINE
8
annotation
62
1
39
211
10
163.892071
20
807.170852
11
164.316250
21
807.594943
0
LINE
8
annotation
62
1
39
211
10
164.316250
20
807.594943
11
164.663417
21
808.085738
0
LINE
8
annotation
62
1
39
211
10
164.663417
20
808.085738
11
164.923661
21
808.633187
0
LINE
8
annotation
62
1
39
211
10
164.923661
20
808.633187
11
165.087074
21
809.227244
0
LINE
8
annotation
62
1
39
211
10
165.087074
20
809.227244
11
165.143747
21
809.857860
0
LINE
8
annotation
62
1
39
211
10
165.143747
20
809.857860
11
165.143747
21
811.620519
0
LINE
8
annotation
62
1
39
211
10
165.143747
20
811.620519
11
165.143747
21
811.620519
0
LINE
8
annotation
62
1
39
211
10
165.143747
20
811.620519
11
165.087074
21
812.250873
0
LINE
8
annotation
62
1
39
211
10
165.087074
20
812.250873
11
164.923661
21
812.844791
0
LINE
8
annotation
62
1
39
211
10
164.923661
20
812.844791
11
164.663417
21
813.392200
0
LINE
8
annotation
62
1
39
211
10
164.663417
20
813.392200
11
164.316250
21
813.883027
0
LINE
8
annotation
62
1
39
211
10
164.316250
20
813.883027
11
163.892071
21
814.307199
0
LINE
8
annotation
62
1
39
211
10
163.892071
20
814.307199
11
163.400787
21
814.654645
0
LINE
8
annotation
62
1
39
211
10
163.400787
20
814.654645
11
162.852308
21
814.915292
0
LINE
8
annotation
62
1
39
211
10
162.852308
20
814.915292
11
162.256542
21
815.079066
0
LINE
8
annotation
62
1
39
211
10
162.256542
20
815.079066
11
161.623399
21
815.135896
0
LINE
8
annotation
62
1
39
211
10
161.623399
20
815.135896
11
159.860740
21
815.135896
0
LINE
8
annotation
62
1
39
211
10
159.860740
20
815.135896
11
161.623399
21
815.135896
0
LINE
8
annotation
62
1
39
211
10
161.623399
20
815.135896
11
161.623399
21
815.135896
0
LINE
8
annotation
62
1
39
211
10
161.623399
20
815.135896
11
162.256542
21
815.192740
0
LINE
8
annotation
62
1
39
211
10
162.256542
20
815.192740
11
162.852308
21
815.356610
0
LINE
8
annotation
62
1
39
211
10
162.852308
20
815.356610
11
163.400787
21
815.617515
0
LINE
8
annotation
62
1
39
211
10
163.400787
20
815.617515
11
163.892071
21
815.965466
0
LINE
8
annotation
62
1
39
211
10
163.892071
20
815.965466
11
164.316250
21
816.390470
0
LINE
8
annotation
62
1
39
211
10
164.316250
20
816.390470
11
164.663417
21
816.882538
0
LINE
8
annotation
62
1
39
211
10
164.663417
20
816.882538
11
164.923661
21
817.431679
0
LINE
8
annotation
62
1
39
211
10
164.923661
20
817.431679
11
165.087074
21
818.027901
0
LINE
8
annotation
62
1
39
211
10
165.087074
20
818.027901
11
165.143747
21
818.661215
0
LINE
8
annotation
62
1
39
211
10
165.143747
20
818.661215
11
165.143747
21
818.661215
0
LINE
8
annotation
62
1
39
211
10
165.143747
20
818.661215
11
165.087074
21
819.291569
0
LINE
8
annotation
62
1
39
211
10
165.087074
20
819.291569
11
164.923661
21
819.885487
0
LINE
8
annotation
62
1
39
211
10
164.923661
20
819.885487
11
164.663417
21
820.432895
0
LINE
8
annotation
62
1
39
211
10
164.663417
20
820.432895
11
164.316250
21
820.923722
0
LINE
8
annotation
62
1
39
211
10
164.316250
20
820.923722
11
163.892071
21
821.347895
0
LINE
8
annotation
62
1
39
211
10
163.892071
20
821.347895
11
163.400787
21
821.695341
0
LINE
8
annotation
62
1
39
211
10
163.400787
20
821.695341
11
162.852308
21
821.955988
0
LINE
8
annotation
62
1
39
211
10
162.852308
20
821.955988
11
162.256542
21
822.119762
0
LINE
8
annotation
62
1
39
211
10
162.256542
20
822.119762
11
161.623399
21
822.176592
0
LINE
8
annotation
62
1
39
211
10
161.623399
20
822.176592
11
158.103051
21
822.176592
0
LINE
8
frame
62
5
39
2
10
0.000000
20
0.000000
11
600.000000
21
0.000000
0
LINE
8
frame
62
5
39
2
10
600.000000
20
0.000000
11
600.000000
21
900.000000
0
LINE
8
frame
62
5
39
2
10
600.000000
20
900.000000
11
0.000000
21
900.000000
0
LINE
8
frame
62
5
39
2
10
0.000000
20
900.000000
11
0.000000
21
0.000000
0
ENDSEC
0
EOF
