0
SECTION
2
HEADER
9
$ACADVER
1
AC1009
0
ENDSEC
0
SECTION
2
TABLES
0
TABLE
2
VPORT
70
1
0
VPORT
2
ACTIVE
70
0
10
0.0
20
0.0
11
0.0
21
0.0
12
0.0
22
0.0
13
0.0
23
0.0
14
0.0
24
0.0
15
0.0
25
0.0
16
0.0
26
0.0
36
0.0
17
0.0
27
0.0
37
0.0
40
0.0
41
0.0
42
0.0
43
0.0
44
0.0
50
0.0
51
0.0
71
0
72
1000
73
1
74
3
75
0
76
0
77
0
78
0
0
ENDTAB
0
ENDSEC
0
SECTION
2
ENTITIES
0
LINE
8
boundary
62
5
39
2
10
3.460596
20
395.435202
11
4.152599
21
394.412415
0
LINE
8
boundary
62
5
39
2
10
4.152599
20
394.412415
11
4.965030
21
393.251627
0
LINE
8
boundary
62
5
39
2
10
4.965030
20
393.251627
11
7.055924
21
390.425393
0
LINE
8
boundary
62
5
39
2
10
7.055924
20
390.425393
11
8.476560
21
388.463655
0
LINE
8
boundary
62
5
39
2
10
8.476560
20
388.463655
11
9.524484
21
386.886572
0
LINE
8
boundary
62
5
39
2
10
9.524484
20
386.886572
11
10.665092
21
385.405314
0
LINE
8
boundary
62
5
39
2
10
10.665092
20
385.405314
11
13.609618
21
381.864190
0
LINE
8
boundary
62
5
39
2
10
13.609618
20
381.864190
11
14.594129
21
380.758214
0
LINE
8
boundary
62
5
39
2
10
14.594129
20
380.758214
11
15.287780
21
379.904867
0
LINE
8
boundary
62
5
39
2
10
15.287780
20
379.904867
11
16.058826
21
380.371235
0
LINE
8
boundary
62
5
39
2
10
16.058826
20
380.371235
11
16.058827
21
392.377014
0
LINE
8
boundary
62
5
39
2
10
16.058827
20
392.377014
11
20.504826
21
392.377014
0
LINE
8
boundary
62
5
39
2
10
20.504826
20
392.377014
11
20.504826
21
374.192252
0
LINE
8
boundary
62
5
39
2
10
20.504826
20
374.192252
11
21.209826
21
373.450714
0
LINE
8
boundary
62
5
39
2
10
21.209826
20
373.450714
11
22.492935
21
372.113597
0
LINE
8
boundary
62
5
39
2
10
22.492935
20
372.113597
11
23.339577
21
371.243176
0
LINE
8
boundary
62
5
39
2
10
23.339577
20
371.243176
11
26.874337
21
367.669560
0
LINE
8
boundary
62
5
39
2
10
26.874337
20
367.669560
11
29.164670
21
365.423686
0
LINE
8
boundary
62
5
39
2
10
29.164670
20
365.423686
11
32.419132
21
362.421898
0
LINE
8
boundary
62
5
39
2
10
32.419132
20
362.421898
11
33.876955
21
360.980052
0
LINE
8
boundary
62
5
39
2
10
33.876955
20
360.980052
11
35.339508
21
359.601777
0
LINE
8
boundary
62
5
39
2
10
35.339508
20
359.601777
11
36.421419
21
358.618846
0
LINE
8
boundary
62
5
39
2
10
36.421419
20
358.618846
11
37.946329
21
357.322504
0
LINE
8
boundary
62
5
39
2
10
37.946329
20
357.322504
11
41.728958
21
354.062509
0
LINE
8
boundary
62
5
39
2
10
41.728958
20
354.062509
11
44.058471
21
352.018751
0
LINE
8
boundary
62
5
39
2
10
44.058471
20
352.018751
11
46.186109
21
350.184315
0
LINE
8
boundary
62
5
39
2
10
46.186109
20
350.184315
11
51.937808
21
345.329762
0
LINE
8
boundary
62
5
39
2
10
51.937808
20
345.329762
11
52.773174
21
344.645998
0
LINE
8
boundary
62
5
39
2
10
52.773174
20
344.645998
11
54.744817
21
343.089649
0
LINE
8
boundary
62
5
39
2
10
54.744817
20
343.089649
11
60.565027
21
338.288591
0
LINE
8
boundary
62
5
39
2
10
60.565027
20
338.288591
11
61.610302
21
337.453080
0
LINE
8
boundary
62
5
39
2
10
61.610302
20
337.453080
11
63.612177
21
335.821200
0
LINE
8
boundary
62
5
39
2
10
63.612177
20
335.821200
11
67.939114
21
332.090137
0
LINE
8
boundary
62
5
39
2
10
67.939114
20
332.090137
11
68.644114
21
332.630036
0
LINE
8
boundary
62
5
39
2
10
68.644114
20
332.630036
11
68.644114
21
387.600789
0
LINE
8
boundary
62
5
39
2
10
68.644114
20
387.600789
11
73.090114
21
387.600789
0
LINE
8
boundary
62
5
39
2
10
73.090114
20
387.600789
11
73.090113
21
327.741564
0
LINE
8
boundary
62
5
39
2
10
73.090113
20
327.741564
11
74.159657
21
326.830543
0
LINE
8
boundary
62
5
39
2
10
74.159657
20
326.830543
11
77.633179
21
323.887237
0
LINE
8
boundary
62
5
39
2
10
77.633179
20
323.887237
11
78.286127
21
323.268298
0
LINE
8
boundary
62
5
39
2
10
78.286127
20
323.268298
11
79.004509
21
322.668757
0
LINE
8
boundary
62
5
39
2
10
79.004509
20
322.668757
11
79.876328
21
321.953411
0
LINE
8
boundary
62
5
39
2
10
79.876328
20
321.953411
11
80.617783
21
321.405359
0
LINE
8
boundary
62
5
39
2
10
80.617783
20
321.405359
11
82.364773
21
319.972673
0
LINE
8
boundary
62
5
39
2
10
82.364773
20
319.972673
11
84.422935
21
318.248418
0
LINE
8
boundary
62
5
39
2
10
84.422935
20
318.248418
11
85.141084
21
317.606142
0
LINE
8
boundary
62
5
39
2
10
85.141084
20
317.606142
11
86.396116
21
316.581664
0
LINE
8
boundary
62
5
39
2
10
86.396116
20
316.581664
11
87.901200
21
315.325230
0
LINE
8
boundary
62
5
39
2
10
87.901200
20
315.325230
11
92.246452
21
311.551563
0
LINE
8
boundary
62
5
39
2
10
92.246452
20
311.551563
11
96.661592
21
307.779662
0
LINE
8
boundary
62
5
39
2
10
96.661592
20
307.779662
11
98.500959
21
306.234796
0
LINE
8
boundary
62
5
39
2
10
98.500959
20
306.234796
11
100.365981
21
304.736978
0
LINE
8
boundary
62
5
39
2
10
100.365981
20
304.736978
11
102.328791
21
303.127593
0
LINE
8
boundary
62
5
39
2
10
102.328791
20
303.127593
11
104.067375
21
301.724932
0
LINE
8
boundary
62
5
39
2
10
104.067375
20
301.724932
11
105.640591
21
300.478553
0
LINE
8
boundary
62
5
39
2
10
105.640591
20
300.478553
11
108.454039
21
298.309299
0
LINE
8
boundary
62
5
39
2
10
108.454039
20
298.309299
11
112.383908
21
295.215669
0
LINE
8
boundary
62
5
39
2
10
112.383908
20
295.215669
11
114.829565
21
293.366073
0
LINE
8
boundary
62
5
39
2
10
114.829565
20
293.366073
11
117.093395
21
291.679412
0
LINE
8
boundary
62
5
39
2
10
117.093395
20
291.679412
11
119.425405
21
290.002483
0
LINE
8
boundary
62
5
39
2
10
119.425405
20
290.002483
11
120.524401
21
289.166243
0
LINE
8
boundary
62
5
39
2
10
120.524401
20
289.166243
11
121.229401
21
289.706143
0
LINE
8
boundary
62
5
39
2
10
121.229401
20
289.706143
11
121.229401
21
371.663612
0
LINE
8
boundary
62
5
39
2
10
121.229401
20
371.663612
11
125.675401
21
371.663611
0
LINE
8
boundary
62
5
39
2
10
125.675401
20
371.663611
11
125.675401
21
285.422536
0
LINE
8
boundary
62
5
39
2
10
125.675401
20
285.422536
11
126.380401
21
284.882636
0
LINE
8
boundary
62
5
39
2
10
126.380401
20
284.882636
11
131.631017
21
281.182871
0
LINE
8
boundary
62
5
39
2
10
131.631017
20
281.182871
11
133.816631
21
279.585608
0
LINE
8
boundary
62
5
39
2
10
133.816631
20
279.585608
11
136.362201
21
277.906856
0
LINE
8
boundary
62
5
39
2
10
136.362201
20
277.906856
11
140.884807
21
274.527800
0
LINE
8
boundary
62
5
39
2
10
140.884807
20
274.527800
11
142.112087
21
273.637238
0
LINE
8
boundary
62
5
39
2
10
142.112087
20
273.637238
11
143.124818
21
272.777072
0
LINE
8
boundary
62
5
39
2
10
143.124818
20
272.777072
11
143.743328
21
272.320574
0
LINE
8
boundary
62
5
39
2
10
143.743328
20
272.320574
11
149.916757
21
267.724910
0
LINE
8
boundary
62
5
39
2
10
149.916757
20
267.724910
11
152.608336
21
265.668844
0
LINE
8
boundary
62
5
39
2
10
152.608336
20
265.668844
11
155.378660
21
263.458348
0
LINE
8
boundary
62
5
39
2
10
155.378660
20
263.458348
11
156.776518
21
262.538392
0
LINE
8
boundary
62
5
39
2
10
156.776518
20
262.538392
11
157.182308
21
262.207254
0
LINE
8
boundary
62
5
39
2
10
157.182308
20
262.207254
11
157.583640
21
261.877424
0
LINE
8
boundary
62
5
39
2
10
157.583640
20
261.877424
11
158.710650
21
260.752588
0
LINE
8
boundary
62
5
39
2
10
158.710650
20
260.752588
11
161.447045
21
258.496693
0
LINE
8
boundary
62
5
39
2
10
161.447045
20
258.496693
11
164.168057
21
256.213859
0
LINE
8
boundary
62
5
39
2
10
164.168057
20
256.213859
11
167.142401
21
253.745900
0
LINE
8
boundary
62
5
39
2
10
167.142401
20
253.745900
11
169.864126
21
251.443198
0
LINE
8
boundary
62
5
39
2
10
169.864126
20
251.443198
11
172.653718
21
249.055616
0
LINE
8
boundary
62
5
39
2
10
172.653718
20
249.055616
11
173.109689
21
248.665830
0
LINE
8
boundary
62
5
39
2
10
173.109689
20
248.665830
11
173.814689
21
249.205729
0
LINE
8
boundary
62
5
39
2
10
173.814689
20
249.205729
11
173.814689
21
325.662545
0
LINE
8
boundary
62
5
39
2
10
173.814689
20
325.662545
11
178.260689
21
325.662546
0
LINE
8
boundary
62
5
39
2
10
178.260689
20
325.662546
11
178.260689
21
244.046382
0
LINE
8
boundary
62
5
39
2
10
178.260689
20
244.046382
11
178.965688
21
243.321427
0
LINE
8
boundary
62
5
39
2
10
178.965688
20
243.321427
11
180.533387
21
241.709352
0
LINE
8
boundary
62
5
39
2
10
180.533387
20
241.709352
11
181.657645
21
240.715138
0
LINE
8
boundary
62
5
39
2
10
181.657645
20
240.715138
11
182.608116
21
239.490583
0
LINE
8
boundary
62
5
39
2
10
182.608116
20
239.490583
11
184.964693
21
236.610745
0
LINE
8
boundary
62
5
39
2
10
184.964693
20
236.610745
11
185.945676
21
235.200362
0
LINE
8
boundary
62
5
39
2
10
185.945676
20
235.200362
11
186.759681
21
233.881276
0
LINE
8
boundary
62
5
39
2
10
186.759681
20
233.881276
11
187.978930
21
232.265911
0
LINE
8
boundary
62
5
39
2
10
187.978930
20
232.265911
11
189.164115
21
229.904502
0
LINE
8
boundary
62
5
39
2
10
189.164115
20
229.904502
11
189.890381
21
228.600333
0
LINE
8
boundary
62
5
39
2
10
189.890381
20
228.600333
11
190.473552
21
227.441584
0
LINE
8
boundary
62
5
39
2
10
190.473552
20
227.441584
11
191.280853
21
225.566962
0
LINE
8
boundary
62
5
39
2
10
191.280853
20
225.566962
11
192.783695
21
222.498604
0
LINE
8
boundary
62
5
39
2
10
192.783695
20
222.498604
11
194.446151
21
217.483175
0
LINE
8
boundary
62
5
39
2
10
194.446151
20
217.483175
11
194.665166
21
216.844702
0
LINE
8
boundary
62
5
39
2
10
194.665166
20
216.844702
11
194.992926
21
215.687630
0
LINE
8
boundary
62
5
39
2
10
194.992926
20
215.687630
11
197.419080
21
207.826746
0
LINE
8
boundary
62
5
39
2
10
197.419080
20
207.826746
11
197.893602
21
206.106116
0
LINE
8
boundary
62
5
39
2
10
197.893602
20
206.106116
11
198.549564
21
203.404642
0
LINE
8
boundary
62
5
39
2
10
198.549564
20
203.404642
11
199.742765
21
198.489642
0
LINE
8
boundary
62
5
39
2
10
199.742765
20
198.489642
11
200.604618
21
194.648799
0
LINE
8
boundary
62
5
39
2
10
200.604618
20
194.648799
11
201.913881
21
188.830143
0
LINE
8
boundary
62
5
39
2
10
201.913881
20
188.830143
11
203.310894
21
183.005061
0
LINE
8
boundary
62
5
39
2
10
203.310894
20
183.005061
11
204.309402
21
178.891294
0
LINE
8
boundary
62
5
39
2
10
204.309402
20
178.891294
11
205.289348
21
174.677930
0
LINE
8
boundary
62
5
39
2
10
205.289348
20
174.677930
11
206.105185
21
171.181252
0
LINE
8
boundary
62
5
39
2
10
206.105185
20
171.181252
11
206.408385
21
169.805653
0
LINE
8
boundary
62
5
39
2
10
206.408385
20
169.805653
11
206.661308
21
168.607061
0
LINE
8
boundary
62
5
39
2
10
206.661308
20
168.607061
11
208.289481
21
160.306851
0
LINE
8
boundary
62
5
39
2
10
208.289481
20
160.306851
11
208.436463
21
159.575160
0
LINE
8
boundary
62
5
39
2
10
208.436463
20
159.575160
11
208.538492
21
158.940171
0
LINE
8
boundary
62
5
39
2
10
208.538492
20
158.940171
11
208.746672
21
157.949348
0
LINE
8
boundary
62
5
39
2
10
208.746672
20
157.949348
11
210.013850
21
151.141804
0
LINE
8
boundary
62
5
39
2
10
210.013850
20
151.141804
11
210.822154
21
147.069466
0
LINE
8
boundary
62
5
39
2
10
210.822154
20
147.069466
11
210.930622
21
146.472613
0
LINE
8
boundary
62
5
39
2
10
210.930622
20
146.472613
11
211.104082
21
145.698260
0
LINE
8
boundary
62
5
39
2
10
211.104082
20
145.698260
11
212.324934
21
140.328976
0
LINE
8
boundary
62
5
39
2
10
212.324934
20
140.328976
11
212.949396
21
136.223566
0
LINE
8
boundary
62
5
39
2
10
212.949396
20
136.223566
11
213.446348
21
133.994388
0
LINE
8
boundary
62
5
39
2
10
213.446348
20
133.994388
11
214.182110
21
130.996631
0
LINE
8
boundary
62
5
39
2
10
214.182110
20
130.996631
11
214.843788
21
128.606296
0
LINE
8
boundary
62
5
39
2
10
214.843788
20
128.606296
11
214.981524
21
127.900260
0
LINE
8
boundary
62
5
39
2
10
214.981524
20
127.900260
11
215.440019
21
125.610595
0
LINE
8
boundary
62
5
39
2
10
215.440019
20
125.610595
11
216.517271
21
121.809136
0
LINE
8
boundary
62
5
39
2
10
216.517271
20
121.809136
11
218.154384
21
116.689826
0
LINE
8
boundary
62
5
39
2
10
218.154384
20
116.689826
11
218.708860
21
115.022521
0
LINE
8
boundary
62
5
39
2
10
218.708860
20
115.022521
11
219.792510
21
112.179179
0
LINE
8
boundary
62
5
39
2
10
219.792510
20
112.179179
11
220.528118
21
110.298160
0
LINE
8
boundary
62
5
39
2
10
220.528118
20
110.298160
11
221.580197
21
107.918928
0
LINE
8
boundary
62
5
39
2
10
221.580197
20
107.918928
11
222.530311
21
105.919432
0
LINE
8
boundary
62
5
39
2
10
222.530311
20
105.919432
11
223.006053
21
104.969215
0
LINE
8
boundary
62
5
39
2
10
223.006053
20
104.969215
11
224.117426
21
102.755120
0
LINE
8
boundary
62
5
39
2
10
224.117426
20
102.755120
11
224.672023
21
101.528385
0
LINE
8
boundary
62
5
39
2
10
224.672023
20
101.528385
11
225.546818
21
99.811786
0
LINE
8
boundary
62
5
39
2
10
225.546818
20
99.811786
11
226.399976
21
100.064697
0
LINE
8
boundary
62
5
39
2
10
226.399976
20
100.064697
11
226.399976
21
230.586604
0
LINE
8
boundary
62
5
39
2
10
226.399976
20
230.586604
11
230.845976
21
230.586604
0
LINE
8
boundary
62
5
39
2
10
230.845976
20
230.586604
11
230.845976
21
89.317061
0
LINE
8
boundary
62
5
39
2
10
230.845976
20
89.317061
11
231.550976
21
87.746329
0
LINE
8
boundary
62
5
39
2
10
231.550976
20
87.746329
11
232.371381
21
85.914913
0
LINE
8
boundary
62
5
39
2
10
232.371381
20
85.914913
11
234.278550
21
81.891514
0
LINE
8
boundary
62
5
39
2
10
234.278550
20
81.891514
11
234.732119
21
80.916183
0
LINE
8
boundary
62
5
39
2
10
234.732119
20
80.916183
11
235.378391
21
79.311006
0
LINE
8
boundary
62
5
39
2
10
235.378391
20
79.311006
11
236.461097
21
76.679139
0
LINE
8
boundary
62
5
39
2
10
236.461097
20
76.679139
11
236.957863
21
75.002412
0
LINE
8
boundary
62
5
39
2
10
236.957863
20
75.002412
11
238.002190
21
72.198520
0
LINE
8
boundary
62
5
39
2
10
238.002190
20
72.198520
11
239.078429
21
69.157417
0
LINE
8
boundary
62
5
39
2
10
239.078429
20
69.157417
11
239.393936
21
68.291034
0
LINE
8
boundary
62
5
39
2
10
239.393936
20
68.291034
11
239.808512
21
67.272275
0
LINE
8
boundary
62
5
39
2
10
239.808512
20
67.272275
11
241.271301
21
63.380438
0
LINE
8
boundary
62
5
39
2
10
241.271301
20
63.380438
11
242.076475
21
61.109392
0
LINE
8
boundary
62
5
39
2
10
242.076475
20
61.109392
11
244.876661
21
54.405318
0
LINE
8
boundary
62
5
39
2
10
244.876661
20
54.405318
11
245.066937
21
53.870781
0
LINE
8
boundary
62
5
39
2
10
245.066937
20
53.870781
11
245.670892
21
52.435003
0
LINE
8
boundary
62
5
39
2
10
245.670892
20
52.435003
11
248.778068
21
45.424606
0
LINE
8
boundary
62
5
39
2
10
248.778068
20
45.424606
11
249.871595
21
43.435012
0
LINE
8
boundary
62
5
39
2
10
249.871595
20
43.435012
11
253.731652
21
37.113598
0
LINE
8
boundary
62
5
39
2
10
253.731652
20
37.113598
11
255.317853
21
35.009859
0
LINE
8
boundary
62
5
39
2
10
255.317853
20
35.009859
11
257.200217
21
32.508207
0
LINE
8
boundary
62
5
39
2
10
257.200217
20
32.508207
11
260.052906
21
29.386188
0
LINE
8
boundary
62
5
39
2
10
260.052906
20
29.386188
11
266.630514
21
23.472766
0
LINE
8
boundary
62
5
39
2
10
266.630514
20
23.472766
11
267.235826
21
22.882194
0
LINE
8
boundary
62
5
39
2
10
267.235826
20
22.882194
11
268.571298
21
21.873013
0
LINE
8
boundary
62
5
39
2
10
268.571298
20
21.873013
11
273.417277
21
18.268414
0
LINE
8
boundary
62
5
39
2
10
273.417277
20
18.268414
11
274.858468
21
17.372509
0
LINE
8
boundary
62
5
39
2
10
274.858468
20
17.372509
11
275.466478
21
16.986425
0
LINE
8
boundary
62
5
39
2
10
275.466478
20
16.986425
11
277.085990
21
15.936788
0
LINE
8
boundary
62
5
39
2
10
277.085990
20
15.936788
11
278.280264
21
15.162186
0
LINE
8
boundary
62
5
39
2
10
278.280264
20
15.162186
11
278.985264
21
15.702086
0
LINE
8
boundary
62
5
39
2
10
278.985264
20
15.702086
11
278.985263
21
162.602654
0
LINE
8
boundary
62
5
39
2
10
278.985263
20
162.602654
11
283.431264
21
162.602655
0
LINE
8
boundary
62
5
39
2
10
283.431264
20
162.602655
11
283.431264
21
12.332802
0
LINE
8
boundary
62
5
39
2
10
283.431264
20
12.332802
11
284.136263
21
11.792902
0
LINE
8
boundary
62
5
39
2
10
284.136263
20
11.792902
11
286.865859
21
10.385451
0
LINE
8
boundary
62
5
39
2
10
286.865859
20
10.385451
11
290.289148
21
8.566966
0
LINE
8
boundary
62
5
39
2
10
290.289148
20
8.566966
11
291.087919
21
8.166694
0
LINE
8
boundary
62
5
39
2
10
291.087919
20
8.166694
11
292.433510
21
7.547556
0
LINE
8
boundary
62
5
39
2
10
292.433510
20
7.547556
11
295.205016
21
6.351394
0
LINE
8
boundary
62
5
39
2
10
295.205016
20
6.351394
11
296.561887
21
5.795804
0
LINE
8
boundary
62
5
39
2
10
296.561887
20
5.795804
11
297.607360
21
5.435010
0
LINE
8
boundary
62
5
39
2
10
297.607360
20
5.435010
11
305.219268
21
3.076004
0
LINE
8
boundary
62
5
39
2
10
305.219268
20
3.076004
11
305.764121
21
2.912248
0
LINE
8
boundary
62
5
39
2
10
305.764121
20
2.912248
11
312.979215
21
1.788255
0
LINE
8
boundary
62
5
39
2
10
312.979215
20
1.788255
11
313.818904
21
1.742108
0
LINE
8
boundary
62
5
39
2
10
313.818904
20
1.742108
11
314.811481
21
1.629257
0
LINE
8
boundary
62
5
39
2
10
314.811481
20
1.629257
11
318.128857
21
1.587500
0
LINE
8
boundary
62
5
39
2
10
318.128857
20
1.587500
11
320.323279
21
1.633226
0
LINE
8
boundary
62
5
39
2
10
320.323279
20
1.633226
11
321.644213
21
1.840594
0
LINE
8
boundary
62
5
39
2
10
321.644213
20
1.840594
11
328.328681
21
2.643100
0
LINE
8
boundary
62
5
39
2
10
328.328681
20
2.643100
11
329.298596
21
2.913313
0
LINE
8
boundary
62
5
39
2
10
329.298596
20
2.913313
11
330.191783
21
3.040986
0
LINE
8
boundary
62
5
39
2
10
330.191783
20
3.040986
11
330.865551
21
3.201150
0
LINE
8
boundary
62
5
39
2
10
330.865551
20
3.201150
11
331.570552
21
3.741050
0
LINE
8
boundary
62
5
39
2
10
331.570552
20
3.741050
11
331.570551
21
132.722323
0
LINE
8
boundary
62
5
39
2
10
331.570551
20
132.722323
11
336.016552
21
132.722323
0
LINE
8
boundary
62
5
39
2
10
336.016552
20
132.722323
11
336.016551
21
5.235900
0
LINE
8
boundary
62
5
39
2
10
336.016551
20
5.235900
11
336.721551
21
4.696000
0
LINE
8
boundary
62
5
39
2
10
336.721551
20
4.696000
11
341.297038
21
6.163941
0
LINE
8
boundary
62
5
39
2
10
341.297038
20
6.163941
11
343.961465
21
7.177659
0
LINE
8
boundary
62
5
39
2
10
343.961465
20
7.177659
11
351.124755
21
10.267277
0
LINE
8
boundary
62
5
39
2
10
351.124755
20
10.267277
11
351.615263
21
10.447440
0
LINE
8
boundary
62
5
39
2
10
351.615263
20
10.447440
11
352.700314
21
10.966843
0
LINE
8
boundary
62
5
39
2
10
352.700314
20
10.966843
11
355.603789
21
12.414808
0
LINE
8
boundary
62
5
39
2
10
355.603789
20
12.414808
11
357.333632
21
13.460963
0
LINE
8
boundary
62
5
39
2
10
357.333632
20
13.460963
11
357.821366
21
13.746059
0
LINE
8
boundary
62
5
39
2
10
357.821366
20
13.746059
11
358.329838
21
13.939525
0
LINE
8
boundary
62
5
39
2
10
358.329838
20
13.939525
11
364.010368
21
17.549231
0
LINE
8
boundary
62
5
39
2
10
364.010368
20
17.549231
11
366.921999
21
19.959611
0
LINE
8
boundary
62
5
39
2
10
366.921999
20
19.959611
11
370.222422
21
22.005479
0
LINE
8
boundary
62
5
39
2
10
370.222422
20
22.005479
11
371.403983
21
22.923926
0
LINE
8
boundary
62
5
39
2
10
371.403983
20
22.923926
11
372.056281
21
23.383716
0
LINE
8
boundary
62
5
39
2
10
372.056281
20
23.383716
11
372.510162
21
23.785721
0
LINE
8
boundary
62
5
39
2
10
372.510162
20
23.785721
11
374.116786
21
25.110713
0
LINE
8
boundary
62
5
39
2
10
374.116786
20
25.110713
11
374.681022
21
25.695529
0
LINE
8
boundary
62
5
39
2
10
374.681022
20
25.695529
11
375.902581
21
26.752622
0
LINE
8
boundary
62
5
39
2
10
375.902581
20
26.752622
11
377.904524
21
27.906436
0
LINE
8
boundary
62
5
39
2
10
377.904524
20
27.906436
11
378.849017
21
28.647335
0
LINE
8
boundary
62
5
39
2
10
378.849017
20
28.647335
11
379.943457
21
29.691392
0
LINE
8
boundary
62
5
39
2
10
379.943457
20
29.691392
11
381.498977
21
32.354730
0
LINE
8
boundary
62
5
39
2
10
381.498977
20
32.354730
11
381.982500
21
32.851880
0
LINE
8
boundary
62
5
39
2
10
381.982500
20
32.851880
11
383.099402
21
34.641779
0
LINE
8
boundary
62
5
39
2
10
383.099402
20
34.641779
11
384.155839
21
36.118360
0
LINE
8
boundary
62
5
39
2
10
384.155839
20
36.118360
11
384.155839
21
109.225474
0
LINE
8
boundary
62
5
39
2
10
384.155839
20
109.225474
11
388.601839
21
109.225474
0
LINE
8
boundary
62
5
39
2
10
388.601839
20
109.225474
11
388.601839
21
68.569288
0
LINE
8
boundary
62
5
39
2
10
388.601839
20
68.569288
11
389.306839
21
68.029388
0
LINE
8
boundary
62
5
39
2
10
389.306839
20
68.029388
11
389.430287
21
68.569154
0
LINE
8
boundary
62
5
39
2
10
389.430287
20
68.569154
11
389.973575
21
70.729126
0
LINE
8
boundary
62
5
39
2
10
389.973575
20
70.729126
11
390.193420
21
71.262354
0
LINE
8
boundary
62
5
39
2
10
390.193420
20
71.262354
11
390.867528
21
73.784823
0
LINE
8
boundary
62
5
39
2
10
390.867528
20
73.784823
11
391.179809
21
74.902787
0
LINE
8
boundary
62
5
39
2
10
391.179809
20
74.902787
11
391.706670
21
76.994049
0
LINE
8
boundary
62
5
39
2
10
391.706670
20
76.994049
11
392.320711
21
79.833876
0
LINE
8
boundary
62
5
39
2
10
392.320711
20
79.833876
11
393.128887
21
83.715486
0
LINE
8
boundary
62
5
39
2
10
393.128887
20
83.715486
11
394.417358
21
88.783532
0
LINE
8
boundary
62
5
39
2
10
394.417358
20
88.783532
11
395.415636
21
94.863424
0
LINE
8
boundary
62
5
39
2
10
395.415636
20
94.863424
11
395.909562
21
98.245880
0
LINE
8
boundary
62
5
39
2
10
395.909562
20
98.245880
11
396.103741
21
99.466632
0
LINE
8
boundary
62
5
39
2
10
396.103741
20
99.466632
11
396.277163
21
100.592981
0
LINE
8
boundary
62
5
39
2
10
396.277163
20
100.592981
11
396.344533
21
101.101505
0
LINE
8
boundary
62
5
39
2
10
396.344533
20
101.101505
11
396.465588
21
102.170392
0
LINE
8
boundary
62
5
39
2
10
396.465588
20
102.170392
11
396.596192
21
103.438807
0
LINE
8
boundary
62
5
39
2
10
396.596192
20
103.438807
11
396.970641
21
107.160393
0
LINE
8
boundary
62
5
39
2
10
396.970641
20
107.160393
11
397.033992
21
107.875031
0
LINE
8
boundary
62
5
39
2
10
397.033992
20
107.875031
11
397.201189
21
110.379421
0
LINE
8
boundary
62
5
39
2
10
397.201189
20
110.379421
11
397.276690
21
111.276052
0
LINE
8
boundary
62
5
39
2
10
397.276690
20
111.276052
11
397.420610
21
113.858892
0
LINE
8
boundary
62
5
39
2
10
397.420610
20
113.858892
11
397.502940
21
116.852406
0
LINE
8
boundary
62
5
39
2
10
397.502940
20
116.852406
11
397.598830
21
120.380799
0
LINE
8
boundary
62
5
39
2
10
397.598830
20
120.380799
11
397.643840
21
126.259727
0
LINE
8
boundary
62
5
39
2
10
397.643840
20
126.259727
11
397.648620
21
127.092227
0
LINE
8
boundary
62
5
39
2
10
397.648620
20
127.092227
11
397.573596
21
129.228602
0
LINE
8
boundary
62
5
39
2
10
397.573596
20
129.228602
11
397.344099
21
134.680935
0
LINE
8
boundary
62
5
39
2
10
397.344099
20
134.680935
11
397.283452
21
135.634988
0
LINE
8
boundary
62
5
39
2
10
397.283452
20
135.634988
11
396.991203
21
139.318585
0
LINE
8
boundary
62
5
39
2
10
396.991203
20
139.318585
11
396.869903
21
140.756346
0
LINE
8
boundary
62
5
39
2
10
396.869903
20
140.756346
11
396.347572
21
144.870294
0
LINE
8
boundary
62
5
39
2
10
396.347572
20
144.870294
11
395.022763
21
152.108421
0
LINE
8
boundary
62
5
39
2
10
395.022763
20
152.108421
11
394.737223
21
153.817515
0
LINE
8
boundary
62
5
39
2
10
394.737223
20
153.817515
11
394.531244
21
154.749592
0
LINE
8
boundary
62
5
39
2
10
394.531244
20
154.749592
11
393.488473
21
158.822078
0
LINE
8
boundary
62
5
39
2
10
393.488473
20
158.822078
11
392.756301
21
161.745601
0
LINE
8
boundary
62
5
39
2
10
392.756301
20
161.745601
11
392.576096
21
162.407662
0
LINE
8
boundary
62
5
39
2
10
392.576096
20
162.407662
11
392.296418
21
163.348632
0
LINE
8
boundary
62
5
39
2
10
392.296418
20
163.348632
11
391.412015
21
166.231096
0
LINE
8
boundary
62
5
39
2
10
391.412015
20
166.231096
11
390.602849
21
168.744356
0
LINE
8
boundary
62
5
39
2
10
390.602849
20
168.744356
11
389.928358
21
170.656600
0
LINE
8
boundary
62
5
39
2
10
389.928358
20
170.656600
11
387.994764
21
175.671052
0
LINE
8
boundary
62
5
39
2
10
387.994764
20
175.671052
11
386.749464
21
178.598543
0
LINE
8
boundary
62
5
39
2
10
386.749464
20
178.598543
11
385.155318
21
182.117802
0
LINE
8
boundary
62
5
39
2
10
385.155318
20
182.117802
11
384.893516
21
182.729332
0
LINE
8
boundary
62
5
39
2
10
384.893516
20
182.729332
11
383.399479
21
186.415166
0
LINE
8
boundary
62
5
39
2
10
383.399479
20
186.415166
11
382.026649
21
189.641345
0
LINE
8
boundary
62
5
39
2
10
382.026649
20
189.641345
11
379.972505
21
194.137964
0
LINE
8
boundary
62
5
39
2
10
379.972505
20
194.137964
11
378.695560
21
196.671480
0
LINE
8
boundary
62
5
39
2
10
378.695560
20
196.671480
11
377.416865
21
199.248011
0
LINE
8
boundary
62
5
39
2
10
377.416865
20
199.248011
11
376.324151
21
201.724132
0
LINE
8
boundary
62
5
39
2
10
376.324151
20
201.724132
11
375.423311
21
203.613166
0
LINE
8
boundary
62
5
39
2
10
375.423311
20
203.613166
11
372.478725
21
209.205141
0
LINE
8
boundary
62
5
39
2
10
372.478725
20
209.205141
11
371.671621
21
210.528340
0
LINE
8
boundary
62
5
39
2
10
371.671621
20
210.528340
11
370.374146
21
212.789615
0
LINE
8
boundary
62
5
39
2
10
370.374146
20
212.789615
11
368.872903
21
215.478161
0
LINE
8
boundary
62
5
39
2
10
368.872903
20
215.478161
11
368.344645
21
216.584788
0
LINE
8
boundary
62
5
39
2
10
368.344645
20
216.584788
11
367.855289
21
217.432611
0
LINE
8
boundary
62
5
39
2
10
367.855289
20
217.432611
11
363.912675
21
223.887265
0
LINE
8
boundary
62
5
39
2
10
363.912675
20
223.887265
11
363.116661
21
225.025355
0
LINE
8
boundary
62
5
39
2
10
363.116661
20
225.025355
11
359.142827
21
230.983615
0
LINE
8
boundary
62
5
39
2
10
359.142827
20
230.983615
11
358.419963
21
231.943826
0
LINE
8
boundary
62
5
39
2
10
358.419963
20
231.943826
11
354.517581
21
237.142362
0
LINE
8
boundary
62
5
39
2
10
354.517581
20
237.142362
11
354.104825
21
237.686866
0
LINE
8
boundary
62
5
39
2
10
354.104825
20
237.686866
11
353.508506
21
238.428471
0
LINE
8
boundary
62
5
39
2
10
353.508506
20
238.428471
11
351.244550
21
241.289341
0
LINE
8
boundary
62
5
39
2
10
351.244550
20
241.289341
11
348.158521
21
244.819897
0
LINE
8
boundary
62
5
39
2
10
348.158521
20
244.819897
11
347.133320
21
245.916362
0
LINE
8
boundary
62
5
39
2
10
347.133320
20
245.916362
11
343.682086
21
249.716707
0
LINE
8
boundary
62
5
39
2
10
343.682086
20
249.716707
11
342.100033
21
251.435072
0
LINE
8
boundary
62
5
39
2
10
342.100033
20
251.435072
11
339.354159
21
254.364719
0
LINE
8
boundary
62
5
39
2
10
339.354159
20
254.364719
11
335.894868
21
258.047220
0
LINE
8
boundary
62
5
39
2
10
335.894868
20
258.047220
11
334.558576
21
259.576241
0
LINE
8
boundary
62
5
39
2
10
334.558576
20
259.576241
11
334.060637
21
260.131393
0
LINE
8
boundary
62
5
39
2
10
334.060637
20
260.131393
11
333.208124
21
261.073801
0
LINE
8
boundary
62
5
39
2
10
333.208124
20
261.073801
11
329.985810
21
264.622741
0
LINE
8
boundary
62
5
39
2
10
329.985810
20
264.622741
11
329.404944
21
265.254092
0
LINE
8
boundary
62
5
39
2
10
329.404944
20
265.254092
11
328.546868
21
266.201475
0
LINE
8
boundary
62
5
39
2
10
328.546868
20
266.201475
11
325.453301
21
269.586595
0
LINE
8
boundary
62
5
39
2
10
325.453301
20
269.586595
11
325.006965
21
270.078164
0
LINE
8
boundary
62
5
39
2
10
325.006965
20
270.078164
11
324.194405
21
270.895674
0
LINE
8
boundary
62
5
39
2
10
324.194405
20
270.895674
11
323.370644
21
271.783302
0
LINE
8
boundary
62
5
39
2
10
323.370644
20
271.783302
11
320.817484
21
274.568139
0
LINE
8
boundary
62
5
39
2
10
320.817484
20
274.568139
11
317.283047
21
278.433739
0
LINE
8
boundary
62
5
39
2
10
317.283047
20
278.433739
11
316.843081
21
278.906190
0
LINE
8
boundary
62
5
39
2
10
316.843081
20
278.906190
11
313.028304
21
282.811536
0
LINE
8
boundary
62
5
39
2
10
313.028304
20
282.811536
11
310.222965
21
285.651526
0
LINE
8
boundary
62
5
39
2
10
310.222965
20
285.651526
11
308.780906
21
287.170177
0
LINE
8
boundary
62
5
39
2
10
308.780906
20
287.170177
11
308.225317
21
287.719046
0
LINE
8
boundary
62
5
39
2
10
308.225317
20
287.719046
11
307.590987
21
288.323051
0
LINE
8
boundary
62
5
39
2
10
307.590987
20
288.323051
11
306.059322
21
289.761453
0
LINE
8
boundary
62
5
39
2
10
306.059322
20
289.761453
11
303.328034
21
292.331655
0
LINE
8
boundary
62
5
39
2
10
303.328034
20
292.331655
11
302.000560
21
293.552013
0
LINE
8
boundary
62
5
39
2
10
302.000560
20
293.552013
11
301.171532
21
294.279614
0
LINE
8
boundary
62
5
39
2
10
301.171532
20
294.279614
11
299.073151
21
296.113972
0
LINE
8
boundary
62
5
39
2
10
299.073151
20
296.113972
11
297.207320
21
297.743543
0
LINE
8
boundary
62
5
39
2
10
297.207320
20
297.743543
11
296.070467
21
298.649618
0
LINE
8
boundary
62
5
39
2
10
296.070467
20
298.649618
11
290.818306
21
302.991902
0
LINE
8
boundary
62
5
39
2
10
290.818306
20
302.991902
11
289.431491
21
304.159610
0
LINE
8
boundary
62
5
39
2
10
289.431491
20
304.159610
11
288.999925
21
304.520712
0
LINE
8
boundary
62
5
39
2
10
288.999925
20
304.520712
11
286.061888
21
306.891067
0
LINE
8
boundary
62
5
39
2
10
286.061888
20
306.891067
11
281.024071
21
310.672814
0
LINE
8
boundary
62
5
39
2
10
281.024071
20
310.672814
11
279.385032
21
311.866463
0
LINE
8
boundary
62
5
39
2
10
279.385032
20
311.866463
11
278.095890
21
312.833258
0
LINE
8
boundary
62
5
39
2
10
278.095890
20
312.833258
11
276.260441
21
314.235920
0
LINE
8
boundary
62
5
39
2
10
276.260441
20
314.235920
11
274.278443
21
315.648333
0
LINE
8
boundary
62
5
39
2
10
274.278443
20
315.648333
11
271.980509
21
317.495078
0
LINE
8
boundary
62
5
39
2
10
271.980509
20
317.495078
11
271.586236
21
317.859782
0
LINE
8
boundary
62
5
39
2
10
271.586236
20
317.859782
11
269.685903
21
319.371333
0
LINE
8
boundary
62
5
39
2
10
269.685903
20
319.371333
11
266.290673
21
322.030379
0
LINE
8
boundary
62
5
39
2
10
266.290673
20
322.030379
11
265.551723
21
322.561385
0
LINE
8
boundary
62
5
39
2
10
265.551723
20
322.561385
11
262.584234
21
324.959109
0
LINE
8
boundary
62
5
39
2
10
262.584234
20
324.959109
11
259.652759
21
327.384830
0
LINE
8
boundary
62
5
39
2
10
259.652759
20
327.384830
11
257.878329
21
328.994539
0
LINE
8
boundary
62
5
39
2
10
257.878329
20
328.994539
11
254.727750
21
332.261240
0
LINE
8
boundary
62
5
39
2
10
254.727750
20
332.261240
11
251.009431
21
335.874520
0
LINE
8
boundary
62
5
39
2
10
251.009431
20
335.874520
11
250.479562
21
336.476639
0
LINE
8
boundary
62
5
39
2
10
250.479562
20
336.476639
11
243.837168
21
344.967972
0
LINE
8
boundary
62
5
39
2
10
243.837168
20
344.967972
11
243.535990
21
345.387395
0
LINE
8
boundary
62
5
39
2
10
243.535990
20
345.387395
11
237.116609
21
354.556439
0
LINE
8
boundary
62
5
39
2
10
237.116609
20
354.556439
11
236.820707
21
355.028439
0
LINE
8
boundary
62
5
39
2
10
236.820707
20
355.028439
11
236.474658
21
355.492177
0
LINE
8
boundary
62
5
39
2
10
236.474658
20
355.492177
11
233.151512
21
359.622608
0
LINE
8
boundary
62
5
39
2
10
233.151512
20
359.622608
11
230.371785
21
363.863664
0
LINE
8
boundary
62
5
39
2
10
230.371785
20
363.863664
11
229.822254
21
364.606764
0
LINE
8
boundary
62
5
39
2
10
229.822254
20
364.606764
11
229.219807
21
365.336787
0
LINE
8
boundary
62
5
39
2
10
229.219807
20
365.336787
11
222.649568
21
372.860629
0
LINE
8
boundary
62
5
39
2
10
222.649568
20
372.860629
11
221.996355
21
373.554013
0
LINE
8
boundary
62
5
39
2
10
221.996355
20
373.554013
11
218.688753
21
376.290270
0
LINE
8
boundary
62
5
39
2
10
218.688753
20
376.290270
11
217.463668
21
377.376795
0
LINE
8
boundary
62
5
39
2
10
217.463668
20
377.376795
11
213.369010
21
381.304970
0
LINE
8
boundary
62
5
39
2
10
213.369010
20
381.304970
11
212.955868
21
381.640823
0
LINE
8
boundary
62
5
39
2
10
212.955868
20
381.640823
11
208.357933
21
384.916872
0
LINE
8
boundary
62
5
39
2
10
208.357933
20
384.916872
11
204.279593
21
388.264155
0
LINE
8
boundary
62
5
39
2
10
204.279593
20
388.264155
11
203.782132
21
388.642353
0
LINE
8
boundary
62
5
39
2
10
203.782132
20
388.642353
11
203.191207
21
389.050575
0
LINE
8
boundary
62
5
39
2
10
203.191207
20
389.050575
11
195.417364
21
394.117281
0
LINE
8
boundary
62
5
39
2
10
195.417364
20
394.117281
11
194.027005
21
395.043372
0
LINE
8
boundary
62
5
39
2
10
194.027005
20
395.043372
11
188.440239
21
398.551415
0
LINE
8
boundary
62
5
39
2
10
188.440239
20
398.551415
11
184.426522
21
401.257222
0
LINE
8
boundary
62
5
39
2
10
184.426522
20
401.257222
11
183.033372
21
402.079945
0
LINE
8
boundary
62
5
39
2
10
183.033372
20
402.079945
11
176.100093
21
406.181762
0
LINE
8
boundary
62
5
39
2
10
176.100093
20
406.181762
11
174.952796
21
406.862803
0
LINE
8
boundary
62
5
39
2
10
174.952796
20
406.862803
11
169.741576
21
409.930196
0
LINE
8
boundary
62
5
39
2
10
169.741576
20
409.930196
11
165.834053
21
412.357874
0
LINE
8
boundary
62
5
39
2
10
165.834053
20
412.357874
11
163.819484
21
413.649045
0
LINE
8
boundary
62
5
39
2
10
163.819484
20
413.649045
11
161.549267
21
415.174013
0
LINE
8
boundary
62
5
39
2
10
161.549267
20
415.174013
11
160.427210
21
415.941433
0
LINE
8
boundary
62
5
39
2
10
160.427210
20
415.941433
11
157.612128
21
417.938424
0
LINE
8
boundary
62
5
39
2
10
157.612128
20
417.938424
11
155.854225
21
419.262145
0
LINE
8
boundary
62
5
39
2
10
155.854225
20
419.262145
11
154.794417
21
420.069320
0
LINE
8
boundary
62
5
39
2
10
154.794417
20
420.069320
11
153.966089
21
420.727044
0
LINE
8
boundary
62
5
39
2
10
153.966089
20
420.727044
11
152.755585
21
421.701152
0
LINE
8
boundary
62
5
39
2
10
152.755585
20
421.701152
11
152.078109
21
422.266376
0
LINE
8
boundary
62
5
39
2
10
152.078109
20
422.266376
11
151.406232
21
422.832393
0
LINE
8
boundary
62
5
39
2
10
151.406232
20
422.832393
11
150.377474
21
423.719300
0
LINE
8
boundary
62
5
39
2
10
150.377474
20
423.719300
11
149.992709
21
424.055488
0
LINE
8
boundary
62
5
39
2
10
149.992709
20
424.055488
11
148.454787
21
425.451813
0
LINE
8
boundary
62
5
39
2
10
148.454787
20
425.451813
11
147.270145
21
426.567896
0
LINE
8
boundary
62
5
39
2
10
147.270145
20
426.567896
11
146.140956
21
427.649647
0
LINE
8
boundary
62
5
39
2
10
146.140956
20
427.649647
11
145.465437
21
428.269418
0
LINE
8
boundary
62
5
39
2
10
145.465437
20
428.269418
11
144.964841
21
428.787590
0
LINE
8
boundary
62
5
39
2
10
144.964841
20
428.787590
11
143.916306
21
429.790563
0
LINE
8
boundary
62
5
39
2
10
143.916306
20
429.790563
11
143.306073
21
430.420979
0
LINE
8
boundary
62
5
39
2
10
143.306073
20
430.420979
11
142.560575
21
431.184665
0
LINE
8
boundary
62
5
39
2
10
142.560575
20
431.184665
11
140.820212
21
433.016487
0
LINE
8
boundary
62
5
39
2
10
140.820212
20
433.016487
11
140.480088
21
433.423308
0
LINE
8
boundary
62
5
39
2
10
140.480088
20
433.423308
11
135.196108
21
440.121270
0
LINE
8
boundary
62
5
39
2
10
135.196108
20
440.121270
11
134.453777
21
441.227832
0
LINE
8
boundary
62
5
39
2
10
134.453777
20
441.227832
11
133.418349
21
442.598691
0
LINE
8
boundary
62
5
39
2
10
133.418349
20
442.598691
11
131.414557
21
445.409355
0
LINE
8
boundary
62
5
39
2
10
131.414557
20
445.409355
11
130.730984
21
446.328675
0
LINE
8
boundary
62
5
39
2
10
130.730984
20
446.328675
11
129.731013
21
447.612686
0
LINE
8
boundary
62
5
39
2
10
129.731013
20
447.612686
11
128.435113
21
449.418114
0
LINE
8
boundary
62
5
39
2
10
128.435113
20
449.418114
11
127.280126
21
450.983087
0
LINE
8
boundary
62
5
39
2
10
127.280126
20
450.983087
11
126.972256
21
451.405659
0
LINE
8
boundary
62
5
39
2
10
126.972256
20
451.405659
11
126.381426
21
452.266244
0
LINE
8
boundary
62
5
39
2
10
126.381426
20
452.266244
11
121.705307
21
458.873387
0
LINE
8
boundary
62
5
39
2
10
121.705307
20
458.873387
11
118.787717
21
462.815204
0
LINE
8
boundary
62
5
39
2
10
118.787717
20
462.815204
11
117.181978
21
465.885291
0
LINE
8
boundary
62
5
39
2
10
117.181978
20
465.885291
11
116.554163
21
467.059291
0
LINE
8
boundary
62
5
39
2
10
116.554163
20
467.059291
11
115.419885
21
468.874789
0
LINE
8
boundary
62
5
39
2
10
115.419885
20
468.874789
11
112.946429
21
473.049849
0
LINE
8
boundary
62
5
39
2
10
112.946429
20
473.049849
11
112.261814
21
474.257532
0
LINE
8
boundary
62
5
39
2
10
112.261814
20
474.257532
11
111.968085
21
474.893988
0
LINE
8
boundary
62
5
39
2
10
111.968085
20
474.893988
11
111.482007
21
475.754420
0
LINE
8
boundary
62
5
39
2
10
111.482007
20
475.754420
11
111.231741
21
476.203277
0
LINE
8
boundary
62
5
39
2
10
111.231741
20
476.203277
11
110.821820
21
476.923740
0
LINE
8
boundary
62
5
39
2
10
110.821820
20
476.923740
11
109.970328
21
476.276651
0
LINE
8
boundary
62
5
39
2
10
109.970328
20
476.276651
11
109.482645
21
475.904833
0
LINE
8
boundary
62
5
39
2
10
109.482645
20
475.904833
11
107.457846
21
474.371005
0
LINE
8
boundary
62
5
39
2
10
107.457846
20
474.371005
11
103.838856
21
471.643770
0
LINE
8
boundary
62
5
39
2
10
103.838856
20
471.643770
11
102.044268
21
470.299333
0
LINE
8
boundary
62
5
39
2
10
102.044268
20
470.299333
11
98.849280
21
467.911711
0
LINE
8
boundary
62
5
39
2
10
98.849280
20
467.911711
11
95.044783
21
465.086997
0
LINE
8
boundary
62
5
39
2
10
95.044783
20
465.086997
11
92.287397
21
463.043881
0
LINE
8
boundary
62
5
39
2
10
92.287397
20
463.043881
11
86.524468
21
458.793121
0
LINE
8
boundary
62
5
39
2
10
86.524468
20
458.793121
11
84.038570
21
456.972173
0
LINE
8
boundary
62
5
39
2
10
84.038570
20
456.972173
11
77.001105
21
451.818776
0
LINE
8
boundary
62
5
39
2
10
77.001105
20
451.818776
11
75.265348
21
450.554973
0
LINE
8
boundary
62
5
39
2
10
75.265348
20
450.554973
11
74.707363
21
450.150144
0
LINE
8
boundary
62
5
39
2
10
74.707363
20
450.150144
11
67.212617
21
444.730854
0
LINE
8
boundary
62
5
39
2
10
67.212617
20
444.730854
11
64.356899
21
442.678912
0
LINE
8
boundary
62
5
39
2
10
64.356899
20
442.678912
11
59.353093
21
439.090324
0
LINE
8
boundary
62
5
39
2
10
59.353093
20
439.090324
11
53.274522
21
434.725505
0
LINE
8
boundary
62
5
39
2
10
53.274522
20
434.725505
11
50.739510
21
432.911429
0
LINE
8
boundary
62
5
39
2
10
50.739510
20
432.911429
11
42.538822
21
427.070839
0
LINE
8
boundary
62
5
39
2
10
42.538822
20
427.070839
11
41.997358
21
426.683048
0
LINE
8
boundary
62
5
39
2
10
41.997358
20
426.683048
11
41.517023
21
426.339705
0
LINE
8
boundary
62
5
39
2
10
41.517023
20
426.339705
11
40.144644
21
425.363127
0
LINE
8
boundary
62
5
39
2
10
40.144644
20
425.363127
11
36.769530
21
422.969611
0
LINE
8
boundary
62
5
39
2
10
36.769530
20
422.969611
11
33.627305
21
420.752941
0
LINE
8
boundary
62
5
39
2
10
33.627305
20
420.752941
11
29.868974
21
418.105884
0
LINE
8
boundary
62
5
39
2
10
29.868974
20
418.105884
11
22.818194
21
413.136208
0
LINE
8
boundary
62
5
39
2
10
22.818194
20
413.136208
11
19.520412
21
410.832847
0
LINE
8
boundary
62
5
39
2
10
19.520412
20
410.832847
11
10.169144
21
404.266160
0
LINE
8
boundary
62
5
39
2
10
10.169144
20
404.266160
11
9.747788
21
403.973131
0
LINE
8
boundary
62
5
39
2
10
9.747788
20
403.973131
11
9.294743
21
403.657615
0
LINE
8
boundary
62
5
39
2
10
9.294743
20
403.657615
11
1.587500
21
398.305657
0
LINE
8
boundary
62
5
39
2
10
1.587500
20
398.305657
11
2.363395
21
397.117483
0
LINE
8
boundary
62
5
39
2
10
2.363395
20
397.117483
11
3.460596
21
395.435202
0
LINE
8
annotation
62
1
39
211
10
14.521826
20
401.068825
11
22.041826
21
401.068825
0
LINE
8
annotation
62
1
39
211
10
22.041826
20
401.068825
11
20.369562
21
402.740617
0
LINE
8
annotation
62
1
39
211
10
67.107053
20
395.458826
11
67.107053
21
398.798638
0
LINE
8
annotation
62
1
39
211
10
67.107053
20
398.798638
11
72.075270
21
395.712542
0
LINE
8
annotation
62
1
39
211
10
72.075270
20
395.712542
11
72.075270
21
395.712542
0
LINE
8
annotation
62
1
39
211
10
72.075270
20
395.712542
11
72.079836
21
395.708853
0
LINE
8
annotation
62
1
39
211
10
72.079836
20
395.708853
11
72.084440
21
395.705315
0
LINE
8
annotation
62
1
39
211
10
72.084440
20
395.705315
11
72.089121
21
395.701905
0
LINE
8
annotation
62
1
39
211
10
72.089121
20
395.701905
11
72.093919
21
395.698600
0
LINE
8
annotation
62
1
39
211
10
72.093919
20
395.698600
11
72.098873
21
395.695377
0
LINE
8
annotation
62
1
39
211
10
72.098873
20
395.695377
11
72.104020
21
395.692211
0
LINE
8
annotation
62
1
39
211
10
72.104020
20
395.692211
11
72.109400
21
395.689081
0
LINE
8
annotation
62
1
39
211
10
72.109400
20
395.689081
11
72.115052
21
395.685962
0
LINE
8
annotation
62
1
39
211
10
72.115052
20
395.685962
11
72.121015
21
395.682832
0
LINE
8
annotation
62
1
39
211
10
72.121015
20
395.682832
11
72.121015
21
395.682832
0
LINE
8
annotation
62
1
39
211
10
72.121015
20
395.682832
11
72.394605
21
395.555408
0
LINE
8
annotation
62
1
39
211
10
72.394605
20
395.555408
11
72.678206
21
395.480969
0
LINE
8
annotation
62
1
39
211
10
72.678206
20
395.480969
11
72.965408
21
395.457691
0
LINE
8
annotation
62
1
39
211
10
72.965408
20
395.457691
11
73.249805
21
395.483749
0
LINE
8
annotation
62
1
39
211
10
73.249805
20
395.483749
11
73.524986
21
395.557320
0
LINE
8
annotation
62
1
39
211
10
73.524986
20
395.557320
11
73.784545
21
395.676579
0
LINE
8
annotation
62
1
39
211
10
73.784545
20
395.676579
11
74.022074
21
395.839702
0
LINE
8
annotation
62
1
39
211
10
74.022074
20
395.839702
11
74.231163
21
396.044864
0
LINE
8
annotation
62
1
39
211
10
74.231163
20
396.044864
11
74.405405
21
396.290242
0
LINE
8
annotation
62
1
39
211
10
74.405405
20
396.290242
11
74.405405
21
396.290242
0
LINE
8
annotation
62
1
39
211
10
74.405405
20
396.290242
11
74.531018
21
396.564593
0
LINE
8
annotation
62
1
39
211
10
74.531018
20
396.564593
11
74.604310
21
396.848629
0
LINE
8
annotation
62
1
39
211
10
74.604310
20
396.848629
11
74.626930
21
397.135998
0
LINE
8
annotation
62
1
39
211
10
74.626930
20
397.135998
11
74.600528
21
397.420352
0
LINE
8
annotation
62
1
39
211
10
74.600528
20
397.420352
11
74.526754
21
397.695339
0
LINE
8
annotation
62
1
39
211
10
74.526754
20
397.695339
11
74.407256
21
397.954611
0
LINE
8
annotation
62
1
39
211
10
74.407256
20
397.954611
11
74.243685
21
398.191817
0
LINE
8
annotation
62
1
39
211
10
74.243685
20
398.191817
11
74.037690
21
398.400607
0
LINE
8
annotation
62
1
39
211
10
74.037690
20
398.400607
11
73.790921
21
398.574632
0
LINE
8
annotation
62
1
39
211
10
73.790921
20
398.574632
11
73.370261
21
398.793922
0
LINE
8
annotation
62
1
39
211
10
119.692637
20
382.861461
11
119.692637
21
381.191555
0
LINE
8
annotation
62
1
39
211
10
119.692637
20
381.191555
11
119.692637
21
381.191555
0
LINE
8
annotation
62
1
39
211
10
119.692637
20
381.191555
11
119.719579
21
380.891218
0
LINE
8
annotation
62
1
39
211
10
119.719579
20
380.891218
11
119.797228
21
380.608612
0
LINE
8
annotation
62
1
39
211
10
119.797228
20
380.608612
11
119.920818
21
380.348436
0
LINE
8
annotation
62
1
39
211
10
119.920818
20
380.348436
11
120.085581
21
380.115392
0
LINE
8
annotation
62
1
39
211
10
120.085581
20
380.115392
11
120.286752
21
379.914178
0
LINE
8
annotation
62
1
39
211
10
120.286752
20
379.914178
11
120.519564
21
379.749497
0
LINE
8
annotation
62
1
39
211
10
120.519564
20
379.749497
11
120.779251
21
379.626048
0
LINE
8
annotation
62
1
39
211
10
120.779251
20
379.626048
11
121.061047
21
379.548532
0
LINE
8
annotation
62
1
39
211
10
121.061047
20
379.548532
11
121.360185
21
379.521649
0
LINE
8
annotation
62
1
39
211
10
121.360185
20
379.521649
11
122.196317
21
379.521649
0
LINE
8
annotation
62
1
39
211
10
122.196317
20
379.521649
11
122.196317
21
379.521649
0
LINE
8
annotation
62
1
39
211
10
122.196317
20
379.521649
11
122.495331
21
379.548532
0
LINE
8
annotation
62
1
39
211
10
122.495331
20
379.548532
11
122.777060
21
379.626048
0
LINE
8
annotation
62
1
39
211
10
122.777060
20
379.626048
11
123.036728
21
379.749497
0
LINE
8
annotation
62
1
39
211
10
123.036728
20
379.749497
11
123.269556
21
379.914178
0
LINE
8
annotation
62
1
39
211
10
123.269556
20
379.914178
11
123.470766
21
380.115392
0
LINE
8
annotation
62
1
39
211
10
123.470766
20
380.115392
11
123.635580
21
380.348436
0
LINE
8
annotation
62
1
39
211
10
123.635580
20
380.348436
11
123.759219
21
380.608612
0
LINE
8
annotation
62
1
39
211
10
123.759219
20
380.608612
11
123.836907
21
380.891218
0
LINE
8
annotation
62
1
39
211
10
123.836907
20
380.891218
11
123.863865
21
381.191555
0
LINE
8
annotation
62
1
39
211
10
123.863865
20
381.191555
11
123.863865
21
382.027687
0
LINE
8
annotation
62
1
39
211
10
123.863865
20
382.027687
11
123.863865
21
381.191555
0
LINE
8
annotation
62
1
39
211
10
123.863865
20
381.191555
11
123.863865
21
381.191555
0
LINE
8
annotation
62
1
39
211
10
123.863865
20
381.191555
11
123.890829
21
380.891218
0
LINE
8
annotation
62
1
39
211
10
123.890829
20
380.891218
11
123.968562
21
380.608612
0
LINE
8
annotation
62
1
39
211
10
123.968562
20
380.608612
11
124.092325
21
380.348436
0
LINE
8
annotation
62
1
39
211
10
124.092325
20
380.348436
11
124.257378
21
380.115392
0
LINE
8
annotation
62
1
39
211
10
124.257378
20
380.115392
11
124.458982
21
379.914178
0
LINE
8
annotation
62
1
39
211
10
124.458982
20
379.914178
11
124.692399
21
379.749497
0
LINE
8
annotation
62
1
39
211
10
124.692399
20
379.749497
11
124.952888
21
379.626048
0
LINE
8
annotation
62
1
39
211
10
124.952888
20
379.626048
11
125.235711
21
379.548532
0
LINE
8
annotation
62
1
39
211
10
125.235711
20
379.548532
11
125.536129
21
379.521649
0
LINE
8
annotation
62
1
39
211
10
125.536129
20
379.521649
11
125.536129
21
379.521649
0
LINE
8
annotation
62
1
39
211
10
125.536129
20
379.521649
11
125.835142
21
379.548532
0
LINE
8
annotation
62
1
39
211
10
125.835142
20
379.548532
11
126.116872
21
379.626048
0
LINE
8
annotation
62
1
39
211
10
126.116872
20
379.626048
11
126.376540
21
379.749497
0
LINE
8
annotation
62
1
39
211
10
126.376540
20
379.749497
11
126.609368
21
379.914178
0
LINE
8
annotation
62
1
39
211
10
126.609368
20
379.914178
11
126.810578
21
380.115392
0
LINE
8
annotation
62
1
39
211
10
126.810578
20
380.115392
11
126.975392
21
380.348436
0
LINE
8
annotation
62
1
39
211
10
126.975392
20
380.348436
11
127.099031
21
380.608612
0
LINE
8
annotation
62
1
39
211
10
127.099031
20
380.608612
11
127.176719
21
380.891218
0
LINE
8
annotation
62
1
39
211
10
127.176719
20
380.891218
11
127.203677
21
381.191555
0
LINE
8
annotation
62
1
39
211
10
127.203677
20
381.191555
11
127.203677
21
382.861461
0
LINE
8
annotation
62
1
39
211
10
173.949481
20
333.102752
11
173.949481
21
337.278225
0
LINE
8
annotation
62
1
39
211
10
173.949481
20
337.278225
11
179.797689
21
335.610677
0
LINE
8
annotation
62
1
39
211
10
172.277689
20
334.354357
11
175.617501
21
334.354357
0
LINE
8
annotation
62
1
39
211
10
224.862976
20
241.784453
11
224.862976
21
240.114547
0
LINE
8
annotation
62
1
39
211
10
224.862976
20
240.114547
11
224.862976
21
240.114547
0
LINE
8
annotation
62
1
39
211
10
224.862976
20
240.114547
11
224.889924
21
239.814831
0
LINE
8
annotation
62
1
39
211
10
224.889924
20
239.814831
11
224.967614
21
239.532555
0
LINE
8
annotation
62
1
39
211
10
224.967614
20
239.532555
11
225.091314
21
239.272476
0
LINE
8
annotation
62
1
39
211
10
225.091314
20
239.272476
11
225.256293
21
239.039354
0
LINE
8
annotation
62
1
39
211
10
225.256293
20
239.039354
11
225.457819
21
238.837947
0
LINE
8
annotation
62
1
39
211
10
225.457819
20
238.837947
11
225.691161
21
238.673014
0
LINE
8
annotation
62
1
39
211
10
225.691161
20
238.673014
11
225.951588
21
238.549312
0
LINE
8
annotation
62
1
39
211
10
225.951588
20
238.549312
11
226.234367
21
238.471602
0
LINE
8
annotation
62
1
39
211
10
226.234367
20
238.471602
11
226.534769
21
238.444641
0
LINE
8
annotation
62
1
39
211
10
226.534769
20
238.444641
11
227.366656
21
238.444641
0
LINE
8
annotation
62
1
39
211
10
227.366656
20
238.444641
11
227.366656
21
238.444641
0
LINE
8
annotation
62
1
39
211
10
227.366656
20
238.444641
11
227.666912
21
238.471586
0
LINE
8
annotation
62
1
39
211
10
227.666912
20
238.471586
11
227.949301
21
238.549258
0
LINE
8
annotation
62
1
39
211
10
227.949301
20
238.549258
11
228.209163
21
238.672909
0
LINE
8
annotation
62
1
39
211
10
228.209163
20
238.672909
11
228.441836
21
238.837792
0
LINE
8
annotation
62
1
39
211
10
228.441836
20
238.837792
11
228.642658
21
239.039160
0
LINE
8
annotation
62
1
39
211
10
228.642658
20
239.039160
11
228.806967
21
239.272267
0
LINE
8
annotation
62
1
39
211
10
228.806967
20
239.272267
11
228.930102
21
239.532365
0
LINE
8
annotation
62
1
39
211
10
228.930102
20
239.532365
11
229.007402
21
239.814707
0
LINE
8
annotation
62
1
39
211
10
229.007402
20
239.814707
11
229.034204
21
240.114547
0
LINE
8
annotation
62
1
39
211
10
229.034204
20
240.114547
11
229.034204
21
241.784453
0
LINE
8
annotation
62
1
39
211
10
229.034204
20
241.784453
11
232.382976
21
241.784453
0
LINE
8
annotation
62
1
39
211
10
232.382976
20
241.784453
11
232.382976
21
238.444641
0
LINE
8
annotation
62
1
39
211
10
284.968264
20
171.292108
11
284.968264
21
171.292108
0
LINE
8
annotation
62
1
39
211
10
284.968264
20
171.292108
11
284.788898
21
171.770494
0
LINE
8
annotation
62
1
39
211
10
284.788898
20
171.770494
11
284.547224
21
172.209476
0
LINE
8
annotation
62
1
39
211
10
284.547224
20
172.209476
11
284.249296
21
172.604548
0
LINE
8
annotation
62
1
39
211
10
284.249296
20
172.604548
11
283.901170
21
172.951202
0
LINE
8
annotation
62
1
39
211
10
283.901170
20
172.951202
11
283.508901
21
173.244934
0
LINE
8
annotation
62
1
39
211
10
283.508901
20
173.244934
11
283.078544
21
173.481236
0
LINE
8
annotation
62
1
39
211
10
283.078544
20
173.481236
11
282.616153
21
173.655603
0
LINE
8
annotation
62
1
39
211
10
282.616153
20
173.655603
11
282.127784
21
173.763528
0
LINE
8
annotation
62
1
39
211
10
282.127784
20
173.763528
11
281.619492
21
173.800504
0
LINE
8
annotation
62
1
39
211
10
281.619492
20
173.800504
11
279.120056
21
173.800504
0
LINE
8
annotation
62
1
39
211
10
279.120056
20
173.800504
11
279.120056
21
173.800504
0
LINE
8
annotation
62
1
39
211
10
279.120056
20
173.800504
11
278.819655
21
173.773543
0
LINE
8
annotation
62
1
39
211
10
278.819655
20
173.773543
11
278.536875
21
173.695833
0
LINE
8
annotation
62
1
39
211
10
278.536875
20
173.695833
11
278.276449
21
173.572131
0
LINE
8
annotation
62
1
39
211
10
278.276449
20
173.572131
11
278.043106
21
173.407198
0
LINE
8
annotation
62
1
39
211
10
278.043106
20
173.407198
11
277.841580
21
173.205791
0
LINE
8
annotation
62
1
39
211
10
277.841580
20
173.205791
11
277.676601
21
172.972668
0
LINE
8
annotation
62
1
39
211
10
277.676601
20
172.972668
11
277.552901
21
172.712590
0
LINE
8
annotation
62
1
39
211
10
277.552901
20
172.712590
11
277.475212
21
172.430314
0
LINE
8
annotation
62
1
39
211
10
277.475212
20
172.430314
11
277.448264
21
172.130598
0
LINE
8
annotation
62
1
39
211
10
277.448264
20
172.130598
11
277.448264
21
172.130598
0
LINE
8
annotation
62
1
39
211
10
277.448264
20
172.130598
11
277.475212
21
171.830261
0
LINE
8
annotation
62
1
39
211
10
277.475212
20
171.830261
11
277.552901
21
171.547655
0
LINE
8
annotation
62
1
39
211
10
277.552901
20
171.547655
11
277.676601
21
171.287479
0
LINE
8
annotation
62
1
39
211
10
277.676601
20
171.287479
11
277.841580
21
171.054435
0
LINE
8
annotation
62
1
39
211
10
277.841580
20
171.054435
11
278.043106
21
170.853222
0
LINE
8
annotation
62
1
39
211
10
278.043106
20
170.853222
11
278.276449
21
170.688541
0
LINE
8
annotation
62
1
39
211
10
278.276449
20
170.688541
11
278.536875
21
170.565092
0
LINE
8
annotation
62
1
39
211
10
278.536875
20
170.565092
11
278.819655
21
170.487575
0
LINE
8
annotation
62
1
39
211
10
278.819655
20
170.487575
11
279.120056
21
170.460692
0
LINE
8
annotation
62
1
39
211
10
279.120056
20
170.460692
11
279.951944
21
170.460692
0
LINE
8
annotation
62
1
39
211
10
279.951944
20
170.460692
11
279.951944
21
170.460692
0
LINE
8
annotation
62
1
39
211
10
279.951944
20
170.460692
11
280.252199
21
170.487575
0
LINE
8
annotation
62
1
39
211
10
280.252199
20
170.487575
11
280.534589
21
170.565092
0
LINE
8
annotation
62
1
39
211
10
280.534589
20
170.565092
11
280.794451
21
170.688541
0
LINE
8
annotation
62
1
39
211
10
280.794451
20
170.688541
11
281.027123
21
170.853222
0
LINE
8
annotation
62
1
39
211
10
281.027123
20
170.853222
11
281.227945
21
171.054435
0
LINE
8
annotation
62
1
39
211
10
281.227945
20
171.054435
11
281.392254
21
171.287479
0
LINE
8
annotation
62
1
39
211
10
281.392254
20
171.287479
11
281.515390
21
171.547655
0
LINE
8
annotation
62
1
39
211
10
281.515390
20
171.547655
11
281.592689
21
171.830261
0
LINE
8
annotation
62
1
39
211
10
281.592689
20
171.830261
11
281.619492
21
172.130598
0
LINE
8
annotation
62
1
39
211
10
281.619492
20
172.130598
11
281.619492
21
173.800504
0
LINE
8
annotation
62
1
39
211
10
276.508264
20
174.009655
11
276.508264
21
170.249655
0
LINE
8
annotation
62
1
39
211
10
330.033551
20
142.250266
11
337.553551
21
140.578473
0
LINE
8
annotation
62
1
39
211
10
337.553551
20
140.578473
11
337.553551
21
143.922530
0
LINE
8
annotation
62
1
39
211
10
334.204779
20
140.578473
11
334.204779
21
142.250266
0
LINE
8
annotation
62
1
39
211
10
384.286151
20
120.423323
11
384.286151
21
120.423323
0
LINE
8
annotation
62
1
39
211
10
384.286151
20
120.423323
11
383.985895
21
120.396362
0
LINE
8
annotation
62
1
39
211
10
383.985895
20
120.396362
11
383.703506
21
120.318652
0
LINE
8
annotation
62
1
39
211
10
383.703506
20
120.318652
11
383.443644
21
120.194950
0
LINE
8
annotation
62
1
39
211
10
383.443644
20
120.194950
11
383.210971
21
120.030017
0
LINE
8
annotation
62
1
39
211
10
383.210971
20
120.030017
11
383.010150
21
119.828610
0
LINE
8
annotation
62
1
39
211
10
383.010150
20
119.828610
11
382.845840
21
119.595488
0
LINE
8
annotation
62
1
39
211
10
382.845840
20
119.595488
11
382.722705
21
119.335409
0
LINE
8
annotation
62
1
39
211
10
382.722705
20
119.335409
11
382.645405
21
119.053133
0
LINE
8
annotation
62
1
39
211
10
382.645405
20
119.053133
11
382.618603
21
118.753417
0
LINE
8
annotation
62
1
39
211
10
382.618603
20
118.753417
11
382.618603
21
118.753417
0
LINE
8
annotation
62
1
39
211
10
382.618603
20
118.753417
11
382.645405
21
118.453702
0
LINE
8
annotation
62
1
39
211
10
382.645405
20
118.453702
11
382.722705
21
118.171425
0
LINE
8
annotation
62
1
39
211
10
382.722705
20
118.171425
11
382.845840
21
117.911347
0
LINE
8
annotation
62
1
39
211
10
382.845840
20
117.911347
11
383.010150
21
117.678224
0
LINE
8
annotation
62
1
39
211
10
383.010150
20
117.678224
11
383.210971
21
117.476817
0
LINE
8
annotation
62
1
39
211
10
383.210971
20
117.476817
11
383.443644
21
117.311884
0
LINE
8
annotation
62
1
39
211
10
383.443644
20
117.311884
11
383.703506
21
117.188183
0
LINE
8
annotation
62
1
39
211
10
383.703506
20
117.188183
11
383.985895
21
117.110472
0
LINE
8
annotation
62
1
39
211
10
383.985895
20
117.110472
11
384.286151
21
117.083511
0
LINE
8
annotation
62
1
39
211
10
384.286151
20
117.083511
11
385.118039
21
117.083511
0
LINE
8
annotation
62
1
39
211
10
385.118039
20
117.083511
11
385.118039
21
117.083511
0
LINE
8
annotation
62
1
39
211
10
385.118039
20
117.083511
11
385.418440
21
117.110457
0
LINE
8
annotation
62
1
39
211
10
385.418440
20
117.110457
11
385.701220
21
117.188128
0
LINE
8
annotation
62
1
39
211
10
385.701220
20
117.188128
11
385.961646
21
117.311779
0
LINE
8
annotation
62
1
39
211
10
385.961646
20
117.311779
11
386.194988
21
117.476662
0
LINE
8
annotation
62
1
39
211
10
386.194988
20
117.476662
11
386.396514
21
117.678030
0
LINE
8
annotation
62
1
39
211
10
386.396514
20
117.678030
11
386.561493
21
117.911137
0
LINE
8
annotation
62
1
39
211
10
386.561493
20
117.911137
11
386.685193
21
118.171235
0
LINE
8
annotation
62
1
39
211
10
386.685193
20
118.171235
11
386.762883
21
118.453577
0
LINE
8
annotation
62
1
39
211
10
386.762883
20
118.453577
11
386.789831
21
118.753417
0
LINE
8
annotation
62
1
39
211
10
386.789831
20
118.753417
11
386.789831
21
118.753417
0
LINE
8
annotation
62
1
39
211
10
386.789831
20
118.753417
11
386.762867
21
119.053257
0
LINE
8
annotation
62
1
39
211
10
386.762867
20
119.053257
11
386.685139
21
119.335599
0
LINE
8
annotation
62
1
39
211
10
386.685139
20
119.335599
11
386.561388
21
119.595697
0
LINE
8
annotation
62
1
39
211
10
386.561388
20
119.595697
11
386.396359
21
119.828804
0
LINE
8
annotation
62
1
39
211
10
386.396359
20
119.828804
11
386.194794
21
120.030172
0
LINE
8
annotation
62
1
39
211
10
386.194794
20
120.030172
11
385.961437
21
120.195055
0
LINE
8
annotation
62
1
39
211
10
385.961437
20
120.195055
11
385.701029
21
120.318706
0
LINE
8
annotation
62
1
39
211
10
385.701029
20
120.318706
11
385.418316
21
120.396378
0
LINE
8
annotation
62
1
39
211
10
385.418316
20
120.396378
11
385.118039
21
120.423323
0
LINE
8
annotation
62
1
39
211
10
385.118039
20
120.423323
11
384.286151
21
120.423323
0
LINE
8
annotation
62
1
39
211
10
388.462095
20
117.083511
11
388.462095
21
117.083511
0
LINE
8
annotation
62
1
39
211
10
388.462095
20
117.083511
11
388.761108
21
117.110457
0
LINE
8
annotation
62
1
39
211
10
388.761108
20
117.110457
11
389.042838
21
117.188128
0
LINE
8
annotation
62
1
39
211
10
389.042838
20
117.188128
11
389.302506
21
117.311779
0
LINE
8
annotation
62
1
39
211
10
389.302506
20
117.311779
11
389.535334
21
117.476662
0
LINE
8
annotation
62
1
39
211
10
389.535334
20
117.476662
11
389.736544
21
117.678030
0
LINE
8
annotation
62
1
39
211
10
389.736544
20
117.678030
11
389.901357
21
117.911137
0
LINE
8
annotation
62
1
39
211
10
389.901357
20
117.911137
11
390.024997
21
118.171235
0
LINE
8
annotation
62
1
39
211
10
390.024997
20
118.171235
11
390.102685
21
118.453577
0
LINE
8
annotation
62
1
39
211
10
390.102685
20
118.453577
11
390.129643
21
118.753417
0
LINE
8
annotation
62
1
39
211
10
390.129643
20
118.753417
11
390.129643
21
118.753417
0
LINE
8
annotation
62
1
39
211
10
390.129643
20
118.753417
11
390.102685
21
119.053257
0
LINE
8
annotation
62
1
39
211
10
390.102685
20
119.053257
11
390.024997
21
119.335599
0
LINE
8
annotation
62
1
39
211
10
390.024997
20
119.335599
11
389.901357
21
119.595697
0
LINE
8
annotation
62
1
39
211
10
389.901357
20
119.595697
11
389.736544
21
119.828804
0
LINE
8
annotation
62
1
39
211
10
389.736544
20
119.828804
11
389.535334
21
120.030172
0
LINE
8
annotation
62
1
39
211
10
389.535334
20
120.030172
11
389.302506
21
120.195055
0
LINE
8
annotation
62
1
39
211
10
389.302506
20
120.195055
11
389.042838
21
120.318706
0
LINE
8
annotation
62
1
39
211
10
389.042838
20
120.318706
11
388.761108
21
120.396378
0
LINE
8
annotation
62
1
39
211
10
388.761108
20
120.396378
11
388.462095
21
120.423323
0
LINE
8
annotation
62
1
39
211
10
388.462095
20
120.423323
11
388.462095
21
120.423323
0
LINE
8
annotation
62
1
39
211
10
388.462095
20
120.423323
11
388.161677
21
120.396362
0
LINE
8
annotation
62
1
39
211
10
388.161677
20
120.396362
11
387.878854
21
120.318652
0
LINE
8
annotation
62
1
39
211
10
387.878854
20
120.318652
11
387.618365
21
120.194950
0
LINE
8
annotation
62
1
39
211
10
387.618365
20
120.194950
11
387.384948
21
120.030017
0
LINE
8
annotation
62
1
39
211
10
387.384948
20
120.030017
11
387.183344
21
119.828610
0
LINE
8
annotation
62
1
39
211
10
387.183344
20
119.828610
11
387.018291
21
119.595488
0
LINE
8
annotation
62
1
39
211
10
387.018291
20
119.595488
11
386.894528
21
119.335409
0
LINE
8
annotation
62
1
39
211
10
386.894528
20
119.335409
11
386.816795
21
119.053133
0
LINE
8
annotation
62
1
39
211
10
386.816795
20
119.053133
11
386.789831
21
118.753417
0
LINE
8
annotation
62
1
39
211
10
386.789831
20
118.753417
11
386.789831
21
118.753417
0
LINE
8
annotation
62
1
39
211
10
386.789831
20
118.753417
11
386.816795
21
118.453702
0
LINE
8
annotation
62
1
39
211
10
386.816795
20
118.453702
11
386.894528
21
118.171425
0
LINE
8
annotation
62
1
39
211
10
386.894528
20
118.171425
11
387.018291
21
117.911347
0
LINE
8
annotation
62
1
39
211
10
387.018291
20
117.911347
11
387.183344
21
117.678224
0
LINE
8
annotation
62
1
39
211
10
387.183344
20
117.678224
11
387.384948
21
117.476817
0
LINE
8
annotation
62
1
39
211
10
387.384948
20
117.476817
11
387.618365
21
117.311884
0
LINE
8
annotation
62
1
39
211
10
387.618365
20
117.311884
11
387.878854
21
117.188183
0
LINE
8
annotation
62
1
39
211
10
387.878854
20
117.188183
11
388.161677
21
117.110472
0
LINE
8
annotation
62
1
39
211
10
388.161677
20
117.110472
11
388.462095
21
117.083511
0
LINE
8
annotation
62
1
39
211
10
266.562297
20
210.673707
11
260.854830
21
202.418379
0
LINE
8
annotation
62
1
39
211
10
260.854830
20
202.418379
11
255.146289
21
210.673707
0
LINE
8
annotation
62
1
39
211
10
260.854830
20
203.082711
11
260.854830
21
193.558818
0
LINE
8
annotation
62
1
39
211
10
282.339666
20
202.116263
11
272.982124
21
202.116263
0
LINE
8
annotation
62
1
39
211
10
294.464278
20
210.673171
11
294.464278
21
210.673171
0
LINE
8
annotation
62
1
39
211
10
294.464278
20
210.673171
11
293.375580
21
210.264974
0
LINE
8
annotation
62
1
39
211
10
293.375580
20
210.264974
11
292.376556
21
209.714979
0
LINE
8
annotation
62
1
39
211
10
292.376556
20
209.714979
11
291.477463
21
209.036963
0
LINE
8
annotation
62
1
39
211
10
291.477463
20
209.036963
11
290.688555
21
208.244708
0
LINE
8
annotation
62
1
39
211
10
290.688555
20
208.244708
11
290.020088
21
207.351992
0
LINE
8
annotation
62
1
39
211
10
290.020088
20
207.351992
11
289.482318
21
206.372596
0
LINE
8
annotation
62
1
39
211
10
289.482318
20
206.372596
11
289.085499
21
205.320300
0
LINE
8
annotation
62
1
39
211
10
289.085499
20
205.320300
11
288.839887
21
204.208882
0
LINE
8
annotation
62
1
39
211
10
288.839887
20
204.208882
11
288.755737
21
203.052124
0
LINE
8
annotation
62
1
39
211
10
288.755737
20
203.052124
11
288.755737
21
197.363975
0
LINE
8
annotation
62
1
39
211
10
288.755737
20
197.363975
11
288.755737
21
197.363975
0
LINE
8
annotation
62
1
39
211
10
288.755737
20
197.363975
11
288.817094
21
196.680330
0
LINE
8
annotation
62
1
39
211
10
288.817094
20
196.680330
11
288.993946
21
196.036788
0
LINE
8
annotation
62
1
39
211
10
288.993946
20
196.036788
11
289.275462
21
195.444116
0
LINE
8
annotation
62
1
39
211
10
289.275462
20
195.444116
11
289.650813
21
194.913082
0
LINE
8
annotation
62
1
39
211
10
289.650813
20
194.913082
11
290.109170
21
194.454454
0
LINE
8
annotation
62
1
39
211
10
290.109170
20
194.454454
11
290.639703
21
194.079000
0
LINE
8
annotation
62
1
39
211
10
290.639703
20
194.079000
11
291.231583
21
193.797486
0
LINE
8
annotation
62
1
39
211
10
291.231583
20
193.797486
11
291.873980
21
193.620682
0
LINE
8
annotation
62
1
39
211
10
291.873980
20
193.620682
11
292.556065
21
193.559355
0
LINE
8
annotation
62
1
39
211
10
292.556065
20
193.559355
11
292.556065
21
193.559355
0
LINE
8
annotation
62
1
39
211
10
292.556065
20
193.559355
11
293.239563
21
193.620682
0
LINE
8
annotation
62
1
39
211
10
293.239563
20
193.620682
11
293.882711
21
193.797486
0
LINE
8
annotation
62
1
39
211
10
293.882711
20
193.797486
11
294.474811
21
194.079000
0
LINE
8
annotation
62
1
39
211
10
294.474811
20
194.079000
11
295.005168
21
194.454454
0
LINE
8
annotation
62
1
39
211
10
295.005168
20
194.454454
11
295.463083
21
194.913082
0
LINE
8
annotation
62
1
39
211
10
295.463083
20
194.913082
11
295.837860
21
195.444116
0
LINE
8
annotation
62
1
39
211
10
295.837860
20
195.444116
11
296.118802
21
196.036788
0
LINE
8
annotation
62
1
39
211
10
296.118802
20
196.036788
11
296.295212
21
196.680330
0
LINE
8
annotation
62
1
39
211
10
296.295212
20
196.680330
11
296.356392
21
197.363975
0
LINE
8
annotation
62
1
39
211
10
296.356392
20
197.363975
11
296.356392
21
199.257163
0
LINE
8
annotation
62
1
39
211
10
296.356392
20
199.257163
11
296.356392
21
199.257163
0
LINE
8
annotation
62
1
39
211
10
296.356392
20
199.257163
11
296.295212
21
199.940477
0
LINE
8
annotation
62
1
39
211
10
296.295212
20
199.940477
11
296.118802
21
200.583132
0
LINE
8
annotation
62
1
39
211
10
296.118802
20
200.583132
11
295.837860
21
201.174518
0
LINE
8
annotation
62
1
39
211
10
295.837860
20
201.174518
11
295.463083
21
201.704028
0
LINE
8
annotation
62
1
39
211
10
295.463083
20
201.704028
11
295.005168
21
202.161053
0
LINE
8
annotation
62
1
39
211
10
295.005168
20
202.161053
11
294.474811
21
202.534984
0
LINE
8
annotation
62
1
39
211
10
294.474811
20
202.534984
11
293.882711
21
202.815211
0
LINE
8
annotation
62
1
39
211
10
293.882711
20
202.815211
11
293.239563
21
202.991128
0
LINE
8
annotation
62
1
39
211
10
293.239563
20
202.991128
11
292.556065
21
203.052124
0
LINE
8
annotation
62
1
39
211
10
292.556065
20
203.052124
11
288.755737
21
203.052124
0
LINE
8
annotation
62
1
39
211
10
288.279757
20
191.420128
11
296.836665
21
191.420128
0
LINE
8
annotation
62
1
39
211
10
312.133225
20
202.116263
11
302.775683
21
202.116263
0
LINE
8
annotation
62
1
39
211
10
322.354453
20
193.559355
11
322.354453
21
210.673171
0
LINE
8
annotation
62
1
39
211
10
322.354453
20
210.673171
11
318.549832
21
206.867477
0
LINE
8
boundary
62
5
39
2
10
472.460294
20
16.195917
11
473.573936
21
15.372673
0
LINE
8
boundary
62
5
39
2
10
473.573936
20
15.372673
11
477.828596
21
12.363120
0
LINE
8
boundary
62
5
39
2
10
477.828596
20
12.363120
11
479.360675
21
11.105276
0
LINE
8
boundary
62
5
39
2
10
479.360675
20
11.105276
11
480.213748
21
10.462482
0
LINE
8
boundary
62
5
39
2
10
480.213748
20
10.462482
11
481.408758
21
9.633457
0
LINE
8
boundary
62
5
39
2
10
481.408758
20
9.633457
11
482.946879
21
8.610518
0
LINE
8
boundary
62
5
39
2
10
482.946879
20
8.610518
11
483.815964
21
8.066206
0
LINE
8
boundary
62
5
39
2
10
483.815964
20
8.066206
11
485.419619
21
7.084855
0
LINE
8
boundary
62
5
39
2
10
485.419619
20
7.084855
11
486.321430
21
6.547036
0
LINE
8
boundary
62
5
39
2
10
486.321430
20
6.547036
11
487.325221
21
6.021448
0
LINE
8
boundary
62
5
39
2
10
487.325221
20
6.021448
11
488.426474
21
5.398154
0
LINE
8
boundary
62
5
39
2
10
488.426474
20
5.398154
11
490.829393
21
3.962293
0
LINE
8
boundary
62
5
39
2
10
490.829393
20
3.962293
11
493.465572
21
2.448493
0
LINE
8
boundary
62
5
39
2
10
493.465572
20
2.448493
11
493.936121
21
2.207093
0
LINE
8
boundary
62
5
39
2
10
493.936121
20
2.207093
11
494.502206
21
1.929629
0
LINE
8
boundary
62
5
39
2
10
494.502206
20
1.929629
11
495.066200
21
1.587500
0
LINE
8
boundary
62
5
39
2
10
495.066200
20
1.587500
11
496.046855
21
2.589661
0
LINE
8
boundary
62
5
39
2
10
496.046855
20
2.589661
11
498.956117
21
5.573101
0
LINE
8
boundary
62
5
39
2
10
498.956117
20
5.573101
11
499.419256
21
6.043973
0
LINE
8
boundary
62
5
39
2
10
499.419256
20
6.043973
11
503.337000
21
10.030892
0
LINE
8
boundary
62
5
39
2
10
503.337000
20
10.030892
11
505.605926
21
12.325343
0
LINE
8
boundary
62
5
39
2
10
505.605926
20
12.325343
11
508.394028
21
15.145840
0
LINE
8
boundary
62
5
39
2
10
508.394028
20
15.145840
11
510.223750
21
16.967378
0
LINE
8
boundary
62
5
39
2
10
510.223750
20
16.967378
11
510.086669
21
17.844718
0
LINE
8
boundary
62
5
39
2
10
510.086669
20
17.844718
11
468.507954
21
40.481246
0
LINE
8
boundary
62
5
39
2
10
468.507954
20
40.481246
11
470.633834
21
44.386057
0
LINE
8
boundary
62
5
39
2
10
470.633834
20
44.386057
11
513.725138
21
20.926037
0
LINE
8
boundary
62
5
39
2
10
513.725138
20
20.926037
11
514.536418
21
21.287064
0
LINE
8
boundary
62
5
39
2
10
514.536418
20
21.287064
11
515.194168
21
21.948988
0
LINE
8
boundary
62
5
39
2
10
515.194168
20
21.948988
11
521.251444
21
27.951391
0
LINE
8
boundary
62
5
39
2
10
521.251444
20
27.951391
11
524.082696
21
30.761532
0
LINE
8
boundary
62
5
39
2
10
524.082696
20
30.761532
11
530.611009
21
37.211852
0
LINE
8
boundary
62
5
39
2
10
530.611009
20
37.211852
11
532.552044
21
39.109505
0
LINE
8
boundary
62
5
39
2
10
532.552044
20
39.109505
11
533.592633
21
40.120432
0
LINE
8
boundary
62
5
39
2
10
533.592633
20
40.120432
11
540.499055
21
46.806492
0
LINE
8
boundary
62
5
39
2
10
540.499055
20
46.806492
11
545.837226
21
51.958274
0
LINE
8
boundary
62
5
39
2
10
545.837226
20
51.958274
11
548.369966
21
54.391508
0
LINE
8
boundary
62
5
39
2
10
548.369966
20
54.391508
11
548.527857
21
55.549567
0
LINE
8
boundary
62
5
39
2
10
548.527857
20
55.549567
11
475.156343
21
95.591839
0
LINE
8
boundary
62
5
39
2
10
475.156343
20
95.591839
11
477.286198
21
99.494484
0
LINE
8
boundary
62
5
39
2
10
477.286198
20
99.494484
11
552.300392
21
58.555724
0
LINE
8
boundary
62
5
39
2
10
552.300392
20
58.555724
11
553.112038
21
58.915924
0
LINE
8
boundary
62
5
39
2
10
553.112038
20
58.915924
11
553.942683
21
59.708443
0
LINE
8
boundary
62
5
39
2
10
553.942683
20
59.708443
11
556.348395
21
61.991596
0
LINE
8
boundary
62
5
39
2
10
556.348395
20
61.991596
11
557.676888
21
63.246779
0
LINE
8
boundary
62
5
39
2
10
557.676888
20
63.246779
11
564.835521
21
69.993681
0
LINE
8
boundary
62
5
39
2
10
564.835521
20
69.993681
11
570.230722
21
75.056607
0
LINE
8
boundary
62
5
39
2
10
570.230722
20
75.056607
11
571.601962
21
76.331391
0
LINE
8
boundary
62
5
39
2
10
571.601962
20
76.331391
11
575.408720
21
79.862536
0
LINE
8
boundary
62
5
39
2
10
575.408720
20
79.862536
11
576.070109
21
80.473923
0
LINE
8
boundary
62
5
39
2
10
576.070109
20
80.473923
11
577.068481
21
81.394116
0
LINE
8
boundary
62
5
39
2
10
577.068481
20
81.394116
11
579.277544
21
83.430745
0
LINE
8
boundary
62
5
39
2
10
579.277544
20
83.430745
11
580.678361
21
84.718056
0
LINE
8
boundary
62
5
39
2
10
580.678361
20
84.718056
11
581.170715
21
85.170401
0
LINE
8
boundary
62
5
39
2
10
581.170715
20
85.170401
11
582.040317
21
85.966933
0
LINE
8
boundary
62
5
39
2
10
582.040317
20
85.966933
11
582.912481
21
86.765466
0
LINE
8
boundary
62
5
39
2
10
582.912481
20
86.765466
11
583.399512
21
87.208095
0
LINE
8
boundary
62
5
39
2
10
583.399512
20
87.208095
11
583.234260
21
88.200522
0
LINE
8
boundary
62
5
39
2
10
583.234260
20
88.200522
11
582.373438
21
89.676193
0
LINE
8
boundary
62
5
39
2
10
582.373438
20
89.676193
11
581.999435
21
90.323828
0
LINE
8
boundary
62
5
39
2
10
581.999435
20
90.323828
11
580.975212
21
92.114433
0
LINE
8
boundary
62
5
39
2
10
580.975212
20
92.114433
11
580.455388
21
93.042726
0
LINE
8
boundary
62
5
39
2
10
580.455388
20
93.042726
11
579.904200
21
94.001834
0
LINE
8
boundary
62
5
39
2
10
579.904200
20
94.001834
11
578.979334
21
95.628483
0
LINE
8
boundary
62
5
39
2
10
578.979334
20
95.628483
11
578.332242
21
96.790989
0
LINE
8
boundary
62
5
39
2
10
578.332242
20
96.790989
11
489.838228
21
145.642889
0
LINE
8
boundary
62
5
39
2
10
489.838228
20
145.642889
11
491.986922
21
149.535194
0
LINE
8
boundary
62
5
39
2
10
491.986922
20
149.535194
11
573.158323
21
104.725641
0
LINE
8
boundary
62
5
39
2
10
573.158323
20
104.725641
11
573.971703
21
105.081915
0
LINE
8
boundary
62
5
39
2
10
573.971703
20
105.081915
11
572.943767
21
107.205318
0
LINE
8
boundary
62
5
39
2
10
572.943767
20
107.205318
11
572.474170
21
108.299420
0
LINE
8
boundary
62
5
39
2
10
572.474170
20
108.299420
11
571.253091
21
112.716539
0
LINE
8
boundary
62
5
39
2
10
571.253091
20
112.716539
11
571.035719
21
114.072899
0
LINE
8
boundary
62
5
39
2
10
571.035719
20
114.072899
11
570.804615
21
116.560910
0
LINE
8
boundary
62
5
39
2
10
570.804615
20
116.560910
11
570.774925
21
117.890152
0
LINE
8
boundary
62
5
39
2
10
570.774925
20
117.890152
11
570.845825
21
119.170410
0
LINE
8
boundary
62
5
39
2
10
570.845825
20
119.170410
11
571.093838
21
120.898181
0
LINE
8
boundary
62
5
39
2
10
571.093838
20
120.898181
11
571.196025
21
121.724307
0
LINE
8
boundary
62
5
39
2
10
571.196025
20
121.724307
11
571.433546
21
122.933347
0
LINE
8
boundary
62
5
39
2
10
571.433546
20
122.933347
11
571.892611
21
124.801419
0
LINE
8
boundary
62
5
39
2
10
571.892611
20
124.801419
11
572.225844
21
126.236286
0
LINE
8
boundary
62
5
39
2
10
572.225844
20
126.236286
11
572.859434
21
128.442933
0
LINE
8
boundary
62
5
39
2
10
572.859434
20
128.442933
11
573.043493
21
129.048092
0
LINE
8
boundary
62
5
39
2
10
573.043493
20
129.048092
11
573.570550
21
130.883015
0
LINE
8
boundary
62
5
39
2
10
573.570550
20
130.883015
11
573.781548
21
131.693790
0
LINE
8
boundary
62
5
39
2
10
573.781548
20
131.693790
11
574.017075
21
132.564212
0
LINE
8
boundary
62
5
39
2
10
574.017075
20
132.564212
11
576.483697
21
141.436475
0
LINE
8
boundary
62
5
39
2
10
576.483697
20
141.436475
11
576.800873
21
142.724256
0
LINE
8
boundary
62
5
39
2
10
576.800873
20
142.724256
11
577.556487
21
145.945688
0
LINE
8
boundary
62
5
39
2
10
577.556487
20
145.945688
11
577.662813
21
146.477841
0
LINE
8
boundary
62
5
39
2
10
577.662813
20
146.477841
11
577.559768
21
147.359827
0
LINE
8
boundary
62
5
39
2
10
577.559768
20
147.359827
11
492.463778
21
198.050327
0
LINE
8
boundary
62
5
39
2
10
492.463778
20
198.050327
11
494.739098
21
201.869991
0
LINE
8
boundary
62
5
39
2
10
494.739098
20
201.869991
11
577.904585
21
152.329466
0
LINE
8
boundary
62
5
39
2
10
577.904585
20
152.329466
11
578.729221
21
152.658844
0
LINE
8
boundary
62
5
39
2
10
578.729221
20
152.658844
11
579.255764
21
155.844065
0
LINE
8
boundary
62
5
39
2
10
579.255764
20
155.844065
11
579.430271
21
156.897728
0
LINE
8
boundary
62
5
39
2
10
579.430271
20
156.897728
11
579.535598
21
157.629604
0
LINE
8
boundary
62
5
39
2
10
579.535598
20
157.629604
11
580.349752
21
166.144292
0
LINE
8
boundary
62
5
39
2
10
580.349752
20
166.144292
11
580.472555
21
167.329026
0
LINE
8
boundary
62
5
39
2
10
580.472555
20
167.329026
11
580.612139
21
169.201980
0
LINE
8
boundary
62
5
39
2
10
580.612139
20
169.201980
11
580.835881
21
173.159572
0
LINE
8
boundary
62
5
39
2
10
580.835881
20
173.159572
11
580.886028
21
173.971156
0
LINE
8
boundary
62
5
39
2
10
580.886028
20
173.971156
11
581.042035
21
176.315149
0
LINE
8
boundary
62
5
39
2
10
581.042035
20
176.315149
11
581.106840
21
177.570164
0
LINE
8
boundary
62
5
39
2
10
581.106840
20
177.570164
11
581.137335
21
178.327433
0
LINE
8
boundary
62
5
39
2
10
581.137335
20
178.327433
11
581.160795
21
178.959332
0
LINE
8
boundary
62
5
39
2
10
581.160795
20
178.959332
11
581.328493
21
184.466644
0
LINE
8
boundary
62
5
39
2
10
581.328493
20
184.466644
11
581.357068
21
185.682828
0
LINE
8
boundary
62
5
39
2
10
581.357068
20
185.682828
11
581.380551
21
188.248491
0
LINE
8
boundary
62
5
39
2
10
581.380551
20
188.248491
11
581.363676
21
189.297242
0
LINE
8
boundary
62
5
39
2
10
581.363676
20
189.297242
11
581.313106
21
190.183786
0
LINE
8
boundary
62
5
39
2
10
581.313106
20
190.183786
11
493.573788
21
249.768188
0
LINE
8
boundary
62
5
39
2
10
493.573788
20
249.768188
11
496.071573
21
253.446230
0
LINE
8
boundary
62
5
39
2
10
496.071573
20
253.446230
11
580.267347
21
196.268272
0
LINE
8
boundary
62
5
39
2
10
580.267347
20
196.268272
11
581.110063
21
196.548179
0
LINE
8
boundary
62
5
39
2
10
581.110063
20
196.548179
11
581.061081
21
197.234050
0
LINE
8
boundary
62
5
39
2
10
581.061081
20
197.234050
11
580.930917
21
199.066699
0
LINE
8
boundary
62
5
39
2
10
580.930917
20
199.066699
11
580.726639
21
201.610848
0
LINE
8
boundary
62
5
39
2
10
580.726639
20
201.610848
11
580.336372
21
205.209255
0
LINE
8
boundary
62
5
39
2
10
580.336372
20
205.209255
11
580.236652
21
205.995174
0
LINE
8
boundary
62
5
39
2
10
580.236652
20
205.995174
11
579.988873
21
208.087915
0
LINE
8
boundary
62
5
39
2
10
579.988873
20
208.087915
11
579.881914
21
208.882937
0
LINE
8
boundary
62
5
39
2
10
579.881914
20
208.882937
11
579.760217
21
209.720138
0
LINE
8
boundary
62
5
39
2
10
579.760217
20
209.720138
11
579.309755
21
212.995054
0
LINE
8
boundary
62
5
39
2
10
579.309755
20
212.995054
11
579.224733
21
213.613756
0
LINE
8
boundary
62
5
39
2
10
579.224733
20
213.613756
11
578.664401
21
217.358908
0
LINE
8
boundary
62
5
39
2
10
578.664401
20
217.358908
11
578.360420
21
219.407625
0
LINE
8
boundary
62
5
39
2
10
578.360420
20
219.407625
11
578.227166
21
220.225068
0
LINE
8
boundary
62
5
39
2
10
578.227166
20
220.225068
11
577.680612
21
223.646498
0
LINE
8
boundary
62
5
39
2
10
577.680612
20
223.646498
11
577.548579
21
224.488735
0
LINE
8
boundary
62
5
39
2
10
577.548579
20
224.488735
11
576.703600
21
229.498095
0
LINE
8
boundary
62
5
39
2
10
576.703600
20
229.498095
11
576.100476
21
232.732470
0
LINE
8
boundary
62
5
39
2
10
576.100476
20
232.732470
11
575.842753
21
234.183969
0
LINE
8
boundary
62
5
39
2
10
575.842753
20
234.183969
11
575.632109
21
235.236238
0
LINE
8
boundary
62
5
39
2
10
575.632109
20
235.236238
11
575.413853
21
236.326536
0
LINE
8
boundary
62
5
39
2
10
575.413853
20
236.326536
11
511.178961
21
288.961800
0
LINE
8
boundary
62
5
39
2
10
511.178961
20
288.961800
11
513.996883
21
292.400729
0
LINE
8
boundary
62
5
39
2
10
513.996883
20
292.400729
11
572.862246
21
244.165356
0
LINE
8
boundary
62
5
39
2
10
572.862246
20
244.165356
11
573.726689
21
244.368471
0
LINE
8
boundary
62
5
39
2
10
573.726689
20
244.368471
11
571.921738
21
251.677786
0
LINE
8
boundary
62
5
39
2
10
571.921738
20
251.677786
11
571.454030
21
253.412415
0
LINE
8
boundary
62
5
39
2
10
571.454030
20
253.412415
11
570.907474
21
255.192667
0
LINE
8
boundary
62
5
39
2
10
570.907474
20
255.192667
11
569.373076
21
259.945123
0
LINE
8
boundary
62
5
39
2
10
569.373076
20
259.945123
11
567.698208
21
264.150453
0
LINE
8
boundary
62
5
39
2
10
567.698208
20
264.150453
11
566.238625
21
267.965877
0
LINE
8
boundary
62
5
39
2
10
566.238625
20
267.965877
11
565.320983
21
269.888289
0
LINE
8
boundary
62
5
39
2
10
565.320983
20
269.888289
11
564.359851
21
271.761072
0
LINE
8
boundary
62
5
39
2
10
564.359851
20
271.761072
11
562.315793
21
275.684336
0
LINE
8
boundary
62
5
39
2
10
562.315793
20
275.684336
11
561.583442
21
276.879145
0
LINE
8
boundary
62
5
39
2
10
561.583442
20
276.879145
11
558.017186
21
282.124887
0
LINE
8
boundary
62
5
39
2
10
558.017186
20
282.124887
11
557.328934
21
283.110146
0
LINE
8
boundary
62
5
39
2
10
557.328934
20
283.110146
11
556.910780
21
283.653094
0
LINE
8
boundary
62
5
39
2
10
556.910780
20
283.653094
11
556.305794
21
284.373202
0
LINE
8
boundary
62
5
39
2
10
556.305794
20
284.373202
11
555.420660
21
285.458053
0
LINE
8
boundary
62
5
39
2
10
555.420660
20
285.458053
11
554.133047
21
286.791117
0
LINE
8
boundary
62
5
39
2
10
554.133047
20
286.791117
11
551.492815
21
290.198249
0
LINE
8
boundary
62
5
39
2
10
551.492815
20
290.198249
11
549.723611
21
292.137060
0
LINE
8
boundary
62
5
39
2
10
549.723611
20
292.137060
11
547.609832
21
294.376444
0
LINE
8
boundary
62
5
39
2
10
547.609832
20
294.376444
11
545.236825
21
296.845599
0
LINE
8
boundary
62
5
39
2
10
545.236825
20
296.845599
11
539.134920
21
302.514982
0
LINE
8
boundary
62
5
39
2
10
539.134920
20
302.514982
11
538.334363
21
303.267501
0
LINE
8
boundary
62
5
39
2
10
538.334363
20
303.267501
11
534.160987
21
306.669479
0
LINE
8
boundary
62
5
39
2
10
534.160987
20
306.669479
11
533.313427
21
307.361730
0
LINE
8
boundary
62
5
39
2
10
533.313427
20
307.361730
11
532.838806
21
307.750522
0
LINE
8
boundary
62
5
39
2
10
532.838806
20
307.750522
11
531.894968
21
308.542201
0
LINE
8
boundary
62
5
39
2
10
531.894968
20
308.542201
11
531.182200
21
309.097617
0
LINE
8
boundary
62
5
39
2
10
531.182200
20
309.097617
11
529.795224
21
310.107105
0
LINE
8
boundary
62
5
39
2
10
529.795224
20
310.107105
11
525.549833
21
313.139574
0
LINE
8
boundary
62
5
39
2
10
525.549833
20
313.139574
11
524.669867
21
313.728604
0
LINE
8
boundary
62
5
39
2
10
524.669867
20
313.728604
11
523.803961
21
314.316533
0
LINE
8
boundary
62
5
39
2
10
523.803961
20
314.316533
11
522.324422
21
315.267716
0
LINE
8
boundary
62
5
39
2
10
522.324422
20
315.267716
11
521.293904
21
315.937341
0
LINE
8
boundary
62
5
39
2
10
521.293904
20
315.937341
11
520.539892
21
316.374559
0
LINE
8
boundary
62
5
39
2
10
520.539892
20
316.374559
11
519.564509
21
317.001449
0
LINE
8
boundary
62
5
39
2
10
519.564509
20
317.001449
11
516.224401
21
319.083643
0
LINE
8
boundary
62
5
39
2
10
516.224401
20
319.083643
11
512.646971
21
321.043711
0
LINE
8
boundary
62
5
39
2
10
512.646971
20
321.043711
11
511.576563
21
321.607822
0
LINE
8
boundary
62
5
39
2
10
511.576563
20
321.607822
11
510.913074
21
321.999544
0
LINE
8
boundary
62
5
39
2
10
510.913074
20
321.999544
11
509.604694
21
322.697899
0
LINE
8
boundary
62
5
39
2
10
509.604694
20
322.697899
11
508.643699
21
323.225205
0
LINE
8
boundary
62
5
39
2
10
508.643699
20
323.225205
11
507.400935
21
323.880756
0
LINE
8
boundary
62
5
39
2
10
507.400935
20
323.880756
11
506.591895
21
324.327073
0
LINE
8
boundary
62
5
39
2
10
506.591895
20
324.327073
11
502.983334
21
326.206825
0
LINE
8
boundary
62
5
39
2
10
502.983334
20
326.206825
11
501.107655
21
327.165221
0
LINE
8
boundary
62
5
39
2
10
501.107655
20
327.165221
11
498.546885
21
328.322271
0
LINE
8
boundary
62
5
39
2
10
498.546885
20
328.322271
11
497.737775
21
328.680950
0
LINE
8
boundary
62
5
39
2
10
497.737775
20
328.680950
11
496.778282
21
329.158641
0
LINE
8
boundary
62
5
39
2
10
496.778282
20
329.158641
11
496.201128
21
329.420186
0
LINE
8
boundary
62
5
39
2
10
496.201128
20
329.420186
11
493.703362
21
330.605407
0
LINE
8
boundary
62
5
39
2
10
493.703362
20
330.605407
11
491.416512
21
331.619937
0
LINE
8
boundary
62
5
39
2
10
491.416512
20
331.619937
11
488.429007
21
333.030282
0
LINE
8
boundary
62
5
39
2
10
488.429007
20
333.030282
11
486.439367
21
333.854550
0
LINE
8
boundary
62
5
39
2
10
486.439367
20
333.854550
11
484.236309
21
334.676768
0
LINE
8
boundary
62
5
39
2
10
484.236309
20
334.676768
11
482.590146
21
335.328504
0
LINE
8
boundary
62
5
39
2
10
482.590146
20
335.328504
11
481.942281
21
335.556077
0
LINE
8
boundary
62
5
39
2
10
481.942281
20
335.556077
11
479.358731
21
336.494455
0
LINE
8
boundary
62
5
39
2
10
479.358731
20
336.494455
11
478.550951
21
336.749475
0
LINE
8
boundary
62
5
39
2
10
478.550951
20
336.749475
11
476.904906
21
337.288776
0
LINE
8
boundary
62
5
39
2
10
476.904906
20
337.288776
11
472.354313
21
338.708321
0
LINE
8
boundary
62
5
39
2
10
472.354313
20
338.708321
11
469.427237
21
339.385158
0
LINE
8
boundary
62
5
39
2
10
469.427237
20
339.385158
11
465.704044
21
340.212058
0
LINE
8
boundary
62
5
39
2
10
465.704044
20
340.212058
11
461.798562
21
340.817373
0
LINE
8
boundary
62
5
39
2
10
461.798562
20
340.817373
11
458.934239
21
341.237774
0
LINE
8
boundary
62
5
39
2
10
458.934239
20
341.237774
11
454.045805
21
341.386031
0
LINE
8
boundary
62
5
39
2
10
454.045805
20
341.386031
11
452.629178
21
341.418594
0
LINE
8
boundary
62
5
39
2
10
452.629178
20
341.418594
11
447.843105
21
340.993645
0
LINE
8
boundary
62
5
39
2
10
447.843105
20
340.993645
11
446.586578
21
340.896464
0
LINE
8
boundary
62
5
39
2
10
446.586578
20
340.896464
11
445.446124
21
340.661594
0
LINE
8
boundary
62
5
39
2
10
445.446124
20
340.661594
11
440.825513
21
339.821141
0
LINE
8
boundary
62
5
39
2
10
440.825513
20
339.821141
11
438.465994
21
339.175063
0
LINE
8
boundary
62
5
39
2
10
438.465994
20
339.175063
11
435.260126
21
338.496465
0
LINE
8
boundary
62
5
39
2
10
435.260126
20
338.496465
11
430.843384
21
336.734389
0
LINE
8
boundary
62
5
39
2
10
430.843384
20
336.734389
11
430.197123
21
336.526441
0
LINE
8
boundary
62
5
39
2
10
430.197123
20
336.526441
11
429.034620
21
336.011575
0
LINE
8
boundary
62
5
39
2
10
429.034620
20
336.011575
11
423.541668
21
333.170575
0
LINE
8
boundary
62
5
39
2
10
423.541668
20
333.170575
11
421.077459
21
331.741038
0
LINE
8
boundary
62
5
39
2
10
421.077459
20
331.741038
11
419.595353
21
330.670997
0
LINE
8
boundary
62
5
39
2
10
419.595353
20
330.670997
11
418.041637
21
329.383888
0
LINE
8
boundary
62
5
39
2
10
418.041637
20
329.383888
11
417.212831
21
328.732562
0
LINE
8
boundary
62
5
39
2
10
417.212831
20
328.732562
11
416.642706
21
328.009454
0
LINE
8
boundary
62
5
39
2
10
416.642706
20
328.009454
11
415.269919
21
326.702077
0
LINE
8
boundary
62
5
39
2
10
415.269919
20
326.702077
11
413.953902
21
325.217328
0
LINE
8
boundary
62
5
39
2
10
413.953902
20
325.217328
11
411.900202
21
322.215599
0
LINE
8
boundary
62
5
39
2
10
411.900202
20
322.215599
11
411.426180
21
321.564018
0
LINE
8
boundary
62
5
39
2
10
411.426180
20
321.564018
11
410.728030
21
319.764260
0
LINE
8
boundary
62
5
39
2
10
410.728030
20
319.764260
11
409.390784
21
316.813533
0
LINE
8
boundary
62
5
39
2
10
409.390784
20
316.813533
11
408.813821
21
314.836639
0
LINE
8
boundary
62
5
39
2
10
408.813821
20
314.836639
11
408.012314
21
311.995691
0
LINE
8
boundary
62
5
39
2
10
408.012314
20
311.995691
11
407.552349
21
307.355482
0
LINE
8
boundary
62
5
39
2
10
407.552349
20
307.355482
11
407.471882
21
306.593501
0
LINE
8
boundary
62
5
39
2
10
407.471882
20
306.593501
11
407.434164
21
304.303066
0
LINE
8
boundary
62
5
39
2
10
407.434164
20
304.303066
11
407.463354
21
299.353296
0
LINE
8
boundary
62
5
39
2
10
407.463354
20
299.353296
11
407.533862
21
297.918592
0
LINE
8
boundary
62
5
39
2
10
407.533862
20
297.918592
11
407.585429
21
295.135164
0
LINE
8
boundary
62
5
39
2
10
407.585429
20
295.135164
11
407.679208
21
293.442898
0
LINE
8
boundary
62
5
39
2
10
407.679208
20
293.442898
11
407.765489
21
292.371975
0
LINE
8
boundary
62
5
39
2
10
407.765489
20
292.371975
11
407.717410
21
289.309655
0
LINE
8
boundary
62
5
39
2
10
407.717410
20
289.309655
11
408.134274
21
284.803591
0
LINE
8
boundary
62
5
39
2
10
408.134274
20
284.803591
11
408.144376
21
283.286330
0
LINE
8
boundary
62
5
39
2
10
408.144376
20
283.286330
11
408.275968
21
278.048861
0
LINE
8
boundary
62
5
39
2
10
408.275968
20
278.048861
11
408.308448
21
277.166751
0
LINE
8
boundary
62
5
39
2
10
408.308448
20
277.166751
11
408.340156
21
271.459422
0
LINE
8
boundary
62
5
39
2
10
408.340156
20
271.459422
11
408.304997
21
269.479130
0
LINE
8
boundary
62
5
39
2
10
408.304997
20
269.479130
11
408.558570
21
263.301891
0
LINE
8
boundary
62
5
39
2
10
408.558570
20
263.301891
11
408.732586
21
261.875686
0
LINE
8
boundary
62
5
39
2
10
408.732586
20
261.875686
11
408.817966
21
259.449118
0
LINE
8
boundary
62
5
39
2
10
408.817966
20
259.449118
11
409.046113
21
255.558036
0
LINE
8
boundary
62
5
39
2
10
409.046113
20
255.558036
11
409.084443
21
254.555270
0
LINE
8
boundary
62
5
39
2
10
409.084443
20
254.555270
11
409.078661
21
253.426756
0
LINE
8
boundary
62
5
39
2
10
409.078661
20
253.426756
11
409.123414
21
250.814174
0
LINE
8
boundary
62
5
39
2
10
409.123414
20
250.814174
11
409.190492
21
247.471680
0
LINE
8
boundary
62
5
39
2
10
409.190492
20
247.471680
11
409.103998
21
244.780665
0
LINE
8
boundary
62
5
39
2
10
409.103998
20
244.780665
11
408.990611
21
242.336708
0
LINE
8
boundary
62
5
39
2
10
408.990611
20
242.336708
11
408.856902
21
239.275332
0
LINE
8
boundary
62
5
39
2
10
408.856902
20
239.275332
11
408.780936
21
237.604447
0
LINE
8
boundary
62
5
39
2
10
408.780936
20
237.604447
11
408.667971
21
235.900220
0
LINE
8
boundary
62
5
39
2
10
408.667971
20
235.900220
11
408.484208
21
233.710350
0
LINE
8
boundary
62
5
39
2
10
408.484208
20
233.710350
11
408.327025
21
231.983653
0
LINE
8
boundary
62
5
39
2
10
408.327025
20
231.983653
11
408.263392
21
231.399797
0
LINE
8
boundary
62
5
39
2
10
408.263392
20
231.399797
11
408.116264
21
230.256213
0
LINE
8
boundary
62
5
39
2
10
408.116264
20
230.256213
11
407.773289
21
226.639184
0
LINE
8
boundary
62
5
39
2
10
407.773289
20
226.639184
11
407.559571
21
224.598439
0
LINE
8
boundary
62
5
39
2
10
407.559571
20
224.598439
11
407.468460
21
223.947380
0
LINE
8
boundary
62
5
39
2
10
407.468460
20
223.947380
11
406.770286
21
218.993800
0
LINE
8
boundary
62
5
39
2
10
406.770286
20
218.993800
11
406.544326
21
216.523329
0
LINE
8
boundary
62
5
39
2
10
406.544326
20
216.523329
11
406.458531
21
215.376247
0
LINE
8
boundary
62
5
39
2
10
406.458531
20
215.376247
11
406.221378
21
213.166401
0
LINE
8
boundary
62
5
39
2
10
406.221378
20
213.166401
11
406.122785
21
212.209020
0
LINE
8
boundary
62
5
39
2
10
406.122785
20
212.209020
11
405.968174
21
210.950979
0
LINE
8
boundary
62
5
39
2
10
405.968174
20
210.950979
11
405.848739
21
209.923089
0
LINE
8
boundary
62
5
39
2
10
405.848739
20
209.923089
11
405.268499
21
203.326192
0
LINE
8
boundary
62
5
39
2
10
405.268499
20
203.326192
11
405.166155
21
202.398491
0
LINE
8
boundary
62
5
39
2
10
405.166155
20
202.398491
11
405.059472
21
201.579941
0
LINE
8
boundary
62
5
39
2
10
405.059472
20
201.579941
11
405.018710
21
201.072226
0
LINE
8
boundary
62
5
39
2
10
405.018710
20
201.072226
11
404.835764
21
198.071494
0
LINE
8
boundary
62
5
39
2
10
404.835764
20
198.071494
11
404.559007
21
193.970699
0
LINE
8
boundary
62
5
39
2
10
404.559007
20
193.970699
11
404.549689
21
193.153403
0
LINE
8
boundary
62
5
39
2
10
404.549689
20
193.153403
11
404.205150
21
187.788680
0
LINE
8
boundary
62
5
39
2
10
404.205150
20
187.788680
11
404.106730
21
186.255328
0
LINE
8
boundary
62
5
39
2
10
404.106730
20
186.255328
11
403.703943
21
180.648142
0
LINE
8
boundary
62
5
39
2
10
403.703943
20
180.648142
11
403.676247
21
178.442684
0
LINE
8
boundary
62
5
39
2
10
403.676247
20
178.442684
11
403.629357
21
176.045979
0
LINE
8
boundary
62
5
39
2
10
403.629357
20
176.045979
11
403.387248
21
173.061144
0
LINE
8
boundary
62
5
39
2
10
403.387248
20
173.061144
11
403.167099
21
170.566494
0
LINE
8
boundary
62
5
39
2
10
403.167099
20
170.566494
11
402.603008
21
165.215002
0
LINE
8
boundary
62
5
39
2
10
402.603008
20
165.215002
11
402.470961
21
162.670956
0
LINE
8
boundary
62
5
39
2
10
402.470961
20
162.670956
11
402.315310
21
160.278581
0
LINE
8
boundary
62
5
39
2
10
402.315310
20
160.278581
11
401.963101
21
156.998199
0
LINE
8
boundary
62
5
39
2
10
401.963101
20
156.998199
11
401.738691
21
154.753347
0
LINE
8
boundary
62
5
39
2
10
401.738691
20
154.753347
11
401.203767
21
148.466259
0
LINE
8
boundary
62
5
39
2
10
401.203767
20
148.466259
11
401.156541
21
146.791352
0
LINE
8
boundary
62
5
39
2
10
401.156541
20
146.791352
11
401.137357
21
145.389426
0
LINE
8
boundary
62
5
39
2
10
401.137357
20
145.389426
11
400.835372
21
139.518773
0
LINE
8
boundary
62
5
39
2
10
400.835372
20
139.518773
11
400.823620
21
138.753280
0
LINE
8
boundary
62
5
39
2
10
400.823620
20
138.753280
11
400.880594
21
133.767632
0
LINE
8
boundary
62
5
39
2
10
400.880594
20
133.767632
11
400.879583
21
130.991408
0
LINE
8
boundary
62
5
39
2
10
400.879583
20
130.991408
11
400.909860
21
130.086561
0
LINE
8
boundary
62
5
39
2
10
400.909860
20
130.086561
11
401.516778
21
121.748974
0
LINE
8
boundary
62
5
39
2
10
401.516778
20
121.748974
11
401.688889
21
120.323371
0
LINE
8
boundary
62
5
39
2
10
401.688889
20
120.323371
11
402.195203
21
116.961110
0
LINE
8
boundary
62
5
39
2
10
402.195203
20
116.961110
11
402.318135
21
116.200622
0
LINE
8
boundary
62
5
39
2
10
402.318135
20
116.200622
11
402.526812
21
115.210878
0
LINE
8
boundary
62
5
39
2
10
402.526812
20
115.210878
11
403.351370
21
112.301521
0
LINE
8
boundary
62
5
39
2
10
403.351370
20
112.301521
11
403.815504
21
110.210752
0
LINE
8
boundary
62
5
39
2
10
403.815504
20
110.210752
11
404.356838
21
108.255773
0
LINE
8
boundary
62
5
39
2
10
404.356838
20
108.255773
11
404.702139
21
106.821402
0
LINE
8
boundary
62
5
39
2
10
404.702139
20
106.821402
11
405.081756
21
104.949772
0
LINE
8
boundary
62
5
39
2
10
405.081756
20
104.949772
11
405.580962
21
103.398993
0
LINE
8
boundary
62
5
39
2
10
405.580962
20
103.398993
11
407.017465
21
99.200515
0
LINE
8
boundary
62
5
39
2
10
407.017465
20
99.200515
11
407.430729
21
98.119984
0
LINE
8
boundary
62
5
39
2
10
407.430729
20
98.119984
11
409.689118
21
93.185205
0
LINE
8
boundary
62
5
39
2
10
409.689118
20
93.185205
11
410.953961
21
90.430907
0
LINE
8
boundary
62
5
39
2
10
410.953961
20
90.430907
11
411.298297
21
89.749996
0
LINE
8
boundary
62
5
39
2
10
411.298297
20
89.749996
11
411.630564
21
89.139977
0
LINE
8
boundary
62
5
39
2
10
411.630564
20
89.139977
11
411.939051
21
88.595158
0
LINE
8
boundary
62
5
39
2
10
411.939051
20
88.595158
11
412.751013
21
87.223186
0
LINE
8
boundary
62
5
39
2
10
412.751013
20
87.223186
11
416.427472
21
80.997515
0
LINE
8
boundary
62
5
39
2
10
416.427472
20
80.997515
11
418.125124
21
78.345254
0
LINE
8
boundary
62
5
39
2
10
418.125124
20
78.345254
11
419.440709
21
76.383119
0
LINE
8
boundary
62
5
39
2
10
419.440709
20
76.383119
11
420.749090
21
74.525398
0
LINE
8
boundary
62
5
39
2
10
420.749090
20
74.525398
11
422.166665
21
72.699178
0
LINE
8
boundary
62
5
39
2
10
422.166665
20
72.699178
11
425.967093
21
67.075637
0
LINE
8
boundary
62
5
39
2
10
425.967093
20
67.075637
11
430.210265
21
61.485437
0
LINE
8
boundary
62
5
39
2
10
430.210265
20
61.485437
11
432.299701
21
58.800588
0
LINE
8
boundary
62
5
39
2
10
432.299701
20
58.800588
11
434.293920
21
56.244381
0
LINE
8
boundary
62
5
39
2
10
434.293920
20
56.244381
11
434.675064
21
55.763474
0
LINE
8
boundary
62
5
39
2
10
434.675064
20
55.763474
11
435.890702
21
54.289044
0
LINE
8
boundary
62
5
39
2
10
435.890702
20
54.289044
11
436.764158
21
53.246123
0
LINE
8
boundary
62
5
39
2
10
436.764158
20
53.246123
11
437.428442
21
52.506240
0
LINE
8
boundary
62
5
39
2
10
437.428442
20
52.506240
11
441.546503
21
47.557759
0
LINE
8
boundary
62
5
39
2
10
441.546503
20
47.557759
11
442.901988
21
45.921361
0
LINE
8
boundary
62
5
39
2
10
442.901988
20
45.921361
11
443.508222
21
45.265924
0
LINE
8
boundary
62
5
39
2
10
443.508222
20
45.265924
11
444.998747
21
43.533644
0
LINE
8
boundary
62
5
39
2
10
444.998747
20
43.533644
11
449.935362
21
38.086555
0
LINE
8
boundary
62
5
39
2
10
449.935362
20
38.086555
11
451.902003
21
35.893562
0
LINE
8
boundary
62
5
39
2
10
451.902003
20
35.893562
11
456.441218
21
31.004499
0
LINE
8
boundary
62
5
39
2
10
456.441218
20
31.004499
11
461.437140
21
26.084942
0
LINE
8
boundary
62
5
39
2
10
461.437140
20
26.084942
11
462.750883
21
24.819175
0
LINE
8
boundary
62
5
39
2
10
462.750883
20
24.819175
11
463.722950
21
23.903028
0
LINE
8
boundary
62
5
39
2
10
463.722950
20
23.903028
11
466.511433
21
21.325860
0
LINE
8
boundary
62
5
39
2
10
466.511433
20
21.325860
11
469.748394
21
18.418698
0
LINE
8
boundary
62
5
39
2
10
469.748394
20
18.418698
11
471.220417
21
17.166018
0
LINE
8
boundary
62
5
39
2
10
471.220417
20
17.166018
11
471.823855
21
16.637492
0
LINE
8
boundary
62
5
39
2
10
471.823855
20
16.637492
11
472.460294
21
16.195917
0
LINE
8
annotation
62
1
39
211
10
460.139228
20
43.287376
11
463.734958
21
49.892005
0
LINE
8
annotation
62
1
39
211
10
463.734958
20
49.892005
11
461.467062
21
49.222674
0
LINE
8
annotation
62
1
39
211
10
467.522325
20
98.007018
11
464.590680
21
99.606954
0
LINE
8
annotation
62
1
39
211
10
464.590680
20
99.606954
11
469.679640
21
102.489601
0
LINE
8
annotation
62
1
39
211
10
469.679640
20
102.489601
11
469.679640
21
102.489601
0
LINE
8
annotation
62
1
39
211
10
469.679640
20
102.489601
11
469.685066
21
102.491841
0
LINE
8
annotation
62
1
39
211
10
469.685066
20
102.491841
11
469.690377
21
102.494188
0
LINE
8
annotation
62
1
39
211
10
469.690377
20
102.494188
11
469.695613
21
102.496664
0
LINE
8
annotation
62
1
39
211
10
469.695613
20
102.496664
11
469.700812
21
102.499292
0
LINE
8
annotation
62
1
39
211
10
469.700812
20
102.499292
11
469.706015
21
102.502096
0
LINE
8
annotation
62
1
39
211
10
469.706015
20
102.502096
11
469.711259
21
102.505098
0
LINE
8
annotation
62
1
39
211
10
469.711259
20
102.505098
11
469.716584
21
102.508321
0
LINE
8
annotation
62
1
39
211
10
469.716584
20
102.508321
11
469.722029
21
102.511788
0
LINE
8
annotation
62
1
39
211
10
469.722029
20
102.511788
11
469.727634
21
102.515522
0
LINE
8
annotation
62
1
39
211
10
469.727634
20
102.515522
11
469.727634
21
102.515522
0
LINE
8
annotation
62
1
39
211
10
469.727634
20
102.515522
11
469.970548
21
102.694634
0
LINE
8
annotation
62
1
39
211
10
469.970548
20
102.694634
11
470.171749
21
102.907915
0
LINE
8
annotation
62
1
39
211
10
470.171749
20
102.907915
11
470.329766
21
103.148867
0
LINE
8
annotation
62
1
39
211
10
470.329766
20
103.148867
11
470.443133
21
103.410990
0
LINE
8
annotation
62
1
39
211
10
470.443133
20
103.410990
11
470.510379
21
103.687785
0
LINE
8
annotation
62
1
39
211
10
470.510379
20
103.687785
11
470.530037
21
103.972754
0
LINE
8
annotation
62
1
39
211
10
470.530037
20
103.972754
11
470.500637
21
104.259397
0
LINE
8
annotation
62
1
39
211
10
470.500637
20
104.259397
11
470.420712
21
104.541216
0
LINE
8
annotation
62
1
39
211
10
470.420712
20
104.541216
11
470.288793
21
104.811711
0
LINE
8
annotation
62
1
39
211
10
470.288793
20
104.811711
11
470.288793
21
104.811711
0
LINE
8
annotation
62
1
39
211
10
470.288793
20
104.811711
11
470.108146
21
105.053401
0
LINE
8
annotation
62
1
39
211
10
470.108146
20
105.053401
11
469.893934
21
105.253803
0
LINE
8
annotation
62
1
39
211
10
469.893934
20
105.253803
11
469.652521
21
105.411323
0
LINE
8
annotation
62
1
39
211
10
469.652521
20
105.411323
11
469.390271
21
105.524367
0
LINE
8
annotation
62
1
39
211
10
469.390271
20
105.524367
11
469.113548
21
105.591342
0
LINE
8
annotation
62
1
39
211
10
469.113548
20
105.591342
11
468.828717
21
105.610652
0
LINE
8
annotation
62
1
39
211
10
468.828717
20
105.610652
11
468.542142
21
105.580705
0
LINE
8
annotation
62
1
39
211
10
468.542142
20
105.580705
11
468.260187
21
105.499906
0
LINE
8
annotation
62
1
39
211
10
468.260187
20
105.499906
11
467.989216
21
105.366662
0
LINE
8
annotation
62
1
39
211
10
467.989216
20
105.366662
11
467.595208
21
105.102462
0
LINE
8
annotation
62
1
39
211
10
479.292238
20
149.709283
11
480.754178
21
148.902239
0
LINE
8
annotation
62
1
39
211
10
480.754178
20
148.902239
11
480.754178
21
148.902239
0
LINE
8
annotation
62
1
39
211
10
480.754178
20
148.902239
11
481.030132
21
148.780677
0
LINE
8
annotation
62
1
39
211
10
481.030132
20
148.780677
11
481.315070
21
148.712076
0
LINE
8
annotation
62
1
39
211
10
481.315070
20
148.712076
11
481.602573
21
148.694535
0
LINE
8
annotation
62
1
39
211
10
481.602573
20
148.694535
11
481.886222
21
148.726151
0
LINE
8
annotation
62
1
39
211
10
481.886222
20
148.726151
11
482.159600
21
148.805025
0
LINE
8
annotation
62
1
39
211
10
482.159600
20
148.805025
11
482.416287
21
148.929255
0
LINE
8
annotation
62
1
39
211
10
482.416287
20
148.929255
11
482.649866
21
149.096940
0
LINE
8
annotation
62
1
39
211
10
482.649866
20
149.096940
11
482.853916
21
149.306179
0
LINE
8
annotation
62
1
39
211
10
482.853916
20
149.306179
11
483.022021
21
149.555071
0
LINE
8
annotation
62
1
39
211
10
483.022021
20
149.555071
11
483.426112
21
150.287073
0
LINE
8
annotation
62
1
39
211
10
483.426112
20
150.287073
11
483.426112
21
150.287073
0
LINE
8
annotation
62
1
39
211
10
483.426112
20
150.287073
11
483.547087
21
150.561840
0
LINE
8
annotation
62
1
39
211
10
483.547087
20
150.561840
11
483.615380
21
150.845947
0
LINE
8
annotation
62
1
39
211
10
483.615380
20
150.845947
11
483.632799
21
151.132937
0
LINE
8
annotation
62
1
39
211
10
483.632799
20
151.132937
11
483.601150
21
151.416357
0
LINE
8
annotation
62
1
39
211
10
483.601150
20
151.416357
11
483.522237
21
151.689752
0
LINE
8
annotation
62
1
39
211
10
483.522237
20
151.689752
11
483.397868
21
151.946668
0
LINE
8
annotation
62
1
39
211
10
483.397868
20
151.946668
11
483.229848
21
152.180649
0
LINE
8
annotation
62
1
39
211
10
483.229848
20
152.180649
11
483.019982
21
152.385242
0
LINE
8
annotation
62
1
39
211
10
483.019982
20
152.385242
11
482.770077
21
152.553991
0
LINE
8
annotation
62
1
39
211
10
482.770077
20
152.553991
11
482.038075
21
152.958083
0
LINE
8
annotation
62
1
39
211
10
482.038075
20
152.958083
11
482.770077
21
152.553991
0
LINE
8
annotation
62
1
39
211
10
482.770077
20
152.553991
11
482.770077
21
152.553991
0
LINE
8
annotation
62
1
39
211
10
482.770077
20
152.553991
11
483.046042
21
152.432449
0
LINE
8
annotation
62
1
39
211
10
483.046042
20
152.432449
11
483.331020
21
152.363921
0
LINE
8
annotation
62
1
39
211
10
483.331020
20
152.363921
11
483.618607
21
152.346531
0
LINE
8
annotation
62
1
39
211
10
483.618607
20
152.346531
11
483.902397
21
152.378402
0
LINE
8
annotation
62
1
39
211
10
483.902397
20
152.378402
11
484.175984
21
152.457655
0
LINE
8
annotation
62
1
39
211
10
484.175984
20
152.457655
11
484.432963
21
152.582414
0
LINE
8
annotation
62
1
39
211
10
484.432963
20
152.582414
11
484.666929
21
152.750801
0
LINE
8
annotation
62
1
39
211
10
484.666929
20
152.750801
11
484.871476
21
152.960940
0
LINE
8
annotation
62
1
39
211
10
484.871476
20
152.960940
11
485.040199
21
153.210951
0
LINE
8
annotation
62
1
39
211
10
485.040199
20
153.210951
11
485.040199
21
153.210951
0
LINE
8
annotation
62
1
39
211
10
485.040199
20
153.210951
11
485.161173
21
153.485719
0
LINE
8
annotation
62
1
39
211
10
485.161173
20
153.485719
11
485.229467
21
153.769825
0
LINE
8
annotation
62
1
39
211
10
485.229467
20
153.769825
11
485.246886
21
154.056816
0
LINE
8
annotation
62
1
39
211
10
485.246886
20
154.056816
11
485.215237
21
154.340236
0
LINE
8
annotation
62
1
39
211
10
485.215237
20
154.340236
11
485.136324
21
154.613631
0
LINE
8
annotation
62
1
39
211
10
485.136324
20
154.613631
11
485.011955
21
154.870547
0
LINE
8
annotation
62
1
39
211
10
485.011955
20
154.870547
11
484.843935
21
155.104528
0
LINE
8
annotation
62
1
39
211
10
484.843935
20
155.104528
11
484.634069
21
155.309121
0
LINE
8
annotation
62
1
39
211
10
484.634069
20
155.309121
11
484.384164
21
155.477870
0
LINE
8
annotation
62
1
39
211
10
484.384164
20
155.477870
11
482.922225
21
156.284913
0
LINE
8
annotation
62
1
39
211
10
486.140702
20
201.973790
11
482.553455
21
204.110664
0
LINE
8
annotation
62
1
39
211
10
482.553455
20
204.110664
11
486.979011
21
208.281600
0
LINE
8
annotation
62
1
39
211
10
484.209850
20
201.178045
11
485.919059
21
204.047357
0
LINE
8
annotation
62
1
39
211
10
483.446652
20
254.787681
11
484.828114
21
253.849520
0
LINE
8
annotation
62
1
39
211
10
484.828114
20
253.849520
11
484.828114
21
253.849520
0
LINE
8
annotation
62
1
39
211
10
484.828114
20
253.849520
11
485.091200
21
253.703431
0
LINE
8
annotation
62
1
39
211
10
485.091200
20
253.703431
11
485.368365
21
253.609117
0
LINE
8
annotation
62
1
39
211
10
485.368365
20
253.609117
11
485.653015
21
253.565337
0
LINE
8
annotation
62
1
39
211
10
485.653015
20
253.565337
11
485.938556
21
253.570850
0
LINE
8
annotation
62
1
39
211
10
485.938556
20
253.570850
11
486.218392
21
253.624415
0
LINE
8
annotation
62
1
39
211
10
486.218392
20
253.624415
11
486.485930
21
253.724791
0
LINE
8
annotation
62
1
39
211
10
486.485930
20
253.724791
11
486.734573
21
253.870738
0
LINE
8
annotation
62
1
39
211
10
486.734573
20
253.870738
11
486.957727
21
254.061015
0
LINE
8
annotation
62
1
39
211
10
486.957727
20
254.061015
11
487.148798
21
254.294381
0
LINE
8
annotation
62
1
39
211
10
487.148798
20
254.294381
11
487.616157
21
254.982577
0
LINE
8
annotation
62
1
39
211
10
487.616157
20
254.982577
11
487.616157
21
254.982577
0
LINE
8
annotation
62
1
39
211
10
487.616157
20
254.982577
11
487.762551
21
255.246108
0
LINE
8
annotation
62
1
39
211
10
487.762551
20
255.246108
11
487.856943
21
255.523356
0
LINE
8
annotation
62
1
39
211
10
487.856943
20
255.523356
11
487.900642
21
255.807800
0
LINE
8
annotation
62
1
39
211
10
487.900642
20
255.807800
11
487.894956
21
256.092915
0
LINE
8
annotation
62
1
39
211
10
487.894956
20
256.092915
11
487.841193
21
256.372178
0
LINE
8
annotation
62
1
39
211
10
487.841193
20
256.372178
11
487.740660
21
256.639067
0
LINE
8
annotation
62
1
39
211
10
487.740660
20
256.639067
11
487.594667
21
256.887057
0
LINE
8
annotation
62
1
39
211
10
487.594667
20
256.887057
11
487.404521
21
257.109626
0
LINE
8
annotation
62
1
39
211
10
487.404521
20
257.109626
11
487.171531
21
257.300250
0
LINE
8
annotation
62
1
39
211
10
487.171531
20
257.300250
11
485.790068
21
258.238412
0
LINE
8
annotation
62
1
39
211
10
485.790068
20
258.238412
11
487.671424
21
261.008750
0
LINE
8
annotation
62
1
39
211
10
487.671424
20
261.008750
11
490.434350
21
259.132427
0
LINE
8
annotation
62
1
39
211
10
508.249860
20
299.097048
11
508.249860
21
299.097048
0
LINE
8
annotation
62
1
39
211
10
508.249860
20
299.097048
11
507.766150
21
299.261517
0
LINE
8
annotation
62
1
39
211
10
507.766150
20
299.261517
11
507.273427
21
299.352816
0
LINE
8
annotation
62
1
39
211
10
507.273427
20
299.352816
11
506.779014
21
299.372773
0
LINE
8
annotation
62
1
39
211
10
506.779014
20
299.372773
11
506.290235
21
299.323215
0
LINE
8
annotation
62
1
39
211
10
506.290235
20
299.323215
11
505.814412
21
299.205970
0
LINE
8
annotation
62
1
39
211
10
505.814412
20
299.205970
11
505.358870
21
299.022865
0
LINE
8
annotation
62
1
39
211
10
505.358870
20
299.022865
11
504.930931
21
298.775726
0
LINE
8
annotation
62
1
39
211
10
504.930931
20
298.775726
11
504.537919
21
298.466382
0
LINE
8
annotation
62
1
39
211
10
504.537919
20
298.466382
11
504.187158
21
298.096660
0
LINE
8
annotation
62
1
39
211
10
504.187158
20
298.096660
11
502.602989
21
296.163376
0
LINE
8
annotation
62
1
39
211
10
502.602989
20
296.163376
11
502.602989
21
296.163376
0
LINE
8
annotation
62
1
39
211
10
502.602989
20
296.163376
11
502.433445
21
295.913931
0
LINE
8
annotation
62
1
39
211
10
502.433445
20
295.913931
11
502.314325
21
295.645951
0
LINE
8
annotation
62
1
39
211
10
502.314325
20
295.645951
11
502.244945
21
295.366111
0
LINE
8
annotation
62
1
39
211
10
502.244945
20
295.366111
11
502.224624
21
295.081087
0
LINE
8
annotation
62
1
39
211
10
502.224624
20
295.081087
11
502.252681
21
294.797555
0
LINE
8
annotation
62
1
39
211
10
502.252681
20
294.797555
11
502.328433
21
294.522190
0
LINE
8
annotation
62
1
39
211
10
502.328433
20
294.522190
11
502.451198
21
294.261669
0
LINE
8
annotation
62
1
39
211
10
502.451198
20
294.261669
11
502.620295
21
294.022667
0
LINE
8
annotation
62
1
39
211
10
502.620295
20
294.022667
11
502.835042
21
293.811860
0
LINE
8
annotation
62
1
39
211
10
502.835042
20
293.811860
11
502.835042
21
293.811860
0
LINE
8
annotation
62
1
39
211
10
502.835042
20
293.811860
11
503.084428
21
293.642348
0
LINE
8
annotation
62
1
39
211
10
503.084428
20
293.642348
11
503.352262
21
293.523321
0
LINE
8
annotation
62
1
39
211
10
503.352262
20
293.523321
11
503.631907
21
293.454099
0
LINE
8
annotation
62
1
39
211
10
503.631907
20
293.454099
11
503.916729
21
293.434002
0
LINE
8
annotation
62
1
39
211
10
503.916729
20
293.434002
11
504.200095
21
293.462350
0
LINE
8
annotation
62
1
39
211
10
504.200095
20
293.462350
11
504.475368
21
293.538460
0
LINE
8
annotation
62
1
39
211
10
504.475368
20
293.538460
11
504.735916
21
293.661654
0
LINE
8
annotation
62
1
39
211
10
504.735916
20
293.661654
11
504.975103
21
293.831250
0
LINE
8
annotation
62
1
39
211
10
504.975103
20
293.831250
11
505.186294
21
294.046568
0
LINE
8
annotation
62
1
39
211
10
505.186294
20
294.046568
11
505.713553
21
294.690023
0
LINE
8
annotation
62
1
39
211
10
505.713553
20
294.690023
11
505.713553
21
294.690023
0
LINE
8
annotation
62
1
39
211
10
505.713553
20
294.690023
11
505.883065
21
294.939306
0
LINE
8
annotation
62
1
39
211
10
505.883065
20
294.939306
11
506.002088
21
295.206862
0
LINE
8
annotation
62
1
39
211
10
506.002088
20
295.206862
11
506.071305
21
295.486105
0
LINE
8
annotation
62
1
39
211
10
506.071305
20
295.486105
11
506.091396
21
295.770452
0
LINE
8
annotation
62
1
39
211
10
506.091396
20
295.770452
11
506.063043
21
296.053316
0
LINE
8
annotation
62
1
39
211
10
506.063043
20
296.053316
11
505.986927
21
296.328113
0
LINE
8
annotation
62
1
39
211
10
505.986927
20
296.328113
11
505.863729
21
296.588259
0
LINE
8
annotation
62
1
39
211
10
505.863729
20
296.588259
11
505.694129
21
296.827168
0
LINE
8
annotation
62
1
39
211
10
505.694129
20
296.827168
11
505.478810
21
297.038256
0
LINE
8
annotation
62
1
39
211
10
505.478810
20
297.038256
11
504.187158
21
298.096660
0
LINE
8
annotation
62
1
39
211
10
500.785831
20
294.275748
11
503.694147
21
291.892620
0
LINE
8
annotation
62
1
39
211
10
439.186236
20
270.786133
11
425.599136
21
270.786133
0
LINE
8
annotation
62
1
39
211
10
425.599136
20
270.786133
11
439.186236
21
295.256418
0
LINE
8
annotation
62
1
39
211
10
439.186236
20
295.256418
11
425.599136
21
295.256418
0
LINE
8
annotation
62
1
39
211
10
461.744829
20
283.021275
11
448.364895
21
283.021275
0
LINE
8
annotation
62
1
39
211
10
484.505985
20
276.226191
11
470.918884
21
276.226191
0
LINE
8
annotation
62
1
39
211
10
470.918884
20
276.226191
11
476.345131
21
295.256418
0
LINE
8
annotation
62
1
39
211
10
480.433231
20
270.786133
11
480.433231
21
281.653972
0
LINE
8
boundary
62
5
39
2
10
157.174438
20
482.931498
11
157.950291
21
482.753368
0
LINE
8
boundary
62
5
39
2
10
157.950291
20
482.753368
11
159.460185
21
482.474971
0
LINE
8
boundary
62
5
39
2
10
159.460185
20
482.474971
11
161.315601
21
482.132866
0
LINE
8
boundary
62
5
39
2
10
161.315601
20
482.132866
11
163.120858
21
481.788540
0
LINE
8
boundary
62
5
39
2
10
163.120858
20
481.788540
11
166.657832
21
481.287842
0
LINE
8
boundary
62
5
39
2
10
166.657832
20
481.287842
11
171.000730
21
480.687922
0
LINE
8
boundary
62
5
39
2
10
171.000730
20
480.687922
11
175.462393
21
480.354828
0
LINE
8
boundary
62
5
39
2
10
175.462393
20
480.354828
11
178.595620
21
480.137221
0
LINE
8
boundary
62
5
39
2
10
178.595620
20
480.137221
11
181.903220
21
480.100260
0
LINE
8
boundary
62
5
39
2
10
181.903220
20
480.100260
11
183.726729
21
480.199394
0
LINE
8
boundary
62
5
39
2
10
183.726729
20
480.199394
11
184.384689
21
480.212073
0
LINE
8
boundary
62
5
39
2
10
184.384689
20
480.212073
11
185.814335
21
480.244375
0
LINE
8
boundary
62
5
39
2
10
185.814335
20
480.244375
11
190.479785
21
480.726764
0
LINE
8
boundary
62
5
39
2
10
190.479785
20
480.726764
11
192.724689
21
480.968945
0
LINE
8
boundary
62
5
39
2
10
192.724689
20
480.968945
11
193.441977
21
481.129089
0
LINE
8
boundary
62
5
39
2
10
193.441977
20
481.129089
11
199.214353
21
482.314187
0
LINE
8
boundary
62
5
39
2
10
199.214353
20
482.314187
11
202.614573
21
483.386094
0
LINE
8
boundary
62
5
39
2
10
202.614573
20
483.386094
11
205.388906
21
484.221775
0
LINE
8
boundary
62
5
39
2
10
205.388906
20
484.221775
11
209.887628
21
486.246179
0
LINE
8
boundary
62
5
39
2
10
209.887628
20
486.246179
11
211.835777
21
487.210058
0
LINE
8
boundary
62
5
39
2
10
211.835777
20
487.210058
11
216.420314
21
489.878431
0
LINE
8
boundary
62
5
39
2
10
216.420314
20
489.878431
11
217.068329
21
490.321401
0
LINE
8
boundary
62
5
39
2
10
217.068329
20
490.321401
11
221.118464
21
493.083859
0
LINE
8
boundary
62
5
39
2
10
221.118464
20
493.083859
11
221.789916
21
493.584766
0
LINE
8
boundary
62
5
39
2
10
221.789916
20
493.584766
11
224.554117
21
495.851086
0
LINE
8
boundary
62
5
39
2
10
224.554117
20
495.851086
11
224.451072
21
496.733072
0
LINE
8
boundary
62
5
39
2
10
224.451072
20
496.733072
11
114.508584
21
562.224284
0
LINE
8
boundary
62
5
39
2
10
114.508584
20
562.224284
11
116.783905
21
566.043949
0
LINE
8
boundary
62
5
39
2
10
116.783905
20
566.043949
11
228.174657
21
499.690024
0
LINE
8
boundary
62
5
39
2
10
228.174657
20
499.690024
11
228.999294
21
500.019403
0
LINE
8
boundary
62
5
39
2
10
228.999294
20
500.019403
11
230.252894
21
501.355865
0
LINE
8
boundary
62
5
39
2
10
230.252894
20
501.355865
11
232.372928
21
503.871274
0
LINE
8
boundary
62
5
39
2
10
232.372928
20
503.871274
11
234.097049
21
506.096710
0
LINE
8
boundary
62
5
39
2
10
234.097049
20
506.096710
11
235.467766
21
508.009968
0
LINE
8
boundary
62
5
39
2
10
235.467766
20
508.009968
11
236.516350
21
509.615286
0
LINE
8
boundary
62
5
39
2
10
236.516350
20
509.615286
11
237.523807
21
511.097844
0
LINE
8
boundary
62
5
39
2
10
237.523807
20
511.097844
11
239.050239
21
513.637743
0
LINE
8
boundary
62
5
39
2
10
239.050239
20
513.637743
11
239.993718
21
515.207732
0
LINE
8
boundary
62
5
39
2
10
239.993718
20
515.207732
11
240.651973
21
516.400261
0
LINE
8
boundary
62
5
39
2
10
240.651973
20
516.400261
11
241.391959
21
517.984353
0
LINE
8
boundary
62
5
39
2
10
241.391959
20
517.984353
11
243.267463
21
522.123777
0
LINE
8
boundary
62
5
39
2
10
243.267463
20
522.123777
11
244.873743
21
526.522976
0
LINE
8
boundary
62
5
39
2
10
244.873743
20
526.522976
11
245.477848
21
528.266198
0
LINE
8
boundary
62
5
39
2
10
245.477848
20
528.266198
11
246.825328
21
534.182782
0
LINE
8
boundary
62
5
39
2
10
246.825328
20
534.182782
11
247.011008
21
535.004898
0
LINE
8
boundary
62
5
39
2
10
247.011008
20
535.004898
11
247.098016
21
535.635253
0
LINE
8
boundary
62
5
39
2
10
247.098016
20
535.635253
11
247.243976
21
537.006252
0
LINE
8
boundary
62
5
39
2
10
247.243976
20
537.006252
11
247.193406
21
537.892796
0
LINE
8
boundary
62
5
39
2
10
247.193406
20
537.892796
11
131.940012
21
616.162205
0
LINE
8
boundary
62
5
39
2
10
131.940012
20
616.162205
11
134.437797
21
619.840247
0
LINE
8
boundary
62
5
39
2
10
134.437797
20
619.840247
11
247.019110
21
543.385466
0
LINE
8
boundary
62
5
39
2
10
247.019110
20
543.385466
11
247.861825
21
543.665373
0
LINE
8
boundary
62
5
39
2
10
247.861825
20
543.665373
11
247.894890
21
550.532097
0
LINE
8
boundary
62
5
39
2
10
247.894890
20
550.532097
11
247.791697
21
552.948944
0
LINE
8
boundary
62
5
39
2
10
247.791697
20
552.948944
11
247.739550
21
553.803945
0
LINE
8
boundary
62
5
39
2
10
247.739550
20
553.803945
11
247.617610
21
555.504479
0
LINE
8
boundary
62
5
39
2
10
247.617610
20
555.504479
11
247.294222
21
559.447055
0
LINE
8
boundary
62
5
39
2
10
247.294222
20
559.447055
11
247.081544
21
561.113162
0
LINE
8
boundary
62
5
39
2
10
247.081544
20
561.113162
11
246.964360
21
561.884497
0
LINE
8
boundary
62
5
39
2
10
246.964360
20
561.884497
11
245.793394
21
569.830990
0
LINE
8
boundary
62
5
39
2
10
245.793394
20
569.830990
11
245.650860
21
570.880392
0
LINE
8
boundary
62
5
39
2
10
245.650860
20
570.880392
11
245.541873
21
571.670166
0
LINE
8
boundary
62
5
39
2
10
245.541873
20
571.670166
11
244.964997
21
575.697860
0
LINE
8
boundary
62
5
39
2
10
244.964997
20
575.697860
11
244.351717
21
579.942384
0
LINE
8
boundary
62
5
39
2
10
244.351717
20
579.942384
11
244.206768
21
581.082307
0
LINE
8
boundary
62
5
39
2
10
244.206768
20
581.082307
11
243.763579
21
586.712585
0
LINE
8
boundary
62
5
39
2
10
243.763579
20
586.712585
11
243.717694
21
589.228187
0
LINE
8
boundary
62
5
39
2
10
243.717694
20
589.228187
11
243.584713
21
593.508948
0
LINE
8
boundary
62
5
39
2
10
243.584713
20
593.508948
11
243.532848
21
597.515998
0
LINE
8
boundary
62
5
39
2
10
243.532848
20
597.515998
11
243.520924
21
598.437223
0
LINE
8
boundary
62
5
39
2
10
243.520924
20
598.437223
11
143.467447
21
680.422901
0
LINE
8
boundary
62
5
39
2
10
143.467447
20
680.422901
11
146.285369
21
683.861830
0
LINE
8
boundary
62
5
39
2
10
146.285369
20
683.861830
11
242.441097
21
605.070039
0
LINE
8
boundary
62
5
39
2
10
242.441097
20
605.070039
11
243.305540
21
605.273154
0
LINE
8
boundary
62
5
39
2
10
243.305540
20
605.273154
11
243.261249
21
606.397141
0
LINE
8
boundary
62
5
39
2
10
243.261249
20
606.397141
11
243.140583
21
608.215407
0
LINE
8
boundary
62
5
39
2
10
243.140583
20
608.215407
11
242.994854
21
609.087191
0
LINE
8
boundary
62
5
39
2
10
242.994854
20
609.087191
11
242.818720
21
611.539186
0
LINE
8
boundary
62
5
39
2
10
242.818720
20
611.539186
11
242.438355
21
616.170082
0
LINE
8
boundary
62
5
39
2
10
242.438355
20
616.170082
11
242.333511
21
617.977108
0
LINE
8
boundary
62
5
39
2
10
242.333511
20
617.977108
11
242.337694
21
622.217443
0
LINE
8
boundary
62
5
39
2
10
242.337694
20
622.217443
11
241.974089
21
627.963741
0
LINE
8
boundary
62
5
39
2
10
241.974089
20
627.963741
11
242.020423
21
630.195370
0
LINE
8
boundary
62
5
39
2
10
242.020423
20
630.195370
11
242.902442
21
635.860900
0
LINE
8
boundary
62
5
39
2
10
242.902442
20
635.860900
11
243.286166
21
638.128302
0
LINE
8
boundary
62
5
39
2
10
243.286166
20
638.128302
11
243.775850
21
639.654687
0
LINE
8
boundary
62
5
39
2
10
243.775850
20
639.654687
11
245.262294
21
644.890426
0
LINE
8
boundary
62
5
39
2
10
245.262294
20
644.890426
11
246.716082
21
648.791812
0
LINE
8
boundary
62
5
39
2
10
246.716082
20
648.791812
11
248.025397
21
652.651169
0
LINE
8
boundary
62
5
39
2
10
248.025397
20
652.651169
11
250.078108
21
658.017069
0
LINE
8
boundary
62
5
39
2
10
250.078108
20
658.017069
11
250.219454
21
658.893732
0
LINE
8
boundary
62
5
39
2
10
250.219454
20
658.893732
11
198.605651
21
713.482432
0
LINE
8
boundary
62
5
39
2
10
198.605651
20
713.482432
11
201.836243
21
716.536967
0
LINE
8
boundary
62
5
39
2
10
201.836243
20
716.536967
11
250.709836
21
664.846418
0
LINE
8
boundary
62
5
39
2
10
250.709836
20
664.846418
11
251.593036
21
664.938467
0
LINE
8
boundary
62
5
39
2
10
251.593036
20
664.938467
11
252.067064
21
668.931042
0
LINE
8
boundary
62
5
39
2
10
252.067064
20
668.931042
11
252.122244
21
672.318043
0
LINE
8
boundary
62
5
39
2
10
252.122244
20
672.318043
11
252.218535
21
674.417496
0
LINE
8
boundary
62
5
39
2
10
252.218535
20
674.417496
11
252.194002
21
675.461242
0
LINE
8
boundary
62
5
39
2
10
252.194002
20
675.461242
11
252.048814
21
677.240507
0
LINE
8
boundary
62
5
39
2
10
252.048814
20
677.240507
11
250.298529
21
684.341450
0
LINE
8
boundary
62
5
39
2
10
250.298529
20
684.341450
11
249.948238
21
685.453024
0
LINE
8
boundary
62
5
39
2
10
249.948238
20
685.453024
11
246.719341
21
692.193046
0
LINE
8
boundary
62
5
39
2
10
246.719341
20
692.193046
11
244.734200
21
694.992952
0
LINE
8
boundary
62
5
39
2
10
244.734200
20
694.992952
11
242.325019
21
697.723764
0
LINE
8
boundary
62
5
39
2
10
242.325019
20
697.723764
11
239.947101
21
700.059811
0
LINE
8
boundary
62
5
39
2
10
239.947101
20
700.059811
11
239.442077
21
700.681381
0
LINE
8
boundary
62
5
39
2
10
239.442077
20
700.681381
11
237.672359
21
702.291031
0
LINE
8
boundary
62
5
39
2
10
237.672359
20
702.291031
11
234.995191
21
704.564704
0
LINE
8
boundary
62
5
39
2
10
234.995191
20
704.564704
11
229.456649
21
709.532037
0
LINE
8
boundary
62
5
39
2
10
229.456649
20
709.532037
11
228.680823
21
710.239134
0
LINE
8
boundary
62
5
39
2
10
228.680823
20
710.239134
11
226.755099
21
711.672453
0
LINE
8
boundary
62
5
39
2
10
226.755099
20
711.672453
11
223.993154
21
713.748815
0
LINE
8
boundary
62
5
39
2
10
223.993154
20
713.748815
11
221.484757
21
716.117990
0
LINE
8
boundary
62
5
39
2
10
221.484757
20
716.117990
11
220.566373
21
716.837688
0
LINE
8
boundary
62
5
39
2
10
220.566373
20
716.837688
11
219.719385
21
717.595957
0
LINE
8
boundary
62
5
39
2
10
219.719385
20
717.595957
11
212.975249
21
722.414374
0
LINE
8
boundary
62
5
39
2
10
212.975249
20
722.414374
11
210.459475
21
724.275519
0
LINE
8
boundary
62
5
39
2
10
210.459475
20
724.275519
11
208.953619
21
725.137454
0
LINE
8
boundary
62
5
39
2
10
208.953619
20
725.137454
11
202.024429
21
729.737534
0
LINE
8
boundary
62
5
39
2
10
202.024429
20
729.737534
11
201.265572
21
730.244865
0
LINE
8
boundary
62
5
39
2
10
201.265572
20
730.244865
11
200.683990
21
730.565144
0
LINE
8
boundary
62
5
39
2
10
200.683990
20
730.565144
11
197.703409
21
732.523971
0
LINE
8
boundary
62
5
39
2
10
197.703409
20
732.523971
11
193.223565
21
735.311317
0
LINE
8
boundary
62
5
39
2
10
193.223565
20
735.311317
11
192.344145
21
735.935249
0
LINE
8
boundary
62
5
39
2
10
192.344145
20
735.935249
11
188.202914
21
738.728758
0
LINE
8
boundary
62
5
39
2
10
188.202914
20
738.728758
11
185.292225
21
740.609944
0
LINE
8
boundary
62
5
39
2
10
185.292225
20
740.609944
11
183.649951
21
741.703572
0
LINE
8
boundary
62
5
39
2
10
183.649951
20
741.703572
11
181.739185
21
743.030462
0
LINE
8
boundary
62
5
39
2
10
181.739185
20
743.030462
11
180.936805
21
743.596375
0
LINE
8
boundary
62
5
39
2
10
180.936805
20
743.596375
11
179.721068
21
744.417917
0
LINE
8
boundary
62
5
39
2
10
179.721068
20
744.417917
11
178.328660
21
745.355064
0
LINE
8
boundary
62
5
39
2
10
178.328660
20
745.355064
11
176.163462
21
746.825844
0
LINE
8
boundary
62
5
39
2
10
176.163462
20
746.825844
11
174.777430
21
747.767978
0
LINE
8
boundary
62
5
39
2
10
174.777430
20
747.767978
11
173.109272
21
748.897367
0
LINE
8
boundary
62
5
39
2
10
173.109272
20
748.897367
11
169.992209
21
750.768314
0
LINE
8
boundary
62
5
39
2
10
169.992209
20
750.768314
11
166.233796
21
753.473213
0
LINE
8
boundary
62
5
39
2
10
166.233796
20
753.473213
11
165.225252
21
754.117741
0
LINE
8
boundary
62
5
39
2
10
165.225252
20
754.117741
11
162.762631
21
755.813813
0
LINE
8
boundary
62
5
39
2
10
162.762631
20
755.813813
11
159.053065
21
758.485121
0
LINE
8
boundary
62
5
39
2
10
159.053065
20
758.485121
11
158.394303
21
759.009515
0
LINE
8
boundary
62
5
39
2
10
158.394303
20
759.009515
11
156.033854
21
760.783538
0
LINE
8
boundary
62
5
39
2
10
156.033854
20
760.783538
11
155.062663
21
761.493710
0
LINE
8
boundary
62
5
39
2
10
155.062663
20
761.493710
11
153.463653
21
762.791187
0
LINE
8
boundary
62
5
39
2
10
153.463653
20
762.791187
11
153.050366
21
763.099432
0
LINE
8
boundary
62
5
39
2
10
153.050366
20
763.099432
11
151.555790
21
764.367954
0
LINE
8
boundary
62
5
39
2
10
151.555790
20
764.367954
11
146.429731
21
768.539436
0
LINE
8
boundary
62
5
39
2
10
146.429731
20
768.539436
11
145.310408
21
769.482070
0
LINE
8
boundary
62
5
39
2
10
145.310408
20
769.482070
11
144.564633
21
770.141530
0
LINE
8
boundary
62
5
39
2
10
144.564633
20
770.141530
11
143.981453
21
770.582927
0
LINE
8
boundary
62
5
39
2
10
143.981453
20
770.582927
11
143.546464
21
770.926610
0
LINE
8
boundary
62
5
39
2
10
143.546464
20
770.926610
11
140.486009
21
773.188774
0
LINE
8
boundary
62
5
39
2
10
140.486009
20
773.188774
11
134.799284
21
777.275186
0
LINE
8
boundary
62
5
39
2
10
134.799284
20
777.275186
11
133.874604
21
777.872496
0
LINE
8
boundary
62
5
39
2
10
133.874604
20
777.872496
11
132.596943
21
778.733828
0
LINE
8
boundary
62
5
39
2
10
132.596943
20
778.733828
11
126.394314
21
781.988083
0
LINE
8
boundary
62
5
39
2
10
126.394314
20
781.988083
11
125.649496
21
782.391223
0
LINE
8
boundary
62
5
39
2
10
125.649496
20
782.391223
11
124.851234
21
782.717982
0
LINE
8
boundary
62
5
39
2
10
124.851234
20
782.717982
11
117.519860
21
784.971909
0
LINE
8
boundary
62
5
39
2
10
117.519860
20
784.971909
11
115.535753
21
785.272678
0
LINE
8
boundary
62
5
39
2
10
115.535753
20
785.272678
11
113.619484
21
785.158290
0
LINE
8
boundary
62
5
39
2
10
113.619484
20
785.158290
11
105.618922
21
785.672956
0
LINE
8
boundary
62
5
39
2
10
105.618922
20
785.672956
11
103.859895
21
785.595794
0
LINE
8
boundary
62
5
39
2
10
103.859895
20
785.595794
11
96.204382
21
784.357830
0
LINE
8
boundary
62
5
39
2
10
96.204382
20
784.357830
11
93.930039
21
783.735983
0
LINE
8
boundary
62
5
39
2
10
93.930039
20
783.735983
11
91.104386
21
782.876111
0
LINE
8
boundary
62
5
39
2
10
91.104386
20
782.876111
11
88.844815
21
782.189947
0
LINE
8
boundary
62
5
39
2
10
88.844815
20
782.189947
11
86.994426
21
781.246666
0
LINE
8
boundary
62
5
39
2
10
86.994426
20
781.246666
11
79.744974
21
778.689643
0
LINE
8
boundary
62
5
39
2
10
79.744974
20
778.689643
11
77.678156
21
778.266349
0
LINE
8
boundary
62
5
39
2
10
77.678156
20
778.266349
11
75.778085
21
777.492184
0
LINE
8
boundary
62
5
39
2
10
75.778085
20
777.492184
11
70.457097
21
775.404054
0
LINE
8
boundary
62
5
39
2
10
70.457097
20
775.404054
11
68.948895
21
774.820740
0
LINE
8
boundary
62
5
39
2
10
68.948895
20
774.820740
11
68.210719
21
774.554348
0
LINE
8
boundary
62
5
39
2
10
68.210719
20
774.554348
11
62.802531
21
772.226212
0
LINE
8
boundary
62
5
39
2
10
62.802531
20
772.226212
11
60.587233
21
771.022007
0
LINE
8
boundary
62
5
39
2
10
60.587233
20
771.022007
11
56.158087
21
769.061949
0
LINE
8
boundary
62
5
39
2
10
56.158087
20
769.061949
11
52.259119
21
767.739120
0
LINE
8
boundary
62
5
39
2
10
52.259119
20
767.739120
11
51.036715
21
767.140241
0
LINE
8
boundary
62
5
39
2
10
51.036715
20
767.140241
11
48.833347
21
766.082944
0
LINE
8
boundary
62
5
39
2
10
48.833347
20
766.082944
11
47.453452
21
765.427711
0
LINE
8
boundary
62
5
39
2
10
47.453452
20
765.427711
11
46.236402
21
764.706647
0
LINE
8
boundary
62
5
39
2
10
46.236402
20
764.706647
11
45.354688
21
764.187930
0
LINE
8
boundary
62
5
39
2
10
45.354688
20
764.187930
11
44.400482
21
763.489552
0
LINE
8
boundary
62
5
39
2
10
44.400482
20
763.489552
11
40.337677
21
760.771462
0
LINE
8
boundary
62
5
39
2
10
40.337677
20
760.771462
11
37.263579
21
758.026318
0
LINE
8
boundary
62
5
39
2
10
37.263579
20
758.026318
11
36.122982
21
757.059133
0
LINE
8
boundary
62
5
39
2
10
36.122982
20
757.059133
11
35.553084
21
756.473829
0
LINE
8
boundary
62
5
39
2
10
35.553084
20
756.473829
11
34.374739
21
755.254001
0
LINE
8
boundary
62
5
39
2
10
34.374739
20
755.254001
11
33.351399
21
754.025991
0
LINE
8
boundary
62
5
39
2
10
33.351399
20
754.025991
11
32.506721
21
753.007934
0
LINE
8
boundary
62
5
39
2
10
32.506721
20
753.007934
11
31.176564
21
751.118554
0
LINE
8
boundary
62
5
39
2
10
31.176564
20
751.118554
11
27.384824
21
744.573341
0
LINE
8
boundary
62
5
39
2
10
27.384824
20
744.573341
11
26.691747
21
743.319780
0
LINE
8
boundary
62
5
39
2
10
26.691747
20
743.319780
11
26.364477
21
742.401971
0
LINE
8
boundary
62
5
39
2
10
26.364477
20
742.401971
11
26.175312
21
741.815192
0
LINE
8
boundary
62
5
39
2
10
26.175312
20
741.815192
11
23.470227
21
733.877365
0
LINE
8
boundary
62
5
39
2
10
23.470227
20
733.877365
11
22.975494
21
731.994365
0
LINE
8
boundary
62
5
39
2
10
22.975494
20
731.994365
11
22.830208
21
731.469635
0
LINE
8
boundary
62
5
39
2
10
22.830208
20
731.469635
11
22.614109
21
730.574780
0
LINE
8
boundary
62
5
39
2
10
22.614109
20
730.574780
11
21.496291
21
725.428831
0
LINE
8
boundary
62
5
39
2
10
21.496291
20
725.428831
11
21.295631
21
724.492786
0
LINE
8
boundary
62
5
39
2
10
21.295631
20
724.492786
11
21.085059
21
723.309075
0
LINE
8
boundary
62
5
39
2
10
21.085059
20
723.309075
11
20.345078
21
719.120000
0
LINE
8
boundary
62
5
39
2
10
20.345078
20
719.120000
11
20.080204
21
717.619040
0
LINE
8
boundary
62
5
39
2
10
20.080204
20
717.619040
11
19.872765
21
716.264340
0
LINE
8
boundary
62
5
39
2
10
19.872765
20
716.264340
11
19.741102
21
715.299356
0
LINE
8
boundary
62
5
39
2
10
19.741102
20
715.299356
11
19.107529
21
709.794227
0
LINE
8
boundary
62
5
39
2
10
19.107529
20
709.794227
11
18.596869
21
705.902485
0
LINE
8
boundary
62
5
39
2
10
18.596869
20
705.902485
11
18.430321
21
704.121455
0
LINE
8
boundary
62
5
39
2
10
18.430321
20
704.121455
11
18.291628
21
702.063728
0
LINE
8
boundary
62
5
39
2
10
18.291628
20
702.063728
11
18.194318
21
700.733113
0
LINE
8
boundary
62
5
39
2
10
18.194318
20
700.733113
11
18.139413
21
699.822745
0
LINE
8
boundary
62
5
39
2
10
18.139413
20
699.822745
11
18.052009
21
697.958045
0
LINE
8
boundary
62
5
39
2
10
18.052009
20
697.958045
11
17.990429
21
696.575948
0
LINE
8
boundary
62
5
39
2
10
17.990429
20
696.575948
11
17.948477
21
695.128113
0
LINE
8
boundary
62
5
39
2
10
17.948477
20
695.128113
11
17.922229
21
694.399117
0
LINE
8
boundary
62
5
39
2
10
17.922229
20
694.399117
11
17.874482
21
692.698179
0
LINE
8
boundary
62
5
39
2
10
17.874482
20
692.698179
11
17.833932
21
690.405235
0
LINE
8
boundary
62
5
39
2
10
17.833932
20
690.405235
11
17.799151
21
688.455134
0
LINE
8
boundary
62
5
39
2
10
17.799151
20
688.455134
11
17.748023
21
685.935669
0
LINE
8
boundary
62
5
39
2
10
17.748023
20
685.935669
11
17.640670
21
682.568091
0
LINE
8
boundary
62
5
39
2
10
17.640670
20
682.568091
11
17.628011
21
682.006187
0
LINE
8
boundary
62
5
39
2
10
17.628011
20
682.006187
11
17.435168
21
678.737009
0
LINE
8
boundary
62
5
39
2
10
17.435168
20
678.737009
11
17.385264
21
678.101967
0
LINE
8
boundary
62
5
39
2
10
17.385264
20
678.101967
11
17.136884
21
675.414320
0
LINE
8
boundary
62
5
39
2
10
17.136884
20
675.414320
11
17.048215
21
674.779853
0
LINE
8
boundary
62
5
39
2
10
17.048215
20
674.779853
11
16.900597
21
673.708331
0
LINE
8
boundary
62
5
39
2
10
16.900597
20
673.708331
11
16.830955
21
673.156816
0
LINE
8
boundary
62
5
39
2
10
16.830955
20
673.156816
11
16.604452
21
671.816578
0
LINE
8
boundary
62
5
39
2
10
16.604452
20
671.816578
11
16.445979
21
670.832431
0
LINE
8
boundary
62
5
39
2
10
16.445979
20
670.832431
11
16.210021
21
669.717876
0
LINE
8
boundary
62
5
39
2
10
16.210021
20
669.717876
11
15.889847
21
668.180099
0
LINE
8
boundary
62
5
39
2
10
15.889847
20
668.180099
11
15.457740
21
666.475531
0
LINE
8
boundary
62
5
39
2
10
15.457740
20
666.475531
11
15.220974
21
665.478942
0
LINE
8
boundary
62
5
39
2
10
15.220974
20
665.478942
11
14.599433
21
663.246062
0
LINE
8
boundary
62
5
39
2
10
14.599433
20
663.246062
11
14.406769
21
662.557447
0
LINE
8
boundary
62
5
39
2
10
14.406769
20
662.557447
11
14.088537
21
661.521538
0
LINE
8
boundary
62
5
39
2
10
14.088537
20
661.521538
11
13.706231
21
660.319248
0
LINE
8
boundary
62
5
39
2
10
13.706231
20
660.319248
11
13.252710
21
658.942514
0
LINE
8
boundary
62
5
39
2
10
13.252710
20
658.942514
11
13.012857
21
658.263464
0
LINE
8
boundary
62
5
39
2
10
13.012857
20
658.263464
11
12.513204
21
656.817461
0
LINE
8
boundary
62
5
39
2
10
12.513204
20
656.817461
11
11.398876
21
653.710496
0
LINE
8
boundary
62
5
39
2
10
11.398876
20
653.710496
11
10.289569
21
650.650462
0
LINE
8
boundary
62
5
39
2
10
10.289569
20
650.650462
11
9.853947
21
649.130874
0
LINE
8
boundary
62
5
39
2
10
9.853947
20
649.130874
11
8.830831
21
646.396326
0
LINE
8
boundary
62
5
39
2
10
8.830831
20
646.396326
11
7.830754
21
643.614791
0
LINE
8
boundary
62
5
39
2
10
7.830754
20
643.614791
11
7.043130
21
641.585237
0
LINE
8
boundary
62
5
39
2
10
7.043130
20
641.585237
11
6.598736
21
639.890715
0
LINE
8
boundary
62
5
39
2
10
6.598736
20
639.890715
11
6.239112
21
638.585841
0
LINE
8
boundary
62
5
39
2
10
6.239112
20
638.585841
11
5.015530
21
633.456455
0
LINE
8
boundary
62
5
39
2
10
5.015530
20
633.456455
11
4.507859
21
631.290045
0
LINE
8
boundary
62
5
39
2
10
4.507859
20
631.290045
11
3.310063
21
626.613223
0
LINE
8
boundary
62
5
39
2
10
3.310063
20
626.613223
11
3.200897
21
626.108149
0
LINE
8
boundary
62
5
39
2
10
3.200897
20
626.108149
11
3.049085
21
625.397840
0
LINE
8
boundary
62
5
39
2
10
3.049085
20
625.397840
11
2.658944
21
622.131521
0
LINE
8
boundary
62
5
39
2
10
2.658944
20
622.131521
11
2.071255
21
616.884005
0
LINE
8
boundary
62
5
39
2
10
2.071255
20
616.884005
11
2.006497
21
616.223598
0
LINE
8
boundary
62
5
39
2
10
2.006497
20
616.223598
11
1.866272
21
614.894957
0
LINE
8
boundary
62
5
39
2
10
1.866272
20
614.894957
11
1.666856
21
610.953474
0
LINE
8
boundary
62
5
39
2
10
1.666856
20
610.953474
11
1.587500
21
608.368068
0
LINE
8
boundary
62
5
39
2
10
1.587500
20
608.368068
11
1.808420
21
603.700130
0
LINE
8
boundary
62
5
39
2
10
1.808420
20
603.700130
11
2.072333
21
599.686491
0
LINE
8
boundary
62
5
39
2
10
2.072333
20
599.686491
11
2.931842
21
593.152581
0
LINE
8
boundary
62
5
39
2
10
2.931842
20
593.152581
11
3.231782
21
591.092093
0
LINE
8
boundary
62
5
39
2
10
3.231782
20
591.092093
11
3.850749
21
588.313998
0
LINE
8
boundary
62
5
39
2
10
3.850749
20
588.313998
11
4.314045
21
586.396734
0
LINE
8
boundary
62
5
39
2
10
4.314045
20
586.396734
11
4.857530
21
584.389879
0
LINE
8
boundary
62
5
39
2
10
4.857530
20
584.389879
11
5.093757
21
583.687947
0
LINE
8
boundary
62
5
39
2
10
5.093757
20
583.687947
11
5.432614
21
582.548298
0
LINE
8
boundary
62
5
39
2
10
5.432614
20
582.548298
11
8.581514
21
574.515995
0
LINE
8
boundary
62
5
39
2
10
8.581514
20
574.515995
11
12.177624
21
568.067734
0
LINE
8
boundary
62
5
39
2
10
12.177624
20
568.067734
11
12.689399
21
567.174358
0
LINE
8
boundary
62
5
39
2
10
12.689399
20
567.174358
11
12.977877
21
566.688756
0
LINE
8
boundary
62
5
39
2
10
12.977877
20
566.688756
11
13.301474
21
566.171116
0
LINE
8
boundary
62
5
39
2
10
13.301474
20
566.171116
11
18.211490
21
559.358514
0
LINE
8
boundary
62
5
39
2
10
18.211490
20
559.358514
11
18.844867
21
558.540484
0
LINE
8
boundary
62
5
39
2
10
18.844867
20
558.540484
11
21.745764
21
554.998372
0
LINE
8
boundary
62
5
39
2
10
21.745764
20
554.998372
11
22.667800
21
553.974723
0
LINE
8
boundary
62
5
39
2
10
22.667800
20
553.974723
11
23.175016
21
553.363918
0
LINE
8
boundary
62
5
39
2
10
23.175016
20
553.363918
11
24.977181
21
551.164724
0
LINE
8
boundary
62
5
39
2
10
24.977181
20
551.164724
11
28.465480
21
547.301547
0
LINE
8
boundary
62
5
39
2
10
28.465480
20
547.301547
11
29.268156
21
546.346626
0
LINE
8
boundary
62
5
39
2
10
29.268156
20
546.346626
11
29.736200
21
545.836898
0
LINE
8
boundary
62
5
39
2
10
29.736200
20
545.836898
11
30.888255
21
544.559208
0
LINE
8
boundary
62
5
39
2
10
30.888255
20
544.559208
11
31.304021
21
544.095522
0
LINE
8
boundary
62
5
39
2
10
31.304021
20
544.095522
11
32.426277
21
542.891554
0
LINE
8
boundary
62
5
39
2
10
32.426277
20
542.891554
11
33.843064
21
541.410775
0
LINE
8
boundary
62
5
39
2
10
33.843064
20
541.410775
11
37.938468
21
536.969862
0
LINE
8
boundary
62
5
39
2
10
37.938468
20
536.969862
11
39.307920
21
535.599309
0
LINE
8
boundary
62
5
39
2
10
39.307920
20
535.599309
11
40.210651
21
534.626761
0
LINE
8
boundary
62
5
39
2
10
40.210651
20
534.626761
11
44.462213
21
530.232146
0
LINE
8
boundary
62
5
39
2
10
44.462213
20
530.232146
11
44.883085
21
529.804375
0
LINE
8
boundary
62
5
39
2
10
44.883085
20
529.804375
11
49.764690
21
525.014958
0
LINE
8
boundary
62
5
39
2
10
49.764690
20
525.014958
11
50.807899
21
524.082773
0
LINE
8
boundary
62
5
39
2
10
50.807899
20
524.082773
11
52.458783
21
522.591290
0
LINE
8
boundary
62
5
39
2
10
52.458783
20
522.591290
11
57.112065
21
518.549206
0
LINE
8
boundary
62
5
39
2
10
57.112065
20
518.549206
11
59.987032
21
516.206225
0
LINE
8
boundary
62
5
39
2
10
59.987032
20
516.206225
11
61.111248
21
515.387828
0
LINE
8
boundary
62
5
39
2
10
61.111248
20
515.387828
11
63.982962
21
513.494062
0
LINE
8
boundary
62
5
39
2
10
63.982962
20
513.494062
11
67.862356
21
511.180337
0
LINE
8
boundary
62
5
39
2
10
67.862356
20
511.180337
11
71.419465
21
509.137487
0
LINE
8
boundary
62
5
39
2
10
71.419465
20
509.137487
11
79.601554
21
505.412705
0
LINE
8
boundary
62
5
39
2
10
79.601554
20
505.412705
11
80.535781
21
504.998189
0
LINE
8
boundary
62
5
39
2
10
80.535781
20
504.998189
11
81.643532
21
504.551218
0
LINE
8
boundary
62
5
39
2
10
81.643532
20
504.551218
11
83.301128
21
503.895499
0
LINE
8
boundary
62
5
39
2
10
83.301128
20
503.895499
11
83.981108
21
503.651990
0
LINE
8
boundary
62
5
39
2
10
83.981108
20
503.651990
11
86.450434
21
502.771856
0
LINE
8
boundary
62
5
39
2
10
86.450434
20
502.771856
11
87.984060
21
502.362190
0
LINE
8
boundary
62
5
39
2
10
87.984060
20
502.362190
11
90.737698
21
501.459316
0
LINE
8
boundary
62
5
39
2
10
90.737698
20
501.459316
11
92.845425
21
500.761437
0
LINE
8
boundary
62
5
39
2
10
92.845425
20
500.761437
11
96.718231
21
499.193093
0
LINE
8
boundary
62
5
39
2
10
96.718231
20
499.193093
11
97.431764
21
498.970677
0
LINE
8
boundary
62
5
39
2
10
97.431764
20
498.970677
11
98.246468
21
498.712381
0
LINE
8
boundary
62
5
39
2
10
98.246468
20
498.712381
11
100.324973
21
498.047162
0
LINE
8
boundary
62
5
39
2
10
100.324973
20
498.047162
11
105.513586
21
496.382010
0
LINE
8
boundary
62
5
39
2
10
105.513586
20
496.382010
11
107.144894
21
495.851644
0
LINE
8
boundary
62
5
39
2
10
107.144894
20
495.851644
11
108.503805
21
495.473697
0
LINE
8
boundary
62
5
39
2
10
108.503805
20
495.473697
11
109.795476
21
495.079246
0
LINE
8
boundary
62
5
39
2
10
109.795476
20
495.079246
11
111.721460
21
494.514897
0
LINE
8
boundary
62
5
39
2
10
111.721460
20
494.514897
11
112.278099
21
494.346851
0
LINE
8
boundary
62
5
39
2
10
112.278099
20
494.346851
11
113.165899
21
494.072377
0
LINE
8
boundary
62
5
39
2
10
113.165899
20
494.072377
11
117.947647
21
492.685434
0
LINE
8
boundary
62
5
39
2
10
117.947647
20
492.685434
11
123.164403
21
491.337527
0
LINE
8
boundary
62
5
39
2
10
123.164403
20
491.337527
11
127.054341
21
490.241051
0
LINE
8
boundary
62
5
39
2
10
127.054341
20
490.241051
11
128.070470
21
489.932353
0
LINE
8
boundary
62
5
39
2
10
128.070470
20
489.932353
11
131.905161
21
488.911882
0
LINE
8
boundary
62
5
39
2
10
131.905161
20
488.911882
11
135.183836
21
487.951350
0
LINE
8
boundary
62
5
39
2
10
135.183836
20
487.951350
11
137.470994
21
487.348770
0
LINE
8
boundary
62
5
39
2
10
137.470994
20
487.348770
11
139.332421
21
486.897187
0
LINE
8
boundary
62
5
39
2
10
139.332421
20
486.897187
11
139.200476
21
487.775314
0
LINE
8
boundary
62
5
39
2
10
139.200476
20
487.775314
11
85.079971
21
517.651794
0
LINE
8
boundary
62
5
39
2
10
85.079971
20
517.651794
11
87.228664
21
521.544098
0
LINE
8
boundary
62
5
39
2
10
87.228664
20
521.544098
11
157.174438
21
482.931498
0
LINE
8
annotation
62
1
39
211
10
74.533980
20
521.718187
11
75.995920
21
520.911144
0
LINE
8
annotation
62
1
39
211
10
75.995920
20
520.911144
11
75.995920
21
520.911144
0
LINE
8
annotation
62
1
39
211
10
75.995920
20
520.911144
11
76.271874
21
520.789582
0
LINE
8
annotation
62
1
39
211
10
76.271874
20
520.789582
11
76.556812
21
520.720981
0
LINE
8
annotation
62
1
39
211
10
76.556812
20
520.720981
11
76.844315
21
520.703439
0
LINE
8
annotation
62
1
39
211
10
76.844315
20
520.703439
11
77.127964
21
520.735056
0
LINE
8
annotation
62
1
39
211
10
77.127964
20
520.735056
11
77.401342
21
520.813930
0
LINE
8
annotation
62
1
39
211
10
77.401342
20
520.813930
11
77.658029
21
520.938160
0
LINE
8
annotation
62
1
39
211
10
77.658029
20
520.938160
11
77.891608
21
521.105845
0
LINE
8
annotation
62
1
39
211
10
77.891608
20
521.105845
11
78.095658
21
521.315084
0
LINE
8
annotation
62
1
39
211
10
78.095658
20
521.315084
11
78.263763
21
521.563975
0
LINE
8
annotation
62
1
39
211
10
78.263763
20
521.563975
11
78.667855
21
522.295977
0
LINE
8
annotation
62
1
39
211
10
78.667855
20
522.295977
11
78.667855
21
522.295977
0
LINE
8
annotation
62
1
39
211
10
78.667855
20
522.295977
11
78.788829
21
522.570745
0
LINE
8
annotation
62
1
39
211
10
78.788829
20
522.570745
11
78.857122
21
522.854851
0
LINE
8
annotation
62
1
39
211
10
78.857122
20
522.854851
11
78.874541
21
523.141842
0
LINE
8
annotation
62
1
39
211
10
78.874541
20
523.141842
11
78.842892
21
523.425262
0
LINE
8
annotation
62
1
39
211
10
78.842892
20
523.425262
11
78.763979
21
523.698657
0
LINE
8
annotation
62
1
39
211
10
78.763979
20
523.698657
11
78.639610
21
523.955573
0
LINE
8
annotation
62
1
39
211
10
78.639610
20
523.955573
11
78.471590
21
524.189554
0
LINE
8
annotation
62
1
39
211
10
78.471590
20
524.189554
11
78.261724
21
524.394147
0
LINE
8
annotation
62
1
39
211
10
78.261724
20
524.394147
11
78.011819
21
524.562896
0
LINE
8
annotation
62
1
39
211
10
78.011819
20
524.562896
11
77.279817
21
524.966987
0
LINE
8
annotation
62
1
39
211
10
77.279817
20
524.966987
11
78.011819
21
524.562896
0
LINE
8
annotation
62
1
39
211
10
78.011819
20
524.562896
11
78.011819
21
524.562896
0
LINE
8
annotation
62
1
39
211
10
78.011819
20
524.562896
11
78.287784
21
524.441353
0
LINE
8
annotation
62
1
39
211
10
78.287784
20
524.441353
11
78.572762
21
524.372826
0
LINE
8
annotation
62
1
39
211
10
78.572762
20
524.372826
11
78.860349
21
524.355436
0
LINE
8
annotation
62
1
39
211
10
78.860349
20
524.355436
11
79.144139
21
524.387306
0
LINE
8
annotation
62
1
39
211
10
79.144139
20
524.387306
11
79.417726
21
524.466560
0
LINE
8
annotation
62
1
39
211
10
79.417726
20
524.466560
11
79.674705
21
524.591319
0
LINE
8
annotation
62
1
39
211
10
79.674705
20
524.591319
11
79.908671
21
524.759706
0
LINE
8
annotation
62
1
39
211
10
79.908671
20
524.759706
11
80.113218
21
524.969844
0
LINE
8
annotation
62
1
39
211
10
80.113218
20
524.969844
11
80.281941
21
525.219856
0
LINE
8
annotation
62
1
39
211
10
80.281941
20
525.219856
11
80.281941
21
525.219856
0
LINE
8
annotation
62
1
39
211
10
80.281941
20
525.219856
11
80.402915
21
525.494623
0
LINE
8
annotation
62
1
39
211
10
80.402915
20
525.494623
11
80.471209
21
525.778730
0
LINE
8
annotation
62
1
39
211
10
80.471209
20
525.778730
11
80.488628
21
526.065720
0
LINE
8
annotation
62
1
39
211
10
80.488628
20
526.065720
11
80.456979
21
526.349140
0
LINE
8
annotation
62
1
39
211
10
80.456979
20
526.349140
11
80.378066
21
526.622536
0
LINE
8
annotation
62
1
39
211
10
80.378066
20
526.622536
11
80.253697
21
526.879451
0
LINE
8
annotation
62
1
39
211
10
80.253697
20
526.879451
11
80.085677
21
527.113433
0
LINE
8
annotation
62
1
39
211
10
80.085677
20
527.113433
11
79.875811
21
527.318025
0
LINE
8
annotation
62
1
39
211
10
79.875811
20
527.318025
11
79.625906
21
527.486774
0
LINE
8
annotation
62
1
39
211
10
79.625906
20
527.486774
11
78.163967
21
528.293818
0
LINE
8
annotation
62
1
39
211
10
108.185509
20
566.147748
11
104.598262
21
568.284621
0
LINE
8
annotation
62
1
39
211
10
104.598262
20
568.284621
11
109.023817
21
572.455557
0
LINE
8
annotation
62
1
39
211
10
106.254656
20
565.352003
11
107.963865
21
568.221314
0
LINE
8
annotation
62
1
39
211
10
121.812876
20
621.181698
11
123.194339
21
620.243537
0
LINE
8
annotation
62
1
39
211
10
123.194339
20
620.243537
11
123.194339
21
620.243537
0
LINE
8
annotation
62
1
39
211
10
123.194339
20
620.243537
11
123.457424
21
620.097448
0
LINE
8
annotation
62
1
39
211
10
123.457424
20
620.097448
11
123.734589
21
620.003134
0
LINE
8
annotation
62
1
39
211
10
123.734589
20
620.003134
11
124.019239
21
619.959354
0
LINE
8
annotation
62
1
39
211
10
124.019239
20
619.959354
11
124.304780
21
619.964867
0
LINE
8
annotation
62
1
39
211
10
124.304780
20
619.964867
11
124.584617
21
620.018432
0
LINE
8
annotation
62
1
39
211
10
124.584617
20
620.018432
11
124.852154
21
620.118808
0
LINE
8
annotation
62
1
39
211
10
124.852154
20
620.118808
11
125.100797
21
620.264756
0
LINE
8
annotation
62
1
39
211
10
125.100797
20
620.264756
11
125.323952
21
620.455033
0
LINE
8
annotation
62
1
39
211
10
125.323952
20
620.455033
11
125.515022
21
620.688399
0
LINE
8
annotation
62
1
39
211
10
125.515022
20
620.688399
11
125.982381
21
621.376594
0
LINE
8
annotation
62
1
39
211
10
125.982381
20
621.376594
11
125.982381
21
621.376594
0
LINE
8
annotation
62
1
39
211
10
125.982381
20
621.376594
11
126.128775
21
621.640125
0
LINE
8
annotation
62
1
39
211
10
126.128775
20
621.640125
11
126.223167
21
621.917373
0
LINE
8
annotation
62
1
39
211
10
126.223167
20
621.917373
11
126.266867
21
622.201817
0
LINE
8
annotation
62
1
39
211
10
126.266867
20
622.201817
11
126.261180
21
622.486932
0
LINE
8
annotation
62
1
39
211
10
126.261180
20
622.486932
11
126.207417
21
622.766195
0
LINE
8
annotation
62
1
39
211
10
126.207417
20
622.766195
11
126.106885
21
623.033084
0
LINE
8
annotation
62
1
39
211
10
126.106885
20
623.033084
11
125.960891
21
623.281074
0
LINE
8
annotation
62
1
39
211
10
125.960891
20
623.281074
11
125.770745
21
623.503643
0
LINE
8
annotation
62
1
39
211
10
125.770745
20
623.503643
11
125.537755
21
623.694267
0
LINE
8
annotation
62
1
39
211
10
125.537755
20
623.694267
11
124.156292
21
624.632429
0
LINE
8
annotation
62
1
39
211
10
124.156292
20
624.632429
11
126.037649
21
627.402767
0
LINE
8
annotation
62
1
39
211
10
126.037649
20
627.402767
11
128.800574
21
625.526444
0
LINE
8
annotation
62
1
39
211
10
140.538346
20
690.558149
11
140.538346
21
690.558149
0
LINE
8
annotation
62
1
39
211
10
140.538346
20
690.558149
11
140.054636
21
690.722618
0
LINE
8
annotation
62
1
39
211
10
140.054636
20
690.722618
11
139.561913
21
690.813917
0
LINE
8
annotation
62
1
39
211
10
139.561913
20
690.813917
11
139.067500
21
690.833874
0
LINE
8
annotation
62
1
39
211
10
139.067500
20
690.833874
11
138.578721
21
690.784317
0
LINE
8
annotation
62
1
39
211
10
138.578721
20
690.784317
11
138.102898
21
690.667071
0
LINE
8
annotation
62
1
39
211
10
138.102898
20
690.667071
11
137.647356
21
690.483966
0
LINE
8
annotation
62
1
39
211
10
137.647356
20
690.483966
11
137.219417
21
690.236828
0
LINE
8
annotation
62
1
39
211
10
137.219417
20
690.236828
11
136.826405
21
689.927484
0
LINE
8
annotation
62
1
39
211
10
136.826405
20
689.927484
11
136.475644
21
689.557761
0
LINE
8
annotation
62
1
39
211
10
136.475644
20
689.557761
11
134.891475
21
687.624477
0
LINE
8
annotation
62
1
39
211
10
134.891475
20
687.624477
11
134.891475
21
687.624477
0
LINE
8
annotation
62
1
39
211
10
134.891475
20
687.624477
11
134.721931
21
687.375032
0
LINE
8
annotation
62
1
39
211
10
134.721931
20
687.375032
11
134.602810
21
687.107052
0
LINE
8
annotation
62
1
39
211
10
134.602810
20
687.107052
11
134.533431
21
686.827212
0
LINE
8
annotation
62
1
39
211
10
134.533431
20
686.827212
11
134.513110
21
686.542188
0
LINE
8
annotation
62
1
39
211
10
134.513110
20
686.542188
11
134.541167
21
686.258656
0
LINE
8
annotation
62
1
39
211
10
134.541167
20
686.258656
11
134.616919
21
685.983291
0
LINE
8
annotation
62
1
39
211
10
134.616919
20
685.983291
11
134.739684
21
685.722770
0
LINE
8
annotation
62
1
39
211
10
134.739684
20
685.722770
11
134.908781
21
685.483768
0
LINE
8
annotation
62
1
39
211
10
134.908781
20
685.483768
11
135.123528
21
685.272962
0
LINE
8
annotation
62
1
39
211
10
135.123528
20
685.272962
11
135.123528
21
685.272962
0
LINE
8
annotation
62
1
39
211
10
135.123528
20
685.272962
11
135.372914
21
685.103449
0
LINE
8
annotation
62
1
39
211
10
135.372914
20
685.103449
11
135.640747
21
684.984422
0
LINE
8
annotation
62
1
39
211
10
135.640747
20
684.984422
11
135.920393
21
684.915201
0
LINE
8
annotation
62
1
39
211
10
135.920393
20
684.915201
11
136.205215
21
684.895104
0
LINE
8
annotation
62
1
39
211
10
136.205215
20
684.895104
11
136.488580
21
684.923451
0
LINE
8
annotation
62
1
39
211
10
136.488580
20
684.923451
11
136.763854
21
684.999561
0
LINE
8
annotation
62
1
39
211
10
136.763854
20
684.999561
11
137.024402
21
685.122755
0
LINE
8
annotation
62
1
39
211
10
137.024402
20
685.122755
11
137.263588
21
685.292351
0
LINE
8
annotation
62
1
39
211
10
137.263588
20
685.292351
11
137.474780
21
685.507669
0
LINE
8
annotation
62
1
39
211
10
137.474780
20
685.507669
11
138.002039
21
686.151124
0
LINE
8
annotation
62
1
39
211
10
138.002039
20
686.151124
11
138.002039
21
686.151124
0
LINE
8
annotation
62
1
39
211
10
138.002039
20
686.151124
11
138.171550
21
686.400408
0
LINE
8
annotation
62
1
39
211
10
138.171550
20
686.400408
11
138.290574
21
686.667963
0
LINE
8
annotation
62
1
39
211
10
138.290574
20
686.667963
11
138.359791
21
686.947207
0
LINE
8
annotation
62
1
39
211
10
138.359791
20
686.947207
11
138.379882
21
687.231553
0
LINE
8
annotation
62
1
39
211
10
138.379882
20
687.231553
11
138.351529
21
687.514417
0
LINE
8
annotation
62
1
39
211
10
138.351529
20
687.514417
11
138.275413
21
687.789214
0
LINE
8
annotation
62
1
39
211
10
138.275413
20
687.789214
11
138.152215
21
688.049360
0
LINE
8
annotation
62
1
39
211
10
138.152215
20
688.049360
11
137.982615
21
688.288269
0
LINE
8
annotation
62
1
39
211
10
137.982615
20
688.288269
11
137.767296
21
688.499357
0
LINE
8
annotation
62
1
39
211
10
137.767296
20
688.499357
11
136.475644
21
689.557761
0
LINE
8
annotation
62
1
39
211
10
133.074317
20
685.736849
11
135.982633
21
683.353721
0
LINE
8
annotation
62
1
39
211
10
190.942838
20
719.349745
11
197.555659
21
723.301439
0
LINE
8
annotation
62
1
39
211
10
197.555659
20
723.301439
11
195.258191
21
725.731327
0
LINE
8
annotation
62
1
39
211
10
195.122344
20
721.000732
11
193.973773
21
722.215504
0
LINE
8
annotation
62
1
39
211
10
59.572312
20
649.808712
11
41.246145
21
649.808712
0
LINE
8
annotation
62
1
39
211
10
41.246145
20
649.808712
11
59.572312
21
682.814028
0
LINE
8
annotation
62
1
39
211
10
59.572312
20
682.814028
11
41.246145
21
682.814028
0
LINE
8
annotation
62
1
39
211
10
89.999152
20
666.311370
11
71.952410
21
666.311370
0
LINE
8
annotation
62
1
39
211
10
109.711580
20
649.808712
11
117.049084
21
682.814028
0
LINE
8
annotation
62
1
39
211
10
117.049084
20
682.814028
11
102.372006
21
682.814028
0
LINE
8
annotation
62
1
39
211
10
117.049084
20
668.116251
11
109.711580
21
668.116251
0
LINE
8
boundary
62
5
39
2
10
295.366530
20
493.216060
11
299.572348
21
487.928643
0
LINE
8
boundary
62
5
39
2
10
299.572348
20
487.928643
11
303.897432
21
483.595523
0
LINE
8
boundary
62
5
39
2
10
303.897432
20
483.595523
11
305.899276
21
481.563115
0
LINE
8
boundary
62
5
39
2
10
305.899276
20
481.563115
11
307.335125
21
480.098740
0
LINE
8
boundary
62
5
39
2
10
307.335125
20
480.098740
11
308.386366
21
481.171756
0
LINE
8
boundary
62
5
39
2
10
308.386366
20
481.171756
11
309.939178
21
482.759532
0
LINE
8
boundary
62
5
39
2
10
309.939178
20
482.759532
11
310.632639
21
483.463088
0
LINE
8
boundary
62
5
39
2
10
310.632639
20
483.463088
11
312.852759
21
485.720163
0
LINE
8
boundary
62
5
39
2
10
312.852759
20
485.720163
11
314.670359
21
487.564047
0
LINE
8
boundary
62
5
39
2
10
314.670359
20
487.564047
11
315.843077
21
488.747360
0
LINE
8
boundary
62
5
39
2
10
315.843077
20
488.747360
11
319.435925
21
492.361444
0
LINE
8
boundary
62
5
39
2
10
319.435925
20
492.361444
11
321.545722
21
494.470867
0
LINE
8
boundary
62
5
39
2
10
321.545722
20
494.470867
11
324.516701
21
497.428879
0
LINE
8
boundary
62
5
39
2
10
324.516701
20
497.428879
11
324.379620
21
498.306219
0
LINE
8
boundary
62
5
39
2
10
324.379620
20
498.306219
11
297.816904
21
512.767648
0
LINE
8
boundary
62
5
39
2
10
297.816904
20
512.767648
11
299.942784
21
516.672460
0
LINE
8
boundary
62
5
39
2
10
299.942784
20
516.672460
11
328.053714
21
501.368142
0
LINE
8
boundary
62
5
39
2
10
328.053714
20
501.368142
11
328.864995
21
501.729170
0
LINE
8
boundary
62
5
39
2
10
328.864995
20
501.729170
11
330.195066
21
503.040308
0
LINE
8
boundary
62
5
39
2
10
330.195066
20
503.040308
11
337.846512
21
510.572701
0
LINE
8
boundary
62
5
39
2
10
337.846512
20
510.572701
11
341.977319
21
514.599657
0
LINE
8
boundary
62
5
39
2
10
341.977319
20
514.599657
11
352.678869
21
524.977766
0
LINE
8
boundary
62
5
39
2
10
352.678869
20
524.977766
11
355.582077
21
527.764251
0
LINE
8
boundary
62
5
39
2
10
355.582077
20
527.764251
11
363.197682
21
535.049713
0
LINE
8
boundary
62
5
39
2
10
363.197682
20
535.049713
11
363.061494
21
535.927192
0
LINE
8
boundary
62
5
39
2
10
363.061494
20
535.927192
11
310.035641
21
564.865884
0
LINE
8
boundary
62
5
39
2
10
310.035641
20
564.865884
11
312.165497
21
568.768528
0
LINE
8
boundary
62
5
39
2
10
312.165497
20
568.768528
11
366.828923
21
538.936136
0
LINE
8
boundary
62
5
39
2
10
366.828923
20
538.936136
11
367.640570
21
539.296337
0
LINE
8
boundary
62
5
39
2
10
367.640570
20
539.296337
11
369.620231
21
541.176909
0
LINE
8
boundary
62
5
39
2
10
369.620231
20
541.176909
11
378.649766
21
549.765530
0
LINE
8
boundary
62
5
39
2
10
378.649766
20
549.765530
11
381.809302
21
552.759665
0
LINE
8
boundary
62
5
39
2
10
381.809302
20
552.759665
11
385.619934
21
556.364858
0
LINE
8
boundary
62
5
39
2
10
385.619934
20
556.364858
11
388.739368
21
559.306359
0
LINE
8
boundary
62
5
39
2
10
388.739368
20
559.306359
11
393.010364
21
563.330908
0
LINE
8
boundary
62
5
39
2
10
393.010364
20
563.330908
11
399.106504
21
569.074502
0
LINE
8
boundary
62
5
39
2
10
399.106504
20
569.074502
11
401.831483
21
571.638523
0
LINE
8
boundary
62
5
39
2
10
401.831483
20
571.638523
11
401.699538
21
572.516651
0
LINE
8
boundary
62
5
39
2
10
401.699538
20
572.516651
11
336.918911
21
608.277903
0
LINE
8
boundary
62
5
39
2
10
336.918911
20
608.277903
11
339.067604
21
612.170207
0
LINE
8
boundary
62
5
39
2
10
339.067604
20
612.170207
11
405.498465
21
575.497966
0
LINE
8
boundary
62
5
39
2
10
405.498465
20
575.497966
11
406.311844
21
575.854240
0
LINE
8
boundary
62
5
39
2
10
406.311844
20
575.854240
11
407.794868
21
577.249666
0
LINE
8
boundary
62
5
39
2
10
407.794868
20
577.249666
11
409.227611
21
578.595326
0
LINE
8
boundary
62
5
39
2
10
409.227611
20
578.595326
11
411.212596
21
580.453762
0
LINE
8
boundary
62
5
39
2
10
411.212596
20
580.453762
11
419.965620
21
588.639359
0
LINE
8
boundary
62
5
39
2
10
419.965620
20
588.639359
11
422.632285
21
591.126932
0
LINE
8
boundary
62
5
39
2
10
422.632285
20
591.126932
11
426.820730
21
595.008442
0
LINE
8
boundary
62
5
39
2
10
426.820730
20
595.008442
11
432.364791
21
600.178155
0
LINE
8
boundary
62
5
39
2
10
432.364791
20
600.178155
11
434.655597
21
602.310434
0
LINE
8
boundary
62
5
39
2
10
434.655597
20
602.310434
11
435.335871
21
602.940790
0
LINE
8
boundary
62
5
39
2
10
435.335871
20
602.940790
11
435.232827
21
603.822776
0
LINE
8
boundary
62
5
39
2
10
435.232827
20
603.822776
11
358.406182
21
649.587341
0
LINE
8
boundary
62
5
39
2
10
358.406182
20
649.587341
11
360.681503
21
653.407004
0
LINE
8
boundary
62
5
39
2
10
360.681503
20
653.407004
11
438.992387
21
606.758298
0
LINE
8
boundary
62
5
39
2
10
438.992387
20
606.758298
11
439.817025
21
607.087677
0
LINE
8
boundary
62
5
39
2
10
439.817025
20
607.087677
11
440.550791
21
607.764565
0
LINE
8
boundary
62
5
39
2
10
440.550791
20
607.764565
11
442.171069
21
609.258775
0
LINE
8
boundary
62
5
39
2
10
442.171069
20
609.258775
11
442.139660
21
610.756265
0
LINE
8
boundary
62
5
39
2
10
442.139660
20
610.756265
11
442.307572
21
613.236006
0
LINE
8
boundary
62
5
39
2
10
442.307572
20
613.236006
11
442.346379
21
614.013050
0
LINE
8
boundary
62
5
39
2
10
442.346379
20
614.013050
11
442.391037
21
615.287306
0
LINE
8
boundary
62
5
39
2
10
442.391037
20
615.287306
11
442.550141
21
616.833128
0
LINE
8
boundary
62
5
39
2
10
442.550141
20
616.833128
11
442.762793
21
618.326639
0
LINE
8
boundary
62
5
39
2
10
442.762793
20
618.326639
11
442.946704
21
619.307232
0
LINE
8
boundary
62
5
39
2
10
442.946704
20
619.307232
11
443.135648
21
619.999665
0
LINE
8
boundary
62
5
39
2
10
443.135648
20
619.999665
11
443.742985
21
621.511863
0
LINE
8
boundary
62
5
39
2
10
443.742985
20
621.511863
11
444.206056
21
622.754554
0
LINE
8
boundary
62
5
39
2
10
444.206056
20
622.754554
11
444.794352
21
623.618940
0
LINE
8
boundary
62
5
39
2
10
444.794352
20
623.618940
11
446.010706
21
625.503698
0
LINE
8
boundary
62
5
39
2
10
446.010706
20
625.503698
11
446.290840
21
626.063324
0
LINE
8
boundary
62
5
39
2
10
446.290840
20
626.063324
11
448.504311
21
629.231917
0
LINE
8
boundary
62
5
39
2
10
448.504311
20
629.231917
11
450.312813
21
631.004361
0
LINE
8
boundary
62
5
39
2
10
450.312813
20
631.004361
11
450.971421
21
631.811777
0
LINE
8
boundary
62
5
39
2
10
450.971421
20
631.811777
11
451.454060
21
632.373122
0
LINE
8
boundary
62
5
39
2
10
451.454060
20
632.373122
11
453.676644
21
635.197594
0
LINE
8
boundary
62
5
39
2
10
453.676644
20
635.197594
11
453.626073
21
636.084138
0
LINE
8
boundary
62
5
39
2
10
453.626073
20
636.084138
11
374.707138
21
689.678555
0
LINE
8
boundary
62
5
39
2
10
374.707138
20
689.678555
11
377.204922
21
693.356596
0
LINE
8
boundary
62
5
39
2
10
377.204922
20
693.356596
11
456.156368
21
639.740101
0
LINE
8
boundary
62
5
39
2
10
456.156368
20
639.740101
11
456.999083
21
640.020008
0
LINE
8
boundary
62
5
39
2
10
456.999083
20
640.020008
11
457.932525
21
641.877656
0
LINE
8
boundary
62
5
39
2
10
457.932525
20
641.877656
11
459.290143
21
644.968276
0
LINE
8
boundary
62
5
39
2
10
459.290143
20
644.968276
11
460.445807
21
648.086633
0
LINE
8
boundary
62
5
39
2
10
460.445807
20
648.086633
11
460.704668
21
648.896059
0
LINE
8
boundary
62
5
39
2
10
460.704668
20
648.896059
11
461.422242
21
651.124866
0
LINE
8
boundary
62
5
39
2
10
461.422242
20
651.124866
11
462.277179
21
654.374135
0
LINE
8
boundary
62
5
39
2
10
462.277179
20
654.374135
11
462.932313
21
657.552242
0
LINE
8
boundary
62
5
39
2
10
462.932313
20
657.552242
11
463.383366
21
660.780359
0
LINE
8
boundary
62
5
39
2
10
463.383366
20
660.780359
11
463.548660
21
663.032706
0
LINE
8
boundary
62
5
39
2
10
463.548660
20
663.032706
11
463.680614
21
663.989656
0
LINE
8
boundary
62
5
39
2
10
463.680614
20
663.989656
11
463.717225
21
664.598530
0
LINE
8
boundary
62
5
39
2
10
463.717225
20
664.598530
11
463.746945
21
666.001847
0
LINE
8
boundary
62
5
39
2
10
463.746945
20
666.001847
11
396.994793
21
720.699800
0
LINE
8
boundary
62
5
39
2
10
396.994793
20
720.699800
11
399.812715
21
724.138729
0
LINE
8
boundary
62
5
39
2
10
399.812715
20
724.138729
11
462.616013
21
672.676541
0
LINE
8
boundary
62
5
39
2
10
462.616013
20
672.676541
11
463.480455
21
672.879655
0
LINE
8
boundary
62
5
39
2
10
463.480455
20
672.879655
11
463.377186
21
674.015180
0
LINE
8
boundary
62
5
39
2
10
463.377186
20
674.015180
11
463.289347
21
674.655505
0
LINE
8
boundary
62
5
39
2
10
463.289347
20
674.655505
11
462.307636
21
680.902929
0
LINE
8
boundary
62
5
39
2
10
462.307636
20
680.902929
11
461.882928
21
682.259007
0
LINE
8
boundary
62
5
39
2
10
461.882928
20
682.259007
11
461.374225
21
684.084092
0
LINE
8
boundary
62
5
39
2
10
461.374225
20
684.084092
11
460.288912
21
687.910851
0
LINE
8
boundary
62
5
39
2
10
460.288912
20
687.910851
11
459.318798
21
690.018374
0
LINE
8
boundary
62
5
39
2
10
459.318798
20
690.018374
11
457.411348
21
694.842603
0
LINE
8
boundary
62
5
39
2
10
457.411348
20
694.842603
11
456.041984
21
697.454238
0
LINE
8
boundary
62
5
39
2
10
456.041984
20
697.454238
11
455.416229
21
699.075534
0
LINE
8
boundary
62
5
39
2
10
455.416229
20
699.075534
11
454.775585
21
700.413364
0
LINE
8
boundary
62
5
39
2
10
454.775585
20
700.413364
11
453.994111
21
702.031509
0
LINE
8
boundary
62
5
39
2
10
453.994111
20
702.031509
11
452.420641
21
704.721621
0
LINE
8
boundary
62
5
39
2
10
452.420641
20
704.721621
11
450.185279
21
709.193234
0
LINE
8
boundary
62
5
39
2
10
450.185279
20
709.193234
11
448.514219
21
711.812257
0
LINE
8
boundary
62
5
39
2
10
448.514219
20
711.812257
11
447.058248
21
714.297967
0
LINE
8
boundary
62
5
39
2
10
447.058248
20
714.297967
11
445.851252
21
716.375911
0
LINE
8
boundary
62
5
39
2
10
445.851252
20
716.375911
11
432.405595
21
730.596544
0
LINE
8
boundary
62
5
39
2
10
432.405595
20
730.596544
11
433.762677
21
731.879670
0
LINE
8
boundary
62
5
39
2
10
433.762677
20
731.879670
11
429.563217
21
736.388694
0
LINE
8
boundary
62
5
39
2
10
429.563217
20
736.388694
11
428.960946
21
736.930378
0
LINE
8
boundary
62
5
39
2
10
428.960946
20
736.930378
11
428.465513
21
737.389732
0
LINE
8
boundary
62
5
39
2
10
428.465513
20
737.389732
11
423.209386
21
742.326631
0
LINE
8
boundary
62
5
39
2
10
423.209386
20
742.326631
11
417.600071
21
746.971784
0
LINE
8
boundary
62
5
39
2
10
417.600071
20
746.971784
11
417.089676
21
747.354515
0
LINE
8
boundary
62
5
39
2
10
417.089676
20
747.354515
11
411.823429
21
751.139341
0
LINE
8
boundary
62
5
39
2
10
411.823429
20
751.139341
11
410.765805
21
752.021286
0
LINE
8
boundary
62
5
39
2
10
410.765805
20
752.021286
11
410.362169
21
752.356388
0
LINE
8
boundary
62
5
39
2
10
410.362169
20
752.356388
11
409.433829
21
753.045926
0
LINE
8
boundary
62
5
39
2
10
409.433829
20
753.045926
11
408.663056
21
753.554643
0
LINE
8
boundary
62
5
39
2
10
408.663056
20
753.554643
11
406.006950
21
755.307729
0
LINE
8
boundary
62
5
39
2
10
406.006950
20
755.307729
11
404.281521
21
756.443825
0
LINE
8
boundary
62
5
39
2
10
404.281521
20
756.443825
11
402.197908
21
757.912506
0
LINE
8
boundary
62
5
39
2
10
402.197908
20
757.912506
11
397.668213
21
760.643298
0
LINE
8
boundary
62
5
39
2
10
397.668213
20
760.643298
11
394.840142
21
762.483819
0
LINE
8
boundary
62
5
39
2
10
394.840142
20
762.483819
11
393.935411
21
762.973737
0
LINE
8
boundary
62
5
39
2
10
393.935411
20
762.973737
11
390.893721
21
764.581861
0
LINE
8
boundary
62
5
39
2
10
390.893721
20
764.581861
11
387.345436
21
766.578933
0
LINE
8
boundary
62
5
39
2
10
387.345436
20
766.578933
11
383.931806
21
768.200808
0
LINE
8
boundary
62
5
39
2
10
383.931806
20
768.200808
11
380.947370
21
769.684356
0
LINE
8
boundary
62
5
39
2
10
380.947370
20
769.684356
11
379.800776
21
770.213320
0
LINE
8
boundary
62
5
39
2
10
379.800776
20
770.213320
11
376.730878
21
771.314516
0
LINE
8
boundary
62
5
39
2
10
376.730878
20
771.314516
11
372.154774
21
772.939995
0
LINE
8
boundary
62
5
39
2
10
372.154774
20
772.939995
11
369.277453
21
773.745386
0
LINE
8
boundary
62
5
39
2
10
369.277453
20
773.745386
11
367.739181
21
774.257570
0
LINE
8
boundary
62
5
39
2
10
367.739181
20
774.257570
11
366.441913
21
774.590771
0
LINE
8
boundary
62
5
39
2
10
366.441913
20
774.590771
11
364.616884
21
775.025842
0
LINE
8
boundary
62
5
39
2
10
364.616884
20
775.025842
11
363.233898
21
775.256933
0
LINE
8
boundary
62
5
39
2
10
363.233898
20
775.256933
11
361.632351
21
775.500374
0
LINE
8
boundary
62
5
39
2
10
361.632351
20
775.500374
11
358.353175
21
775.876898
0
LINE
8
boundary
62
5
39
2
10
358.353175
20
775.876898
11
356.483055
21
776.109945
0
LINE
8
boundary
62
5
39
2
10
356.483055
20
776.109945
11
353.890997
21
776.683944
0
LINE
8
boundary
62
5
39
2
10
353.890997
20
776.683944
11
350.222299
21
777.167998
0
LINE
8
boundary
62
5
39
2
10
350.222299
20
777.167998
11
346.081994
21
777.290817
0
LINE
8
boundary
62
5
39
2
10
346.081994
20
777.290817
11
342.808337
21
777.419865
0
LINE
8
boundary
62
5
39
2
10
342.808337
20
777.419865
11
338.211381
21
777.112961
0
LINE
8
boundary
62
5
39
2
10
338.211381
20
777.112961
11
336.181272
21
776.997450
0
LINE
8
boundary
62
5
39
2
10
336.181272
20
776.997450
11
334.949087
21
776.696814
0
LINE
8
boundary
62
5
39
2
10
334.949087
20
776.696814
11
330.941726
21
775.962985
0
LINE
8
boundary
62
5
39
2
10
330.941726
20
775.962985
11
330.311958
21
775.830662
0
LINE
8
boundary
62
5
39
2
10
330.311958
20
775.830662
11
329.044490
21
775.464174
0
LINE
8
boundary
62
5
39
2
10
329.044490
20
775.464174
11
324.203504
21
773.832555
0
LINE
8
boundary
62
5
39
2
10
324.203504
20
773.832555
11
322.370048
21
772.942835
0
LINE
8
boundary
62
5
39
2
10
322.370048
20
772.942835
11
318.839567
21
771.308747
0
LINE
8
boundary
62
5
39
2
10
318.839567
20
771.308747
11
314.618934
21
768.571392
0
LINE
8
boundary
62
5
39
2
10
314.618934
20
768.571392
11
314.044999
21
768.208775
0
LINE
8
boundary
62
5
39
2
10
314.044999
20
768.208775
11
313.241109
21
767.544436
0
LINE
8
boundary
62
5
39
2
10
313.241109
20
767.544436
11
309.621177
21
764.538875
0
LINE
8
boundary
62
5
39
2
10
309.621177
20
764.538875
11
307.178852
21
761.895928
0
LINE
8
boundary
62
5
39
2
10
307.178852
20
761.895928
11
305.751603
21
760.371247
0
LINE
8
boundary
62
5
39
2
10
305.751603
20
760.371247
11
304.275524
21
758.246436
0
LINE
8
boundary
62
5
39
2
10
304.275524
20
758.246436
11
300.246000
21
752.646001
0
LINE
8
boundary
62
5
39
2
10
300.246000
20
752.646001
11
299.106160
21
750.825649
0
LINE
8
boundary
62
5
39
2
10
299.106160
20
750.825649
11
298.296851
21
749.217388
0
LINE
8
boundary
62
5
39
2
10
298.296851
20
749.217388
11
294.242941
21
739.908333
0
LINE
8
boundary
62
5
39
2
10
294.242941
20
739.908333
11
292.099645
21
733.935799
0
LINE
8
boundary
62
5
39
2
10
292.099645
20
733.935799
11
291.180457
21
730.212232
0
LINE
8
boundary
62
5
39
2
10
291.180457
20
730.212232
11
290.430088
21
727.774865
0
LINE
8
boundary
62
5
39
2
10
290.430088
20
727.774865
11
289.184050
21
723.404612
0
LINE
8
boundary
62
5
39
2
10
289.184050
20
723.404612
11
288.432186
21
720.571848
0
LINE
8
boundary
62
5
39
2
10
288.432186
20
720.571848
11
288.265520
21
719.948205
0
LINE
8
boundary
62
5
39
2
10
288.265520
20
719.948205
11
287.434763
21
717.177890
0
LINE
8
boundary
62
5
39
2
10
287.434763
20
717.177890
11
286.845253
21
715.318746
0
LINE
8
boundary
62
5
39
2
10
286.845253
20
715.318746
11
286.048286
21
712.849485
0
LINE
8
boundary
62
5
39
2
10
286.048286
20
712.849485
11
285.428794
21
710.953956
0
LINE
8
boundary
62
5
39
2
10
285.428794
20
710.953956
11
283.703813
21
705.915995
0
LINE
8
boundary
62
5
39
2
10
283.703813
20
705.915995
11
283.120419
21
704.174040
0
LINE
8
boundary
62
5
39
2
10
283.120419
20
704.174040
11
282.709366
21
702.944171
0
LINE
8
boundary
62
5
39
2
10
282.709366
20
702.944171
11
282.409026
21
702.036198
0
LINE
8
boundary
62
5
39
2
10
282.409026
20
702.036198
11
282.186570
21
701.345653
0
LINE
8
boundary
62
5
39
2
10
282.186570
20
701.345653
11
282.021962
21
700.808393
0
LINE
8
boundary
62
5
39
2
10
282.021962
20
700.808393
11
280.135558
21
695.266929
0
LINE
8
boundary
62
5
39
2
10
280.135558
20
695.266929
11
279.572498
21
693.162843
0
LINE
8
boundary
62
5
39
2
10
279.572498
20
693.162843
11
279.210871
21
691.709389
0
LINE
8
boundary
62
5
39
2
10
279.210871
20
691.709389
11
278.889932
21
690.503220
0
LINE
8
boundary
62
5
39
2
10
278.889932
20
690.503220
11
278.389413
21
688.393189
0
LINE
8
boundary
62
5
39
2
10
278.389413
20
688.393189
11
277.354465
21
684.349036
0
LINE
8
boundary
62
5
39
2
10
277.354465
20
684.349036
11
276.928365
21
682.237046
0
LINE
8
boundary
62
5
39
2
10
276.928365
20
682.237046
11
276.683878
21
680.887217
0
LINE
8
boundary
62
5
39
2
10
276.683878
20
680.887217
11
276.218713
21
678.374367
0
LINE
8
boundary
62
5
39
2
10
276.218713
20
678.374367
11
275.695636
21
674.980740
0
LINE
8
boundary
62
5
39
2
10
275.695636
20
674.980740
11
275.475254
21
673.561631
0
LINE
8
boundary
62
5
39
2
10
275.475254
20
673.561631
11
275.101467
21
670.307734
0
LINE
8
boundary
62
5
39
2
10
275.101467
20
670.307734
11
274.775320
21
667.515219
0
LINE
8
boundary
62
5
39
2
10
274.775320
20
667.515219
11
274.685995
21
666.714422
0
LINE
8
boundary
62
5
39
2
10
274.685995
20
666.714422
11
273.965015
21
658.626387
0
LINE
8
boundary
62
5
39
2
10
273.965015
20
658.626387
11
273.863660
21
657.780200
0
LINE
8
boundary
62
5
39
2
10
273.863660
20
657.780200
11
273.223657
21
653.414467
0
LINE
8
boundary
62
5
39
2
10
273.223657
20
653.414467
11
272.324521
21
649.808157
0
LINE
8
boundary
62
5
39
2
10
272.324521
20
649.808157
11
272.116521
21
649.026819
0
LINE
8
boundary
62
5
39
2
10
272.116521
20
649.026819
11
271.616998
21
647.418885
0
LINE
8
boundary
62
5
39
2
10
271.616998
20
647.418885
11
271.392020
21
646.730118
0
LINE
8
boundary
62
5
39
2
10
271.392020
20
646.730118
11
271.081195
21
645.846299
0
LINE
8
boundary
62
5
39
2
10
271.081195
20
645.846299
11
270.911745
21
645.343972
0
LINE
8
boundary
62
5
39
2
10
270.911745
20
645.343972
11
270.522011
21
644.287594
0
LINE
8
boundary
62
5
39
2
10
270.522011
20
644.287594
11
269.960242
21
642.753001
0
LINE
8
boundary
62
5
39
2
10
269.960242
20
642.753001
11
269.504538
21
641.475674
0
LINE
8
boundary
62
5
39
2
10
269.504538
20
641.475674
11
269.019014
21
640.134640
0
LINE
8
boundary
62
5
39
2
10
269.019014
20
640.134640
11
268.743434
21
639.376093
0
LINE
8
boundary
62
5
39
2
10
268.743434
20
639.376093
11
268.368747
21
638.313523
0
LINE
8
boundary
62
5
39
2
10
268.368747
20
638.313523
11
267.919348
21
637.057732
0
LINE
8
boundary
62
5
39
2
10
267.919348
20
637.057732
11
267.423496
21
635.701208
0
LINE
8
boundary
62
5
39
2
10
267.423496
20
635.701208
11
266.688262
21
633.732993
0
LINE
8
boundary
62
5
39
2
10
266.688262
20
633.732993
11
265.973156
21
631.813541
0
LINE
8
boundary
62
5
39
2
10
265.973156
20
631.813541
11
265.495823
21
630.563828
0
LINE
8
boundary
62
5
39
2
10
265.495823
20
630.563828
11
265.255913
21
629.896254
0
LINE
8
boundary
62
5
39
2
10
265.255913
20
629.896254
11
264.795545
21
628.644709
0
LINE
8
boundary
62
5
39
2
10
264.795545
20
628.644709
11
264.531535
21
627.925484
0
LINE
8
boundary
62
5
39
2
10
264.531535
20
627.925484
11
263.912933
21
626.186317
0
LINE
8
boundary
62
5
39
2
10
263.912933
20
626.186317
11
263.634230
21
625.394836
0
LINE
8
boundary
62
5
39
2
10
263.634230
20
625.394836
11
263.277586
21
624.377980
0
LINE
8
boundary
62
5
39
2
10
263.277586
20
624.377980
11
263.065306
21
623.733516
0
LINE
8
boundary
62
5
39
2
10
263.065306
20
623.733516
11
262.563003
21
622.187056
0
LINE
8
boundary
62
5
39
2
10
262.563003
20
622.187056
11
262.419097
21
621.647572
0
LINE
8
boundary
62
5
39
2
10
262.419097
20
621.647572
11
260.328821
21
614.673025
0
LINE
8
boundary
62
5
39
2
10
260.328821
20
614.673025
11
259.396181
21
611.365258
0
LINE
8
boundary
62
5
39
2
10
259.396181
20
611.365258
11
258.291039
21
606.737780
0
LINE
8
boundary
62
5
39
2
10
258.291039
20
606.737780
11
257.902697
21
605.069091
0
LINE
8
boundary
62
5
39
2
10
257.902697
20
605.069091
11
257.330383
21
601.964376
0
LINE
8
boundary
62
5
39
2
10
257.330383
20
601.964376
11
256.416358
21
596.792751
0
LINE
8
boundary
62
5
39
2
10
256.416358
20
596.792751
11
256.311181
21
596.043468
0
LINE
8
boundary
62
5
39
2
10
256.311181
20
596.043468
11
256.221146
21
595.077422
0
LINE
8
boundary
62
5
39
2
10
256.221146
20
595.077422
11
255.530143
21
587.034396
0
LINE
8
boundary
62
5
39
2
10
255.530143
20
587.034396
11
255.483154
21
586.305930
0
LINE
8
boundary
62
5
39
2
10
255.483154
20
586.305930
11
255.431976
21
584.612061
0
LINE
8
boundary
62
5
39
2
10
255.431976
20
584.612061
11
255.393534
21
580.794388
0
LINE
8
boundary
62
5
39
2
10
255.393534
20
580.794388
11
255.408210
21
580.093369
0
LINE
8
boundary
62
5
39
2
10
255.408210
20
580.093369
11
255.564795
21
577.727032
0
LINE
8
boundary
62
5
39
2
10
255.564795
20
577.727032
11
255.963920
21
573.486628
0
LINE
8
boundary
62
5
39
2
10
255.963920
20
573.486628
11
256.481417
21
568.291363
0
LINE
8
boundary
62
5
39
2
10
256.481417
20
568.291363
11
256.716046
21
566.473093
0
LINE
8
boundary
62
5
39
2
10
256.716046
20
566.473093
11
256.785184
21
565.946948
0
LINE
8
boundary
62
5
39
2
10
256.785184
20
565.946948
11
257.014140
21
564.708349
0
LINE
8
boundary
62
5
39
2
10
257.014140
20
564.708349
11
257.625268
21
561.926783
0
LINE
8
boundary
62
5
39
2
10
257.625268
20
561.926783
11
257.789721
21
561.248365
0
LINE
8
boundary
62
5
39
2
10
257.789721
20
561.248365
11
258.231359
21
559.750701
0
LINE
8
boundary
62
5
39
2
10
258.231359
20
559.750701
11
258.486803
21
558.898728
0
LINE
8
boundary
62
5
39
2
10
258.486803
20
558.898728
11
261.386847
21
549.846180
0
LINE
8
boundary
62
5
39
2
10
261.386847
20
549.846180
11
261.701262
21
549.046576
0
LINE
8
boundary
62
5
39
2
10
261.701262
20
549.046576
11
265.377810
21
540.509750
0
LINE
8
boundary
62
5
39
2
10
265.377810
20
540.509750
11
266.278536
21
538.513406
0
LINE
8
boundary
62
5
39
2
10
266.278536
20
538.513406
11
266.947080
21
537.098981
0
LINE
8
boundary
62
5
39
2
10
266.947080
20
537.098981
11
267.763873
21
535.482046
0
LINE
8
boundary
62
5
39
2
10
267.763873
20
535.482046
11
269.120161
21
532.909294
0
LINE
8
boundary
62
5
39
2
10
269.120161
20
532.909294
11
269.906558
21
531.525771
0
LINE
8
boundary
62
5
39
2
10
269.906558
20
531.525771
11
274.540307
21
522.985210
0
LINE
8
boundary
62
5
39
2
10
274.540307
20
522.985210
11
274.868744
21
522.401100
0
LINE
8
boundary
62
5
39
2
10
274.868744
20
522.401100
11
280.238453
21
513.655283
0
LINE
8
boundary
62
5
39
2
10
280.238453
20
513.655283
11
281.061418
21
512.212728
0
LINE
8
boundary
62
5
39
2
10
281.061418
20
512.212728
11
281.539093
21
511.424276
0
LINE
8
boundary
62
5
39
2
10
281.539093
20
511.424276
11
282.414289
21
510.061491
0
LINE
8
boundary
62
5
39
2
10
282.414289
20
510.061491
11
284.725570
21
506.708365
0
LINE
8
boundary
62
5
39
2
10
284.725570
20
506.708365
11
286.079040
21
504.847789
0
LINE
8
boundary
62
5
39
2
10
286.079040
20
504.847789
11
286.554623
21
504.246634
0
LINE
8
boundary
62
5
39
2
10
286.554623
20
504.246634
11
287.384518
21
503.070711
0
LINE
8
boundary
62
5
39
2
10
287.384518
20
503.070711
11
289.623212
21
500.037720
0
LINE
8
boundary
62
5
39
2
10
289.623212
20
500.037720
11
290.723405
21
498.577297
0
LINE
8
boundary
62
5
39
2
10
290.723405
20
498.577297
11
291.859231
21
497.275227
0
LINE
8
boundary
62
5
39
2
10
291.859231
20
497.275227
11
292.708881
21
496.243855
0
LINE
8
boundary
62
5
39
2
10
292.708881
20
496.243855
11
295.366530
21
493.216060
0
LINE
8
annotation
62
1
39
211
10
289.448177
20
515.573779
11
293.043908
21
522.178407
0
LINE
8
annotation
62
1
39
211
10
293.043908
20
522.178407
11
290.776012
21
521.509077
0
LINE
8
annotation
62
1
39
211
10
302.401624
20
567.281063
11
299.469978
21
568.880999
0
LINE
8
annotation
62
1
39
211
10
299.469978
20
568.880999
11
304.558939
21
571.763646
0
LINE
8
annotation
62
1
39
211
10
304.558939
20
571.763646
11
304.558939
21
571.763646
0
LINE
8
annotation
62
1
39
211
10
304.558939
20
571.763646
11
304.564364
21
571.765886
0
LINE
8
annotation
62
1
39
211
10
304.564364
20
571.765886
11
304.569675
21
571.768232
0
LINE
8
annotation
62
1
39
211
10
304.569675
20
571.768232
11
304.574911
21
571.770708
0
LINE
8
annotation
62
1
39
211
10
304.574911
20
571.770708
11
304.580111
21
571.773337
0
LINE
8
annotation
62
1
39
211
10
304.580111
20
571.773337
11
304.585313
21
571.776140
0
LINE
8
annotation
62
1
39
211
10
304.585313
20
571.776140
11
304.590557
21
571.779142
0
LINE
8
annotation
62
1
39
211
10
304.590557
20
571.779142
11
304.595883
21
571.782366
0
LINE
8
annotation
62
1
39
211
10
304.595883
20
571.782366
11
304.601328
21
571.785833
0
LINE
8
annotation
62
1
39
211
10
304.601328
20
571.785833
11
304.606932
21
571.789567
0
LINE
8
annotation
62
1
39
211
10
304.606932
20
571.789567
11
304.606932
21
571.789567
0
LINE
8
annotation
62
1
39
211
10
304.606932
20
571.789567
11
304.849847
21
571.968679
0
LINE
8
annotation
62
1
39
211
10
304.849847
20
571.968679
11
305.051047
21
572.181960
0
LINE
8
annotation
62
1
39
211
10
305.051047
20
572.181960
11
305.209065
21
572.422911
0
LINE
8
annotation
62
1
39
211
10
305.209065
20
572.422911
11
305.322431
21
572.685034
0
LINE
8
annotation
62
1
39
211
10
305.322431
20
572.685034
11
305.389677
21
572.961829
0
LINE
8
annotation
62
1
39
211
10
305.389677
20
572.961829
11
305.409335
21
573.246798
0
LINE
8
annotation
62
1
39
211
10
305.409335
20
573.246798
11
305.379936
21
573.533442
0
LINE
8
annotation
62
1
39
211
10
305.379936
20
573.533442
11
305.300011
21
573.815260
0
LINE
8
annotation
62
1
39
211
10
305.300011
20
573.815260
11
305.168092
21
574.085756
0
LINE
8
annotation
62
1
39
211
10
305.168092
20
574.085756
11
305.168092
21
574.085756
0
LINE
8
annotation
62
1
39
211
10
305.168092
20
574.085756
11
304.987445
21
574.327446
0
LINE
8
annotation
62
1
39
211
10
304.987445
20
574.327446
11
304.773233
21
574.527848
0
LINE
8
annotation
62
1
39
211
10
304.773233
20
574.527848
11
304.531819
21
574.685368
0
LINE
8
annotation
62
1
39
211
10
304.531819
20
574.685368
11
304.269569
21
574.798412
0
LINE
8
annotation
62
1
39
211
10
304.269569
20
574.798412
11
303.992847
21
574.865386
0
LINE
8
annotation
62
1
39
211
10
303.992847
20
574.865386
11
303.708016
21
574.884697
0
LINE
8
annotation
62
1
39
211
10
303.708016
20
574.884697
11
303.421441
21
574.854750
0
LINE
8
annotation
62
1
39
211
10
303.421441
20
574.854750
11
303.139485
21
574.773951
0
LINE
8
annotation
62
1
39
211
10
303.139485
20
574.773951
11
302.868514
21
574.640706
0
LINE
8
annotation
62
1
39
211
10
302.868514
20
574.640706
11
302.474507
21
574.376507
0
LINE
8
annotation
62
1
39
211
10
326.372920
20
612.344297
11
327.834860
21
611.537253
0
LINE
8
annotation
62
1
39
211
10
327.834860
20
611.537253
11
327.834860
21
611.537253
0
LINE
8
annotation
62
1
39
211
10
327.834860
20
611.537253
11
328.110814
21
611.415691
0
LINE
8
annotation
62
1
39
211
10
328.110814
20
611.415691
11
328.395752
21
611.347090
0
LINE
8
annotation
62
1
39
211
10
328.395752
20
611.347090
11
328.683255
21
611.329548
0
LINE
8
annotation
62
1
39
211
10
328.683255
20
611.329548
11
328.966904
21
611.361165
0
LINE
8
annotation
62
1
39
211
10
328.966904
20
611.361165
11
329.240282
21
611.440039
0
LINE
8
annotation
62
1
39
211
10
329.240282
20
611.440039
11
329.496969
21
611.564269
0
LINE
8
annotation
62
1
39
211
10
329.496969
20
611.564269
11
329.730547
21
611.731954
0
LINE
8
annotation
62
1
39
211
10
329.730547
20
611.731954
11
329.934598
21
611.941193
0
LINE
8
annotation
62
1
39
211
10
329.934598
20
611.941193
11
330.102703
21
612.190085
0
LINE
8
annotation
62
1
39
211
10
330.102703
20
612.190085
11
330.506794
21
612.922087
0
LINE
8
annotation
62
1
39
211
10
330.506794
20
612.922087
11
330.506794
21
612.922087
0
LINE
8
annotation
62
1
39
211
10
330.506794
20
612.922087
11
330.627768
21
613.196854
0
LINE
8
annotation
62
1
39
211
10
330.627768
20
613.196854
11
330.696062
21
613.480960
0
LINE
8
annotation
62
1
39
211
10
330.696062
20
613.480960
11
330.713481
21
613.767951
0
LINE
8
annotation
62
1
39
211
10
330.713481
20
613.767951
11
330.681832
21
614.051371
0
LINE
8
annotation
62
1
39
211
10
330.681832
20
614.051371
11
330.602919
21
614.324766
0
LINE
8
annotation
62
1
39
211
10
330.602919
20
614.324766
11
330.478550
21
614.581682
0
LINE
8
annotation
62
1
39
211
10
330.478550
20
614.581682
11
330.310530
21
614.815663
0
LINE
8
annotation
62
1
39
211
10
330.310530
20
614.815663
11
330.100664
21
615.020256
0
LINE
8
annotation
62
1
39
211
10
330.100664
20
615.020256
11
329.850759
21
615.189005
0
LINE
8
annotation
62
1
39
211
10
329.850759
20
615.189005
11
329.118757
21
615.593097
0
LINE
8
annotation
62
1
39
211
10
329.118757
20
615.593097
11
329.850759
21
615.189005
0
LINE
8
annotation
62
1
39
211
10
329.850759
20
615.189005
11
329.850759
21
615.189005
0
LINE
8
annotation
62
1
39
211
10
329.850759
20
615.189005
11
330.126724
21
615.067462
0
LINE
8
annotation
62
1
39
211
10
330.126724
20
615.067462
11
330.411702
21
614.998935
0
LINE
8
annotation
62
1
39
211
10
330.411702
20
614.998935
11
330.699289
21
614.981545
0
LINE
8
annotation
62
1
39
211
10
330.699289
20
614.981545
11
330.983079
21
615.013415
0
LINE
8
annotation
62
1
39
211
10
330.983079
20
615.013415
11
331.256666
21
615.092669
0
LINE
8
annotation
62
1
39
211
10
331.256666
20
615.092669
11
331.513645
21
615.217428
0
LINE
8
annotation
62
1
39
211
10
331.513645
20
615.217428
11
331.747611
21
615.385815
0
LINE
8
annotation
62
1
39
211
10
331.747611
20
615.385815
11
331.952158
21
615.595953
0
LINE
8
annotation
62
1
39
211
10
331.952158
20
615.595953
11
332.120881
21
615.845965
0
LINE
8
annotation
62
1
39
211
10
332.120881
20
615.845965
11
332.120881
21
615.845965
0
LINE
8
annotation
62
1
39
211
10
332.120881
20
615.845965
11
332.241855
21
616.120733
0
LINE
8
annotation
62
1
39
211
10
332.241855
20
616.120733
11
332.310149
21
616.404839
0
LINE
8
annotation
62
1
39
211
10
332.310149
20
616.404839
11
332.327568
21
616.691830
0
LINE
8
annotation
62
1
39
211
10
332.327568
20
616.691830
11
332.295919
21
616.975250
0
LINE
8
annotation
62
1
39
211
10
332.295919
20
616.975250
11
332.217006
21
617.248645
0
LINE
8
annotation
62
1
39
211
10
332.217006
20
617.248645
11
332.092637
21
617.505561
0
LINE
8
annotation
62
1
39
211
10
332.092637
20
617.505561
11
331.924616
21
617.739542
0
LINE
8
annotation
62
1
39
211
10
331.924616
20
617.739542
11
331.714751
21
617.944135
0
LINE
8
annotation
62
1
39
211
10
331.714751
20
617.944135
11
331.464846
21
618.112884
0
LINE
8
annotation
62
1
39
211
10
331.464846
20
618.112884
11
330.002907
21
618.919927
0
LINE
8
annotation
62
1
39
211
10
352.083107
20
653.510804
11
348.495860
21
655.647677
0
LINE
8
annotation
62
1
39
211
10
348.495860
20
655.647677
11
352.921415
21
659.818613
0
LINE
8
annotation
62
1
39
211
10
350.152254
20
652.715059
11
351.861463
21
655.584370
0
LINE
8
annotation
62
1
39
211
10
364.580002
20
694.698047
11
365.961464
21
693.759886
0
LINE
8
annotation
62
1
39
211
10
365.961464
20
693.759886
11
365.961464
21
693.759886
0
LINE
8
annotation
62
1
39
211
10
365.961464
20
693.759886
11
366.224550
21
693.613798
0
LINE
8
annotation
62
1
39
211
10
366.224550
20
693.613798
11
366.501715
21
693.519484
0
LINE
8
annotation
62
1
39
211
10
366.501715
20
693.519484
11
366.786365
21
693.475704
0
LINE
8
annotation
62
1
39
211
10
366.786365
20
693.475704
11
367.071906
21
693.481216
0
LINE
8
annotation
62
1
39
211
10
367.071906
20
693.481216
11
367.351742
21
693.534781
0
LINE
8
annotation
62
1
39
211
10
367.351742
20
693.534781
11
367.619280
21
693.635158
0
LINE
8
annotation
62
1
39
211
10
367.619280
20
693.635158
11
367.867923
21
693.781105
0
LINE
8
annotation
62
1
39
211
10
367.867923
20
693.781105
11
368.091077
21
693.971382
0
LINE
8
annotation
62
1
39
211
10
368.091077
20
693.971382
11
368.282148
21
694.204748
0
LINE
8
annotation
62
1
39
211
10
368.282148
20
694.204748
11
368.749507
21
694.892944
0
LINE
8
annotation
62
1
39
211
10
368.749507
20
694.892944
11
368.749507
21
694.892944
0
LINE
8
annotation
62
1
39
211
10
368.749507
20
694.892944
11
368.895901
21
695.156474
0
LINE
8
annotation
62
1
39
211
10
368.895901
20
695.156474
11
368.990293
21
695.433723
0
LINE
8
annotation
62
1
39
211
10
368.990293
20
695.433723
11
369.033992
21
695.718166
0
LINE
8
annotation
62
1
39
211
10
369.033992
20
695.718166
11
369.028306
21
696.003281
0
LINE
8
annotation
62
1
39
211
10
369.028306
20
696.003281
11
368.974543
21
696.282545
0
LINE
8
annotation
62
1
39
211
10
368.974543
20
696.282545
11
368.874010
21
696.549433
0
LINE
8
annotation
62
1
39
211
10
368.874010
20
696.549433
11
368.728017
21
696.797424
0
LINE
8
annotation
62
1
39
211
10
368.728017
20
696.797424
11
368.537871
21
697.019993
0
LINE
8
annotation
62
1
39
211
10
368.537871
20
697.019993
11
368.304881
21
697.210617
0
LINE
8
annotation
62
1
39
211
10
368.304881
20
697.210617
11
366.923418
21
698.148778
0
LINE
8
annotation
62
1
39
211
10
366.923418
20
698.148778
11
368.804774
21
700.919116
0
LINE
8
annotation
62
1
39
211
10
368.804774
20
700.919116
11
371.567700
21
699.042794
0
LINE
8
annotation
62
1
39
211
10
394.065692
20
730.835049
11
394.065692
21
730.835049
0
LINE
8
annotation
62
1
39
211
10
394.065692
20
730.835049
11
393.581982
21
730.999517
0
LINE
8
annotation
62
1
39
211
10
393.581982
20
730.999517
11
393.089259
21
731.090817
0
LINE
8
annotation
62
1
39
211
10
393.089259
20
731.090817
11
392.594846
21
731.110774
0
LINE
8
annotation
62
1
39
211
10
392.594846
20
731.110774
11
392.106067
21
731.061216
0
LINE
8
annotation
62
1
39
211
10
392.106067
20
731.061216
11
391.630244
21
730.943971
0
LINE
8
annotation
62
1
39
211
10
391.630244
20
730.943971
11
391.174702
21
730.760865
0
LINE
8
annotation
62
1
39
211
10
391.174702
20
730.760865
11
390.746763
21
730.513727
0
LINE
8
annotation
62
1
39
211
10
390.746763
20
730.513727
11
390.353752
21
730.204383
0
LINE
8
annotation
62
1
39
211
10
390.353752
20
730.204383
11
390.002990
21
729.834661
0
LINE
8
annotation
62
1
39
211
10
390.002990
20
729.834661
11
388.418821
21
727.901377
0
LINE
8
annotation
62
1
39
211
10
388.418821
20
727.901377
11
388.418821
21
727.901377
0
LINE
8
annotation
62
1
39
211
10
388.418821
20
727.901377
11
388.249277
21
727.651932
0
LINE
8
annotation
62
1
39
211
10
388.249277
20
727.651932
11
388.130157
21
727.383951
0
LINE
8
annotation
62
1
39
211
10
388.130157
20
727.383951
11
388.060777
21
727.104111
0
LINE
8
annotation
62
1
39
211
10
388.060777
20
727.104111
11
388.040456
21
726.819087
0
LINE
8
annotation
62
1
39
211
10
388.040456
20
726.819087
11
388.068513
21
726.535555
0
LINE
8
annotation
62
1
39
211
10
388.068513
20
726.535555
11
388.144265
21
726.260190
0
LINE
8
annotation
62
1
39
211
10
388.144265
20
726.260190
11
388.267030
21
725.999669
0
LINE
8
annotation
62
1
39
211
10
388.267030
20
725.999669
11
388.436127
21
725.760668
0
LINE
8
annotation
62
1
39
211
10
388.436127
20
725.760668
11
388.650874
21
725.549861
0
LINE
8
annotation
62
1
39
211
10
388.650874
20
725.549861
11
388.650874
21
725.549861
0
LINE
8
annotation
62
1
39
211
10
388.650874
20
725.549861
11
388.900260
21
725.380348
0
LINE
8
annotation
62
1
39
211
10
388.900260
20
725.380348
11
389.168094
21
725.261321
0
LINE
8
annotation
62
1
39
211
10
389.168094
20
725.261321
11
389.447739
21
725.192100
0
LINE
8
annotation
62
1
39
211
10
389.447739
20
725.192100
11
389.732561
21
725.172003
0
LINE
8
annotation
62
1
39
211
10
389.732561
20
725.172003
11
390.015927
21
725.200350
0
LINE
8
annotation
62
1
39
211
10
390.015927
20
725.200350
11
390.291200
21
725.276461
0
LINE
8
annotation
62
1
39
211
10
390.291200
20
725.276461
11
390.551748
21
725.399654
0
LINE
8
annotation
62
1
39
211
10
390.551748
20
725.399654
11
390.790935
21
725.569250
0
LINE
8
annotation
62
1
39
211
10
390.790935
20
725.569250
11
391.002126
21
725.784568
0
LINE
8
annotation
62
1
39
211
10
391.002126
20
725.784568
11
391.529385
21
726.428024
0
LINE
8
annotation
62
1
39
211
10
391.529385
20
726.428024
11
391.529385
21
726.428024
0
LINE
8
annotation
62
1
39
211
10
391.529385
20
726.428024
11
391.698897
21
726.677307
0
LINE
8
annotation
62
1
39
211
10
391.698897
20
726.677307
11
391.817920
21
726.944862
0
LINE
8
annotation
62
1
39
211
10
391.817920
20
726.944862
11
391.887137
21
727.224106
0
LINE
8
annotation
62
1
39
211
10
391.887137
20
727.224106
11
391.907228
21
727.508452
0
LINE
8
annotation
62
1
39
211
10
391.907228
20
727.508452
11
391.878875
21
727.791316
0
LINE
8
annotation
62
1
39
211
10
391.878875
20
727.791316
11
391.802759
21
728.066114
0
LINE
8
annotation
62
1
39
211
10
391.802759
20
728.066114
11
391.679561
21
728.326259
0
LINE
8
annotation
62
1
39
211
10
391.679561
20
728.326259
11
391.509961
21
728.565169
0
LINE
8
annotation
62
1
39
211
10
391.509961
20
728.565169
11
391.294642
21
728.776256
0
LINE
8
annotation
62
1
39
211
10
391.294642
20
728.776256
11
390.002990
21
729.834661
0
LINE
8
annotation
62
1
39
211
10
386.601663
20
726.013748
11
389.509979
21
723.630620
0
LINE
8
annotation
62
1
39
211
10
433.285534
20
732.515630
11
433.751845
21
732.794288
0
LINE
8
annotation
62
1
39
211
10
433.751845
20
732.794288
11
433.589836
21
732.965634
0
LINE
8
annotation
62
1
39
211
10
433.580257
20
732.632051
11
433.499264
21
732.717712
0
LINE
8
annotation
62
1
39
211
10
309.721509
20
669.161850
11
297.834038
21
669.161850
0
LINE
8
annotation
62
1
39
211
10
297.834038
20
669.161850
11
309.721509
21
690.571112
0
LINE
8
annotation
62
1
39
211
10
309.721509
20
690.571112
11
297.834038
21
690.571112
0
LINE
8
annotation
62
1
39
211
10
329.458214
20
679.866481
11
317.751996
21
679.866481
0
LINE
8
annotation
62
1
39
211
10
337.484673
20
669.162521
11
342.238856
21
669.162521
0
LINE
8
annotation
62
1
39
211
10
342.238856
20
669.162521
11
342.238856
21
669.162521
0
LINE
8
annotation
62
1
39
211
10
342.238856
20
669.162521
11
343.093907
21
669.239225
0
LINE
8
annotation
62
1
39
211
10
343.093907
20
669.239225
11
343.898480
21
669.460290
0
LINE
8
annotation
62
1
39
211
10
343.898480
20
669.460290
11
344.639194
21
669.812146
0
LINE
8
annotation
62
1
39
211
10
344.639194
20
669.812146
11
345.302666
21
670.281223
0
LINE
8
annotation
62
1
39
211
10
345.302666
20
670.281223
11
345.875515
21
670.853952
0
LINE
8
annotation
62
1
39
211
10
345.875515
20
670.853952
11
346.344359
21
671.516763
0
LINE
8
annotation
62
1
39
211
10
346.344359
20
671.516763
11
346.695815
21
672.256087
0
LINE
8
annotation
62
1
39
211
10
346.695815
20
672.256087
11
346.916502
21
673.058353
0
LINE
8
annotation
62
1
39
211
10
346.916502
20
673.058353
11
346.993038
21
673.909991
0
LINE
8
annotation
62
1
39
211
10
346.993038
20
673.909991
11
346.993038
21
676.290439
0
LINE
8
annotation
62
1
39
211
10
346.993038
20
676.290439
11
346.993038
21
676.290439
0
LINE
8
annotation
62
1
39
211
10
346.993038
20
676.290439
11
346.916502
21
677.141724
0
LINE
8
annotation
62
1
39
211
10
346.916502
20
677.141724
11
346.695815
21
677.943802
0
LINE
8
annotation
62
1
39
211
10
346.695815
20
677.943802
11
346.344359
21
678.683070
0
LINE
8
annotation
62
1
39
211
10
346.344359
20
678.683070
11
345.875515
21
679.345925
0
LINE
8
annotation
62
1
39
211
10
345.875515
20
679.345925
11
345.302666
21
679.918764
0
LINE
8
annotation
62
1
39
211
10
345.302666
20
679.918764
11
344.639194
21
680.387986
0
LINE
8
annotation
62
1
39
211
10
344.639194
20
680.387986
11
343.898480
21
680.739985
0
LINE
8
annotation
62
1
39
211
10
343.898480
20
680.739985
11
343.093907
21
680.961160
0
LINE
8
annotation
62
1
39
211
10
343.093907
20
680.961160
11
342.238856
21
681.037908
0
LINE
8
annotation
62
1
39
211
10
342.238856
20
681.037908
11
339.858408
21
681.037908
0
LINE
8
annotation
62
1
39
211
10
339.858408
20
681.037908
11
342.238856
21
681.037908
0
LINE
8
annotation
62
1
39
211
10
342.238856
20
681.037908
11
342.238856
21
681.037908
0
LINE
8
annotation
62
1
39
211
10
342.238856
20
681.037908
11
343.093907
21
681.114675
0
LINE
8
annotation
62
1
39
211
10
343.093907
20
681.114675
11
343.898480
21
681.335979
0
LINE
8
annotation
62
1
39
211
10
343.898480
20
681.335979
11
344.639194
21
681.688328
0
LINE
8
annotation
62
1
39
211
10
344.639194
20
681.688328
11
345.302666
21
682.158231
0
LINE
8
annotation
62
1
39
211
10
345.302666
20
682.158231
11
345.875515
21
682.732194
0
LINE
8
annotation
62
1
39
211
10
345.875515
20
682.732194
11
346.344359
21
683.396725
0
LINE
8
annotation
62
1
39
211
10
346.344359
20
683.396725
11
346.695815
21
684.138332
0
LINE
8
annotation
62
1
39
211
10
346.695815
20
684.138332
11
346.916502
21
684.943523
0
LINE
8
annotation
62
1
39
211
10
346.916502
20
684.943523
11
346.993038
21
685.798804
0
LINE
8
annotation
62
1
39
211
10
346.993038
20
685.798804
11
346.993038
21
685.798804
0
LINE
8
annotation
62
1
39
211
10
346.993038
20
685.798804
11
346.916502
21
686.650089
0
LINE
8
annotation
62
1
39
211
10
346.916502
20
686.650089
11
346.695815
21
687.452167
0
LINE
8
annotation
62
1
39
211
10
346.695815
20
687.452167
11
346.344359
21
688.191435
0
LINE
8
annotation
62
1
39
211
10
346.344359
20
688.191435
11
345.875515
21
688.854290
0
LINE
8
annotation
62
1
39
211
10
345.875515
20
688.854290
11
345.302666
21
689.427130
0
LINE
8
annotation
62
1
39
211
10
345.302666
20
689.427130
11
344.639194
21
689.896351
0
LINE
8
annotation
62
1
39
211
10
344.639194
20
689.896351
11
343.898480
21
690.248350
0
LINE
8
annotation
62
1
39
211
10
343.898480
20
690.248350
11
343.093907
21
690.469526
0
LINE
8
annotation
62
1
39
211
10
343.093907
20
690.469526
11
342.238856
21
690.546274
0
LINE
8
annotation
62
1
39
211
10
342.238856
20
690.546274
11
337.484673
21
690.546274
0
LINE
8
frame
62
5
39
2
10
0.000000
20
0.000000
11
600.000000
21
0.000000
0
LINE
8
frame
62
5
39
2
10
600.000000
20
0.000000
11
600.000000
21
900.000000
0
LINE
8
frame
62
5
39
2
10
600.000000
20
900.000000
11
0.000000
21
900.000000
0
LINE
8
frame
62
5
39
2
10
0.000000
20
900.000000
11
0.000000
21
0.000000
0
ENDSEC
0
EOF
