0
SECTION
2
HEADER
9
$ACADVER
1
AC1009
0
ENDSEC
0
SECTION
2
TABLES
0
TABLE
2
VPORT
70
1
0
VPORT
2
ACTIVE
70
0
10
0.0
20
0.0
11
0.0
21
0.0
12
0.0
22
0.0
13
0.0
23
0.0
14
0.0
24
0.0
15
0.0
25
0.0
16
0.0
26
0.0
36
0.0
17
0.0
27
0.0
37
0.0
40
0.0
41
0.0
42
0.0
43
0.0
44
0.0
50
0.0
51
0.0
71
0
72
1000
73
1
74
3
75
0
76
0
77
0
78
0
0
ENDTAB
0
ENDSEC
0
SECTION
2
ENTITIES
0
LINE
8
boundary
62
5
39
2
10
40.996139
20
8.692301
11
56.823414
21
9.525349
0
LINE
8
boundary
62
5
39
2
10
56.823414
20
9.525349
11
63.466349
21
9.874164
0
LINE
8
boundary
62
5
39
2
10
63.466349
20
9.874164
11
74.409470
21
10.449936
0
LINE
8
boundary
62
5
39
2
10
74.409470
20
10.449936
11
74.922986
21
10.476834
0
LINE
8
boundary
62
5
39
2
10
74.922986
20
10.476834
11
76.715997
21
10.570670
0
LINE
8
boundary
62
5
39
2
10
76.715997
20
10.570670
11
79.272478
21
10.704448
0
LINE
8
boundary
62
5
39
2
10
79.272478
20
10.704448
11
79.804477
21
11.410300
0
LINE
8
boundary
62
5
39
2
10
79.804477
20
11.410300
11
80.454553
21
12.083328
0
LINE
8
boundary
62
5
39
2
10
80.454553
20
12.083328
11
80.991826
21
12.404151
0
LINE
8
boundary
62
5
39
2
10
80.991826
20
12.404151
11
81.634093
21
12.625154
0
LINE
8
boundary
62
5
39
2
10
81.634093
20
12.625154
11
82.301330
21
12.830691
0
LINE
8
boundary
62
5
39
2
10
82.301330
20
12.830691
11
82.818151
21
12.810176
0
LINE
8
boundary
62
5
39
2
10
82.818151
20
12.810176
11
85.447259
21
12.509081
0
LINE
8
boundary
62
5
39
2
10
85.447259
20
12.509081
11
87.996491
21
12.389436
0
LINE
8
boundary
62
5
39
2
10
87.996491
20
12.389436
11
88.586493
21
12.330255
0
LINE
8
boundary
62
5
39
2
10
88.586493
20
12.330255
11
89.599896
21
12.156868
0
LINE
8
boundary
62
5
39
2
10
89.599896
20
12.156868
11
94.599663
21
10.967416
0
LINE
8
boundary
62
5
39
2
10
94.599663
20
10.967416
11
95.766480
21
10.709290
0
LINE
8
boundary
62
5
39
2
10
95.766480
20
10.709290
11
99.184572
21
9.899376
0
LINE
8
boundary
62
5
39
2
10
99.184572
20
9.899376
11
103.185307
21
9.006234
0
LINE
8
boundary
62
5
39
2
10
103.185307
20
9.006234
11
105.353365
21
8.520049
0
LINE
8
boundary
62
5
39
2
10
105.353365
20
8.520049
11
106.939094
21
8.225107
0
LINE
8
boundary
62
5
39
2
10
106.939094
20
8.225107
11
109.722939
21
7.518677
0
LINE
8
boundary
62
5
39
2
10
109.722939
20
7.518677
11
109.590994
21
8.396804
0
LINE
8
boundary
62
5
39
2
10
109.590994
20
8.396804
11
64.001634
21
33.563782
0
LINE
8
boundary
62
5
39
2
10
64.001634
20
33.563782
11
66.150327
21
37.456086
0
LINE
8
boundary
62
5
39
2
10
66.150327
20
37.456086
11
127.049244
21
3.837678
0
LINE
8
boundary
62
5
39
2
10
127.049244
20
3.837678
11
128.334440
21
3.606686
0
LINE
8
boundary
62
5
39
2
10
128.334440
20
3.606686
11
129.154121
21
3.480999
0
LINE
8
boundary
62
5
39
2
10
129.154121
20
3.480999
11
130.442610
21
3.283427
0
LINE
8
boundary
62
5
39
2
10
130.442610
20
3.283427
11
132.625951
21
2.972669
0
LINE
8
boundary
62
5
39
2
10
132.625951
20
2.972669
11
133.496659
21
2.849570
0
LINE
8
boundary
62
5
39
2
10
133.496659
20
2.849570
11
136.340835
21
2.523602
0
LINE
8
boundary
62
5
39
2
10
136.340835
20
2.523602
11
137.006396
21
2.452451
0
LINE
8
boundary
62
5
39
2
10
137.006396
20
2.452451
11
138.610422
21
2.303525
0
LINE
8
boundary
62
5
39
2
10
138.610422
20
2.303525
11
139.393126
21
2.236247
0
LINE
8
boundary
62
5
39
2
10
139.393126
20
2.236247
11
140.596640
21
2.135970
0
LINE
8
boundary
62
5
39
2
10
140.596640
20
2.135970
11
142.170323
21
2.018436
0
LINE
8
boundary
62
5
39
2
10
142.170323
20
2.018436
11
143.029423
21
1.959019
0
LINE
8
boundary
62
5
39
2
10
143.029423
20
1.959019
11
144.304936
21
1.883805
0
LINE
8
boundary
62
5
39
2
10
144.304936
20
1.883805
11
144.935022
21
1.850803
0
LINE
8
boundary
62
5
39
2
10
144.935022
20
1.850803
11
146.431404
21
1.775804
0
LINE
8
boundary
62
5
39
2
10
146.431404
20
1.775804
11
147.820365
21
1.721032
0
LINE
8
boundary
62
5
39
2
10
147.820365
20
1.721032
11
148.643306
21
1.686235
0
LINE
8
boundary
62
5
39
2
10
148.643306
20
1.686235
11
150.270441
21
1.636653
0
LINE
8
boundary
62
5
39
2
10
150.270441
20
1.636653
11
152.457483
21
1.598288
0
LINE
8
boundary
62
5
39
2
10
152.457483
20
1.598288
11
153.502194
21
1.587500
0
LINE
8
boundary
62
5
39
2
10
153.502194
20
1.587500
11
155.962386
21
1.591079
0
LINE
8
boundary
62
5
39
2
10
155.962386
20
1.591079
11
156.577748
21
1.597554
0
LINE
8
boundary
62
5
39
2
10
156.577748
20
1.597554
11
159.017927
21
1.643103
0
LINE
8
boundary
62
5
39
2
10
159.017927
20
1.643103
11
161.742566
21
1.737560
0
LINE
8
boundary
62
5
39
2
10
161.742566
20
1.737560
11
164.586768
21
1.886695
0
LINE
8
boundary
62
5
39
2
10
164.586768
20
1.886695
11
166.728083
21
2.044608
0
LINE
8
boundary
62
5
39
2
10
166.728083
20
2.044608
11
167.482768
21
2.092814
0
LINE
8
boundary
62
5
39
2
10
167.482768
20
2.092814
11
168.653328
21
2.195253
0
LINE
8
boundary
62
5
39
2
10
168.653328
20
2.195253
11
170.434780
21
2.359509
0
LINE
8
boundary
62
5
39
2
10
170.434780
20
2.359509
11
171.487322
21
2.485030
0
LINE
8
boundary
62
5
39
2
10
171.487322
20
2.485030
11
173.395504
21
2.687353
0
LINE
8
boundary
62
5
39
2
10
173.395504
20
2.687353
11
175.321610
21
2.935725
0
LINE
8
boundary
62
5
39
2
10
175.321610
20
2.935725
11
176.358131
21
3.078965
0
LINE
8
boundary
62
5
39
2
10
176.358131
20
3.078965
11
177.894041
21
3.295548
0
LINE
8
boundary
62
5
39
2
10
177.894041
20
3.295548
11
180.143532
21
3.658102
0
LINE
8
boundary
62
5
39
2
10
180.143532
20
3.658102
11
181.710357
21
3.919942
0
LINE
8
boundary
62
5
39
2
10
181.710357
20
3.919942
11
183.838563
21
4.366850
0
LINE
8
boundary
62
5
39
2
10
183.838563
20
4.366850
11
187.099435
21
5.148379
0
LINE
8
boundary
62
5
39
2
10
187.099435
20
5.148379
11
187.717326
21
5.290674
0
LINE
8
boundary
62
5
39
2
10
187.717326
20
5.290674
11
189.144738
21
5.708631
0
LINE
8
boundary
62
5
39
2
10
189.144738
20
5.708631
11
190.961801
21
6.227122
0
LINE
8
boundary
62
5
39
2
10
190.961801
20
6.227122
11
193.696081
21
7.150056
0
LINE
8
boundary
62
5
39
2
10
193.696081
20
7.150056
11
195.917085
21
8.041717
0
LINE
8
boundary
62
5
39
2
10
195.917085
20
8.041717
11
197.699285
21
8.664915
0
LINE
8
boundary
62
5
39
2
10
197.699285
20
8.664915
11
198.666260
21
9.295188
0
LINE
8
boundary
62
5
39
2
10
198.666260
20
9.295188
11
201.382238
21
10.570042
0
LINE
8
boundary
62
5
39
2
10
201.382238
20
10.570042
11
203.808856
21
11.870128
0
LINE
8
boundary
62
5
39
2
10
203.808856
20
11.870128
11
205.010927
21
12.606563
0
LINE
8
boundary
62
5
39
2
10
205.010927
20
12.606563
11
204.907882
21
13.488548
0
LINE
8
boundary
62
5
39
2
10
204.907882
20
13.488548
11
106.072688
21
72.363301
0
LINE
8
boundary
62
5
39
2
10
106.072688
20
72.363301
11
108.348009
21
76.182965
0
LINE
8
boundary
62
5
39
2
10
108.348009
20
76.182965
11
209.381165
21
15.998916
0
LINE
8
boundary
62
5
39
2
10
209.381165
20
15.998916
11
210.205803
21
16.328295
0
LINE
8
boundary
62
5
39
2
10
210.205803
20
16.328295
11
210.707232
21
16.721394
0
LINE
8
boundary
62
5
39
2
10
210.707232
20
16.721394
11
212.667748
21
18.269374
0
LINE
8
boundary
62
5
39
2
10
212.667748
20
18.269374
11
214.465149
21
19.868874
0
LINE
8
boundary
62
5
39
2
10
214.465149
20
19.868874
11
216.110794
21
21.522768
0
LINE
8
boundary
62
5
39
2
10
216.110794
20
21.522768
11
217.623713
21
23.238172
0
LINE
8
boundary
62
5
39
2
10
217.623713
20
23.238172
11
220.569848
21
26.946685
0
LINE
8
boundary
62
5
39
2
10
220.569848
20
26.946685
11
221.560026
21
28.210425
0
LINE
8
boundary
62
5
39
2
10
221.560026
20
28.210425
11
222.469754
21
29.513750
0
LINE
8
boundary
62
5
39
2
10
222.469754
20
29.513750
11
223.303813
21
30.854831
0
LINE
8
boundary
62
5
39
2
10
223.303813
20
30.854831
11
224.892475
21
33.526251
0
LINE
8
boundary
62
5
39
2
10
224.892475
20
33.526251
11
225.650055
21
34.904083
0
LINE
8
boundary
62
5
39
2
10
225.650055
20
34.904083
11
226.326440
21
36.308493
0
LINE
8
boundary
62
5
39
2
10
226.326440
20
36.308493
11
227.025316
21
37.717215
0
LINE
8
boundary
62
5
39
2
10
227.025316
20
37.717215
11
228.267546
21
40.617782
0
LINE
8
boundary
62
5
39
2
10
228.267546
20
40.617782
11
229.188115
21
43.029082
0
LINE
8
boundary
62
5
39
2
10
229.188115
20
43.029082
11
229.449038
21
43.828321
0
LINE
8
boundary
62
5
39
2
10
229.449038
20
43.828321
11
230.099090
21
45.795261
0
LINE
8
boundary
62
5
39
2
10
230.099090
20
45.795261
11
230.766902
21
48.223297
0
LINE
8
boundary
62
5
39
2
10
230.766902
20
48.223297
11
231.332420
21
50.782451
0
LINE
8
boundary
62
5
39
2
10
231.332420
20
50.782451
11
231.526351
21
51.927853
0
LINE
8
boundary
62
5
39
2
10
231.526351
20
51.927853
11
231.706214
21
52.975977
0
LINE
8
boundary
62
5
39
2
10
231.706214
20
52.975977
11
231.858590
21
54.169770
0
LINE
8
boundary
62
5
39
2
10
231.858590
20
54.169770
11
231.808019
21
55.056313
0
LINE
8
boundary
62
5
39
2
10
231.808019
20
55.056313
11
126.895724
21
126.303008
0
LINE
8
boundary
62
5
39
2
10
126.895724
20
126.303008
11
129.393508
21
129.981050
0
LINE
8
boundary
62
5
39
2
10
129.393508
20
129.981050
11
231.383404
21
60.718977
0
LINE
8
boundary
62
5
39
2
10
231.383404
20
60.718977
11
232.226119
21
60.998884
0
LINE
8
boundary
62
5
39
2
10
232.226119
20
60.998884
11
232.204006
21
62.738749
0
LINE
8
boundary
62
5
39
2
10
232.204006
20
62.738749
11
232.064808
21
65.109260
0
LINE
8
boundary
62
5
39
2
10
232.064808
20
65.109260
11
232.010602
21
65.919449
0
LINE
8
boundary
62
5
39
2
10
232.010602
20
65.919449
11
231.643437
21
69.154541
0
LINE
8
boundary
62
5
39
2
10
231.643437
20
69.154541
11
231.514237
21
69.916217
0
LINE
8
boundary
62
5
39
2
10
231.514237
20
69.916217
11
231.082179
21
72.414205
0
LINE
8
boundary
62
5
39
2
10
231.082179
20
72.414205
11
230.938899
21
73.058177
0
LINE
8
boundary
62
5
39
2
10
230.938899
20
73.058177
11
229.945771
21
77.038900
0
LINE
8
boundary
62
5
39
2
10
229.945771
20
77.038900
11
228.974698
21
80.037020
0
LINE
8
boundary
62
5
39
2
10
228.974698
20
80.037020
11
228.546651
21
81.286075
0
LINE
8
boundary
62
5
39
2
10
228.546651
20
81.286075
11
227.419704
21
83.865926
0
LINE
8
boundary
62
5
39
2
10
227.419704
20
83.865926
11
225.191948
21
89.304965
0
LINE
8
boundary
62
5
39
2
10
225.191948
20
89.304965
11
224.246806
21
91.011014
0
LINE
8
boundary
62
5
39
2
10
224.246806
20
91.011014
11
219.496873
21
101.049401
0
LINE
8
boundary
62
5
39
2
10
219.496873
20
101.049401
11
217.667668
21
104.014849
0
LINE
8
boundary
62
5
39
2
10
217.667668
20
104.014849
11
214.909625
21
109.094729
0
LINE
8
boundary
62
5
39
2
10
214.909625
20
109.094729
11
214.053247
21
111.017058
0
LINE
8
boundary
62
5
39
2
10
214.053247
20
111.017058
11
213.495397
21
112.265190
0
LINE
8
boundary
62
5
39
2
10
213.495397
20
112.265190
11
210.727193
21
117.774997
0
LINE
8
boundary
62
5
39
2
10
210.727193
20
117.774997
11
208.208790
21
123.682350
0
LINE
8
boundary
62
5
39
2
10
208.208790
20
123.682350
11
207.790308
21
124.523678
0
LINE
8
boundary
62
5
39
2
10
207.790308
20
124.523678
11
207.254003
21
125.650926
0
LINE
8
boundary
62
5
39
2
10
207.254003
20
125.650926
11
205.151284
21
131.022364
0
LINE
8
boundary
62
5
39
2
10
205.151284
20
131.022364
11
203.592017
21
135.495418
0
LINE
8
boundary
62
5
39
2
10
203.592017
20
135.495418
11
202.850086
21
137.388115
0
LINE
8
boundary
62
5
39
2
10
202.850086
20
137.388115
11
202.029282
21
139.415505
0
LINE
8
boundary
62
5
39
2
10
202.029282
20
139.415505
11
201.036034
21
142.658687
0
LINE
8
boundary
62
5
39
2
10
201.036034
20
142.658687
11
144.488540
21
188.994754
0
LINE
8
boundary
62
5
39
2
10
144.488540
20
188.994754
11
147.306462
21
192.433682
0
LINE
8
boundary
62
5
39
2
10
147.306462
20
192.433682
11
197.546094
21
151.266395
0
LINE
8
boundary
62
5
39
2
10
197.546094
20
151.266395
11
198.410538
21
151.469509
0
LINE
8
boundary
62
5
39
2
10
198.410538
20
151.469509
11
197.170587
21
155.329132
0
LINE
8
boundary
62
5
39
2
10
197.170587
20
155.329132
11
195.392862
21
159.157084
0
LINE
8
boundary
62
5
39
2
10
195.392862
20
159.157084
11
193.758510
21
162.404912
0
LINE
8
boundary
62
5
39
2
10
193.758510
20
162.404912
11
192.094735
21
165.431123
0
LINE
8
boundary
62
5
39
2
10
192.094735
20
165.431123
11
190.974459
21
167.462213
0
LINE
8
boundary
62
5
39
2
10
190.974459
20
167.462213
11
190.033942
21
169.006556
0
LINE
8
boundary
62
5
39
2
10
190.033942
20
169.006556
11
188.892897
21
171.017871
0
LINE
8
boundary
62
5
39
2
10
188.892897
20
171.017871
11
187.304216
21
173.424771
0
LINE
8
boundary
62
5
39
2
10
187.304216
20
173.424771
11
186.493174
21
174.746311
0
LINE
8
boundary
62
5
39
2
10
186.493174
20
174.746311
11
185.674326
21
175.937891
0
LINE
8
boundary
62
5
39
2
10
185.674326
20
175.937891
11
184.873901
21
176.945610
0
LINE
8
boundary
62
5
39
2
10
184.873901
20
176.945610
11
184.142909
21
177.742374
0
LINE
8
boundary
62
5
39
2
10
184.142909
20
177.742374
11
181.616141
21
180.527382
0
LINE
8
boundary
62
5
39
2
10
181.616141
20
180.527382
11
177.203274
21
184.666503
0
LINE
8
boundary
62
5
39
2
10
177.203274
20
184.666503
11
176.762425
21
185.033900
0
LINE
8
boundary
62
5
39
2
10
176.762425
20
185.033900
11
171.923620
21
188.855900
0
LINE
8
boundary
62
5
39
2
10
171.923620
20
188.855900
11
169.766488
21
190.373523
0
LINE
8
boundary
62
5
39
2
10
169.766488
20
190.373523
11
166.529532
21
192.694757
0
LINE
8
boundary
62
5
39
2
10
166.529532
20
192.694757
11
165.064181
21
193.646236
0
LINE
8
boundary
62
5
39
2
10
165.064181
20
193.646236
11
162.237336
21
195.483862
0
LINE
8
boundary
62
5
39
2
10
162.237336
20
195.483862
11
160.801819
21
196.439431
0
LINE
8
boundary
62
5
39
2
10
160.801819
20
196.439431
11
155.829627
21
199.492036
0
LINE
8
boundary
62
5
39
2
10
155.829627
20
199.492036
11
154.938073
21
200.033538
0
LINE
8
boundary
62
5
39
2
10
154.938073
20
200.033538
11
148.805254
21
203.580950
0
LINE
8
boundary
62
5
39
2
10
148.805254
20
203.580950
11
147.065925
21
204.514441
0
LINE
8
boundary
62
5
39
2
10
147.065925
20
204.514441
11
146.315740
21
204.930619
0
LINE
8
boundary
62
5
39
2
10
146.315740
20
204.930619
11
144.399608
21
205.983990
0
LINE
8
boundary
62
5
39
2
10
144.399608
20
205.983990
11
142.553157
21
206.982475
0
LINE
8
boundary
62
5
39
2
10
142.553157
20
206.982475
11
140.600885
21
207.972134
0
LINE
8
boundary
62
5
39
2
10
140.600885
20
207.972134
11
139.444634
21
208.522698
0
LINE
8
boundary
62
5
39
2
10
139.444634
20
208.522698
11
135.315100
21
210.353112
0
LINE
8
boundary
62
5
39
2
10
135.315100
20
210.353112
11
131.758079
21
212.034905
0
LINE
8
boundary
62
5
39
2
10
131.758079
20
212.034905
11
128.984595
21
213.201367
0
LINE
8
boundary
62
5
39
2
10
128.984595
20
213.201367
11
126.687105
21
214.043786
0
LINE
8
boundary
62
5
39
2
10
126.687105
20
214.043786
11
124.021752
21
215.040879
0
LINE
8
boundary
62
5
39
2
10
124.021752
20
215.040879
11
122.663237
21
215.675289
0
LINE
8
boundary
62
5
39
2
10
122.663237
20
215.675289
11
121.871383
21
216.054111
0
LINE
8
boundary
62
5
39
2
10
121.871383
20
216.054111
11
116.392687
21
218.103263
0
LINE
8
boundary
62
5
39
2
10
116.392687
20
218.103263
11
115.843126
21
218.400378
0
LINE
8
boundary
62
5
39
2
10
115.843126
20
218.400378
11
114.891348
21
218.902642
0
LINE
8
boundary
62
5
39
2
10
114.891348
20
218.902642
11
112.833163
21
219.977227
0
LINE
8
boundary
62
5
39
2
10
112.833163
20
219.977227
11
111.441089
21
220.699041
0
LINE
8
boundary
62
5
39
2
10
111.441089
20
220.699041
11
109.892725
21
221.508226
0
LINE
8
boundary
62
5
39
2
10
109.892725
20
221.508226
11
109.384098
21
221.804625
0
LINE
8
boundary
62
5
39
2
10
109.384098
20
221.804625
11
108.794689
21
222.271069
0
LINE
8
boundary
62
5
39
2
10
108.794689
20
222.271069
11
107.252419
21
223.322351
0
LINE
8
boundary
62
5
39
2
10
107.252419
20
223.322351
11
104.545022
21
225.180030
0
LINE
8
boundary
62
5
39
2
10
104.545022
20
225.180030
11
103.372082
21
225.930678
0
LINE
8
boundary
62
5
39
2
10
103.372082
20
225.930678
11
102.771564
21
226.394398
0
LINE
8
boundary
62
5
39
2
10
102.771564
20
226.394398
11
102.345584
21
226.683212
0
LINE
8
boundary
62
5
39
2
10
102.345584
20
226.683212
11
100.099997
21
228.280113
0
LINE
8
boundary
62
5
39
2
10
100.099997
20
228.280113
11
95.592140
21
231.861379
0
LINE
8
boundary
62
5
39
2
10
95.592140
20
231.861379
11
94.821757
21
232.485072
0
LINE
8
boundary
62
5
39
2
10
94.821757
20
232.485072
11
93.897096
21
233.109174
0
LINE
8
boundary
62
5
39
2
10
93.897096
20
233.109174
11
91.206080
21
234.982435
0
LINE
8
boundary
62
5
39
2
10
91.206080
20
234.982435
11
88.878256
21
236.620010
0
LINE
8
boundary
62
5
39
2
10
88.878256
20
236.620010
11
88.045674
21
237.075480
0
LINE
8
boundary
62
5
39
2
10
88.045674
20
237.075480
11
83.870733
21
239.547917
0
LINE
8
boundary
62
5
39
2
10
83.870733
20
239.547917
11
83.166109
21
239.907968
0
LINE
8
boundary
62
5
39
2
10
83.166109
20
239.907968
11
81.296926
21
240.871450
0
LINE
8
boundary
62
5
39
2
10
81.296926
20
240.871450
11
74.532584
21
243.620195
0
LINE
8
boundary
62
5
39
2
10
74.532584
20
243.620195
11
73.694772
21
244.028996
0
LINE
8
boundary
62
5
39
2
10
73.694772
20
244.028996
11
69.850537
21
245.098832
0
LINE
8
boundary
62
5
39
2
10
69.850537
20
245.098832
11
65.915678
21
246.344407
0
LINE
8
boundary
62
5
39
2
10
65.915678
20
246.344407
11
64.518512
21
246.634936
0
LINE
8
boundary
62
5
39
2
10
64.518512
20
246.634936
11
62.563018
21
246.899277
0
LINE
8
boundary
62
5
39
2
10
62.563018
20
246.899277
11
60.507679
21
247.041240
0
LINE
8
boundary
62
5
39
2
10
60.507679
20
247.041240
11
58.550070
21
247.099545
0
LINE
8
boundary
62
5
39
2
10
58.550070
20
247.099545
11
58.014880
21
247.165693
0
LINE
8
boundary
62
5
39
2
10
58.014880
20
247.165693
11
55.080857
21
246.868556
0
LINE
8
boundary
62
5
39
2
10
55.080857
20
246.868556
11
52.975991
21
246.677668
0
LINE
8
boundary
62
5
39
2
10
52.975991
20
246.677668
11
51.662652
21
246.401396
0
LINE
8
boundary
62
5
39
2
10
51.662652
20
246.401396
11
50.065854
21
245.972459
0
LINE
8
boundary
62
5
39
2
10
50.065854
20
245.972459
11
44.910255
21
243.205266
0
LINE
8
boundary
62
5
39
2
10
44.910255
20
243.205266
11
42.402983
21
242.124301
0
LINE
8
boundary
62
5
39
2
10
42.402983
20
242.124301
11
41.711760
21
241.621424
0
LINE
8
boundary
62
5
39
2
10
41.711760
20
241.621424
11
40.790710
21
240.729432
0
LINE
8
boundary
62
5
39
2
10
40.790710
20
240.729432
11
37.479282
21
237.863118
0
LINE
8
boundary
62
5
39
2
10
37.479282
20
237.863118
11
35.633248
21
235.229155
0
LINE
8
boundary
62
5
39
2
10
35.633248
20
235.229155
11
34.121981
21
232.967951
0
LINE
8
boundary
62
5
39
2
10
34.121981
20
232.967951
11
32.578750
21
230.263513
0
LINE
8
boundary
62
5
39
2
10
32.578750
20
230.263513
11
31.266994
21
227.553284
0
LINE
8
boundary
62
5
39
2
10
31.266994
20
227.553284
11
31.043085
21
227.029280
0
LINE
8
boundary
62
5
39
2
10
31.043085
20
227.029280
11
30.101407
21
224.776148
0
LINE
8
boundary
62
5
39
2
10
30.101407
20
224.776148
11
29.821659
21
224.021942
0
LINE
8
boundary
62
5
39
2
10
29.821659
20
224.021942
11
29.096819
21
222.035446
0
LINE
8
boundary
62
5
39
2
10
29.096819
20
222.035446
11
28.926726
21
221.525381
0
LINE
8
boundary
62
5
39
2
10
28.926726
20
221.525381
11
28.755451
21
220.974570
0
LINE
8
boundary
62
5
39
2
10
28.755451
20
220.974570
11
28.228539
21
219.314712
0
LINE
8
boundary
62
5
39
2
10
28.228539
20
219.314712
11
28.048163
21
218.688623
0
LINE
8
boundary
62
5
39
2
10
28.048163
20
218.688623
11
27.858403
21
217.982984
0
LINE
8
boundary
62
5
39
2
10
27.858403
20
217.982984
11
27.498683
21
216.681136
0
LINE
8
boundary
62
5
39
2
10
27.498683
20
216.681136
11
27.299953
21
215.884282
0
LINE
8
boundary
62
5
39
2
10
27.299953
20
215.884282
11
27.080900
21
214.950442
0
LINE
8
boundary
62
5
39
2
10
27.080900
20
214.950442
11
26.872288
21
214.089481
0
LINE
8
boundary
62
5
39
2
10
26.872288
20
214.089481
11
26.656589
21
213.102069
0
LINE
8
boundary
62
5
39
2
10
26.656589
20
213.102069
11
26.376309
21
211.783577
0
LINE
8
boundary
62
5
39
2
10
26.376309
20
211.783577
11
26.220329
21
211.008979
0
LINE
8
boundary
62
5
39
2
10
26.220329
20
211.008979
11
25.961051
21
209.694648
0
LINE
8
boundary
62
5
39
2
10
25.961051
20
209.694648
11
25.678577
21
208.233109
0
LINE
8
boundary
62
5
39
2
10
25.678577
20
208.233109
11
25.519480
21
207.361131
0
LINE
8
boundary
62
5
39
2
10
25.519480
20
207.361131
11
25.375459
21
206.527031
0
LINE
8
boundary
62
5
39
2
10
25.375459
20
206.527031
11
25.001383
21
204.429056
0
LINE
8
boundary
62
5
39
2
10
25.001383
20
204.429056
11
24.708037
21
202.668215
0
LINE
8
boundary
62
5
39
2
10
24.708037
20
202.668215
11
24.050277
21
198.531626
0
LINE
8
boundary
62
5
39
2
10
24.050277
20
198.531626
11
23.871319
21
197.144022
0
LINE
8
boundary
62
5
39
2
10
23.871319
20
197.144022
11
23.713887
21
196.085416
0
LINE
8
boundary
62
5
39
2
10
23.713887
20
196.085416
11
23.285485
21
192.415443
0
LINE
8
boundary
62
5
39
2
10
23.285485
20
192.415443
11
22.249670
21
186.595974
0
LINE
8
boundary
62
5
39
2
10
22.249670
20
186.595974
11
21.182057
21
180.474203
0
LINE
8
boundary
62
5
39
2
10
21.182057
20
180.474203
11
20.155448
21
176.662946
0
LINE
8
boundary
62
5
39
2
10
20.155448
20
176.662946
11
19.636032
21
174.561361
0
LINE
8
boundary
62
5
39
2
10
19.636032
20
174.561361
11
18.805613
21
171.534546
0
LINE
8
boundary
62
5
39
2
10
18.805613
20
171.534546
11
18.156521
21
169.125340
0
LINE
8
boundary
62
5
39
2
10
18.156521
20
169.125340
11
17.931944
21
168.450759
0
LINE
8
boundary
62
5
39
2
10
17.931944
20
168.450759
11
17.100475
21
166.207472
0
LINE
8
boundary
62
5
39
2
10
17.100475
20
166.207472
11
16.496810
21
164.437104
0
LINE
8
boundary
62
5
39
2
10
16.496810
20
164.437104
11
15.844541
21
162.414838
0
LINE
8
boundary
62
5
39
2
10
15.844541
20
162.414838
11
15.357518
21
160.993060
0
LINE
8
boundary
62
5
39
2
10
15.357518
20
160.993060
11
15.077710
21
160.109807
0
LINE
8
boundary
62
5
39
2
10
15.077710
20
160.109807
11
14.196427
21
157.592999
0
LINE
8
boundary
62
5
39
2
10
14.196427
20
157.592999
11
13.235793
21
154.992749
0
LINE
8
boundary
62
5
39
2
10
13.235793
20
154.992749
11
12.379102
21
152.539048
0
LINE
8
boundary
62
5
39
2
10
12.379102
20
152.539048
11
12.198167
21
152.057535
0
LINE
8
boundary
62
5
39
2
10
12.198167
20
152.057535
11
11.452934
21
149.904725
0
LINE
8
boundary
62
5
39
2
10
11.452934
20
149.904725
11
9.891681
21
145.239371
0
LINE
8
boundary
62
5
39
2
10
9.891681
20
145.239371
11
8.934521
21
142.414399
0
LINE
8
boundary
62
5
39
2
10
8.934521
20
142.414399
11
7.181815
21
136.754902
0
LINE
8
boundary
62
5
39
2
10
7.181815
20
136.754902
11
5.867447
21
131.919940
0
LINE
8
boundary
62
5
39
2
10
5.867447
20
131.919940
11
5.319640
21
129.877572
0
LINE
8
boundary
62
5
39
2
10
5.319640
20
129.877572
11
4.528323
21
126.941848
0
LINE
8
boundary
62
5
39
2
10
4.528323
20
126.941848
11
3.560260
21
122.939068
0
LINE
8
boundary
62
5
39
2
10
3.560260
20
122.939068
11
3.350813
21
121.543725
0
LINE
8
boundary
62
5
39
2
10
3.350813
20
121.543725
11
3.209442
21
120.537449
0
LINE
8
boundary
62
5
39
2
10
3.209442
20
120.537449
11
2.367813
21
114.098886
0
LINE
8
boundary
62
5
39
2
10
2.367813
20
114.098886
11
1.769979
21
109.840259
0
LINE
8
boundary
62
5
39
2
10
1.769979
20
109.840259
11
1.683924
21
109.169241
0
LINE
8
boundary
62
5
39
2
10
1.683924
20
109.169241
11
1.587500
21
108.258109
0
LINE
8
boundary
62
5
39
2
10
1.587500
20
108.258109
11
1.642733
21
104.041354
0
LINE
8
boundary
62
5
39
2
10
1.642733
20
104.041354
11
1.784076
21
99.595080
0
LINE
8
boundary
62
5
39
2
10
1.784076
20
99.595080
11
1.820166
21
99.023895
0
LINE
8
boundary
62
5
39
2
10
1.820166
20
99.023895
11
1.970905
21
97.319407
0
LINE
8
boundary
62
5
39
2
10
1.970905
20
97.319407
11
2.414281
21
93.191909
0
LINE
8
boundary
62
5
39
2
10
2.414281
20
93.191909
11
2.746788
21
91.110178
0
LINE
8
boundary
62
5
39
2
10
2.746788
20
91.110178
11
3.370726
21
88.247252
0
LINE
8
boundary
62
5
39
2
10
3.370726
20
88.247252
11
3.866035
21
85.779131
0
LINE
8
boundary
62
5
39
2
10
3.866035
20
85.779131
11
4.262206
21
83.951736
0
LINE
8
boundary
62
5
39
2
10
4.262206
20
83.951736
11
4.888280
21
80.385778
0
LINE
8
boundary
62
5
39
2
10
4.888280
20
80.385778
11
5.286302
21
78.728849
0
LINE
8
boundary
62
5
39
2
10
5.286302
20
78.728849
11
5.682147
21
77.061723
0
LINE
8
boundary
62
5
39
2
10
5.682147
20
77.061723
11
6.329654
21
74.644759
0
LINE
8
boundary
62
5
39
2
10
6.329654
20
74.644759
11
6.928159
21
71.790973
0
LINE
8
boundary
62
5
39
2
10
6.928159
20
71.790973
11
7.259702
21
70.111871
0
LINE
8
boundary
62
5
39
2
10
7.259702
20
70.111871
11
8.104274
21
66.562134
0
LINE
8
boundary
62
5
39
2
10
8.104274
20
66.562134
11
8.469372
21
64.983073
0
LINE
8
boundary
62
5
39
2
10
8.469372
20
64.983073
11
8.578398
21
64.479945
0
LINE
8
boundary
62
5
39
2
10
8.578398
20
64.479945
11
9.133242
21
62.269601
0
LINE
8
boundary
62
5
39
2
10
9.133242
20
62.269601
11
10.433041
21
58.065010
0
LINE
8
boundary
62
5
39
2
10
10.433041
20
58.065010
11
11.350572
21
53.311078
0
LINE
8
boundary
62
5
39
2
10
11.350572
20
53.311078
11
11.579596
21
52.561094
0
LINE
8
boundary
62
5
39
2
10
11.579596
20
52.561094
11
11.825554
21
51.469638
0
LINE
8
boundary
62
5
39
2
10
11.825554
20
51.469638
11
12.520593
21
49.587947
0
LINE
8
boundary
62
5
39
2
10
12.520593
20
49.587947
11
13.252188
21
47.628558
0
LINE
8
boundary
62
5
39
2
10
13.252188
20
47.628558
11
14.096922
21
44.864915
0
LINE
8
boundary
62
5
39
2
10
14.096922
20
44.864915
11
14.400289
21
43.914254
0
LINE
8
boundary
62
5
39
2
10
14.400289
20
43.914254
11
16.382370
21
39.331062
0
LINE
8
boundary
62
5
39
2
10
16.382370
20
39.331062
11
16.730070
21
38.541293
0
LINE
8
boundary
62
5
39
2
10
16.730070
20
38.541293
11
18.716543
21
34.780738
0
LINE
8
boundary
62
5
39
2
10
18.716543
20
34.780738
11
19.809028
21
32.711053
0
LINE
8
boundary
62
5
39
2
10
19.809028
20
32.711053
11
20.071249
21
32.201789
0
LINE
8
boundary
62
5
39
2
10
20.071249
20
32.201789
11
20.398588
21
31.629810
0
LINE
8
boundary
62
5
39
2
10
20.398588
20
31.629810
11
21.123232
21
30.464440
0
LINE
8
boundary
62
5
39
2
10
21.123232
20
30.464440
11
21.507847
21
29.863414
0
LINE
8
boundary
62
5
39
2
10
21.507847
20
29.863414
11
22.290322
21
28.654609
0
LINE
8
boundary
62
5
39
2
10
22.290322
20
28.654609
11
23.282363
21
27.147162
0
LINE
8
boundary
62
5
39
2
10
23.282363
20
27.147162
11
23.912749
21
26.214741
0
LINE
8
boundary
62
5
39
2
10
23.912749
20
26.214741
11
24.721790
21
25.117140
0
LINE
8
boundary
62
5
39
2
10
24.721790
20
25.117140
11
25.080843
21
24.635366
0
LINE
8
boundary
62
5
39
2
10
25.080843
20
24.635366
11
25.970865
21
23.465082
0
LINE
8
boundary
62
5
39
2
10
25.970865
20
23.465082
11
26.346318
21
22.968273
0
LINE
8
boundary
62
5
39
2
10
26.346318
20
22.968273
11
26.893774
21
22.256530
0
LINE
8
boundary
62
5
39
2
10
26.893774
20
22.256530
11
27.821931
21
21.081828
0
LINE
8
boundary
62
5
39
2
10
27.821931
20
21.081828
11
28.385976
21
20.419034
0
LINE
8
boundary
62
5
39
2
10
28.385976
20
20.419034
11
28.967757
21
19.731308
0
LINE
8
boundary
62
5
39
2
10
28.967757
20
19.731308
11
30.181598
21
18.341734
0
LINE
8
boundary
62
5
39
2
10
30.181598
20
18.341734
11
30.670342
21
17.806744
0
LINE
8
boundary
62
5
39
2
10
30.670342
20
17.806744
11
31.261660
21
17.190796
0
LINE
8
boundary
62
5
39
2
10
31.261660
20
17.190796
11
34.827873
21
13.615560
0
LINE
8
boundary
62
5
39
2
10
34.827873
20
13.615560
11
35.710301
21
12.712960
0
LINE
8
boundary
62
5
39
2
10
35.710301
20
12.712960
11
36.448452
21
12.008191
0
LINE
8
boundary
62
5
39
2
10
36.448452
20
12.008191
11
36.818314
21
11.643066
0
LINE
8
boundary
62
5
39
2
10
36.818314
20
11.643066
11
37.745976
21
10.698833
0
LINE
8
boundary
62
5
39
2
10
37.745976
20
10.698833
11
38.140298
21
10.304582
0
LINE
8
boundary
62
5
39
2
10
38.140298
20
10.304582
11
38.701898
21
9.718189
0
LINE
8
boundary
62
5
39
2
10
38.701898
20
9.718189
11
39.060720
21
9.326675
0
LINE
8
boundary
62
5
39
2
10
39.060720
20
9.326675
11
39.533906
21
8.814510
0
LINE
8
boundary
62
5
39
2
10
39.533906
20
8.814510
11
40.996139
21
8.692301
0
LINE
8
annotation
62
1
39
211
10
53.455644
20
37.630175
11
54.917583
21
36.823132
0
LINE
8
annotation
62
1
39
211
10
54.917583
20
36.823132
11
54.917583
21
36.823132
0
LINE
8
annotation
62
1
39
211
10
54.917583
20
36.823132
11
55.193537
21
36.701570
0
LINE
8
annotation
62
1
39
211
10
55.193537
20
36.701570
11
55.478475
21
36.632969
0
LINE
8
annotation
62
1
39
211
10
55.478475
20
36.632969
11
55.765978
21
36.615427
0
LINE
8
annotation
62
1
39
211
10
55.765978
20
36.615427
11
56.049627
21
36.647044
0
LINE
8
annotation
62
1
39
211
10
56.049627
20
36.647044
11
56.323005
21
36.725918
0
LINE
8
annotation
62
1
39
211
10
56.323005
20
36.725918
11
56.579692
21
36.850148
0
LINE
8
annotation
62
1
39
211
10
56.579692
20
36.850148
11
56.813271
21
37.017833
0
LINE
8
annotation
62
1
39
211
10
56.813271
20
37.017833
11
57.017322
21
37.227072
0
LINE
8
annotation
62
1
39
211
10
57.017322
20
37.227072
11
57.185426
21
37.475963
0
LINE
8
annotation
62
1
39
211
10
57.185426
20
37.475963
11
57.589518
21
38.207965
0
LINE
8
annotation
62
1
39
211
10
57.589518
20
38.207965
11
57.589518
21
38.207965
0
LINE
8
annotation
62
1
39
211
10
57.589518
20
38.207965
11
57.710492
21
38.482733
0
LINE
8
annotation
62
1
39
211
10
57.710492
20
38.482733
11
57.778785
21
38.766839
0
LINE
8
annotation
62
1
39
211
10
57.778785
20
38.766839
11
57.796205
21
39.053830
0
LINE
8
annotation
62
1
39
211
10
57.796205
20
39.053830
11
57.764555
21
39.337250
0
LINE
8
annotation
62
1
39
211
10
57.764555
20
39.337250
11
57.685643
21
39.610645
0
LINE
8
annotation
62
1
39
211
10
57.685643
20
39.610645
11
57.561273
21
39.867561
0
LINE
8
annotation
62
1
39
211
10
57.561273
20
39.867561
11
57.393253
21
40.101542
0
LINE
8
annotation
62
1
39
211
10
57.393253
20
40.101542
11
57.183387
21
40.306135
0
LINE
8
annotation
62
1
39
211
10
57.183387
20
40.306135
11
56.933482
21
40.474884
0
LINE
8
annotation
62
1
39
211
10
56.933482
20
40.474884
11
56.201480
21
40.878975
0
LINE
8
annotation
62
1
39
211
10
56.201480
20
40.878975
11
56.933482
21
40.474884
0
LINE
8
annotation
62
1
39
211
10
56.933482
20
40.474884
11
56.933482
21
40.474884
0
LINE
8
annotation
62
1
39
211
10
56.933482
20
40.474884
11
57.209447
21
40.353341
0
LINE
8
annotation
62
1
39
211
10
57.209447
20
40.353341
11
57.494425
21
40.284814
0
LINE
8
annotation
62
1
39
211
10
57.494425
20
40.284814
11
57.782012
21
40.267424
0
LINE
8
annotation
62
1
39
211
10
57.782012
20
40.267424
11
58.065802
21
40.299294
0
LINE
8
annotation
62
1
39
211
10
58.065802
20
40.299294
11
58.339389
21
40.378548
0
LINE
8
annotation
62
1
39
211
10
58.339389
20
40.378548
11
58.596368
21
40.503307
0
LINE
8
annotation
62
1
39
211
10
58.596368
20
40.503307
11
58.830334
21
40.671694
0
LINE
8
annotation
62
1
39
211
10
58.830334
20
40.671694
11
59.034882
21
40.881832
0
LINE
8
annotation
62
1
39
211
10
59.034882
20
40.881832
11
59.203605
21
41.131844
0
LINE
8
annotation
62
1
39
211
10
59.203605
20
41.131844
11
59.203605
21
41.131844
0
LINE
8
annotation
62
1
39
211
10
59.203605
20
41.131844
11
59.324579
21
41.406611
0
LINE
8
annotation
62
1
39
211
10
59.324579
20
41.406611
11
59.392872
21
41.690718
0
LINE
8
annotation
62
1
39
211
10
59.392872
20
41.690718
11
59.410291
21
41.977708
0
LINE
8
annotation
62
1
39
211
10
59.410291
20
41.977708
11
59.378642
21
42.261128
0
LINE
8
annotation
62
1
39
211
10
59.378642
20
42.261128
11
59.299730
21
42.534524
0
LINE
8
annotation
62
1
39
211
10
59.299730
20
42.534524
11
59.175360
21
42.791439
0
LINE
8
annotation
62
1
39
211
10
59.175360
20
42.791439
11
59.007340
21
43.025421
0
LINE
8
annotation
62
1
39
211
10
59.007340
20
43.025421
11
58.797474
21
43.230013
0
LINE
8
annotation
62
1
39
211
10
58.797474
20
43.230013
11
58.547569
21
43.398762
0
LINE
8
annotation
62
1
39
211
10
58.547569
20
43.398762
11
57.085630
21
44.205806
0
LINE
8
annotation
62
1
39
211
10
99.749613
20
76.286764
11
96.162366
21
78.423637
0
LINE
8
annotation
62
1
39
211
10
96.162366
20
78.423637
11
100.587921
21
82.594573
0
LINE
8
annotation
62
1
39
211
10
97.818760
20
75.491019
11
99.527969
21
78.360330
0
LINE
8
annotation
62
1
39
211
10
116.768588
20
131.322501
11
118.150050
21
130.384340
0
LINE
8
annotation
62
1
39
211
10
118.150050
20
130.384340
11
118.150050
21
130.384340
0
LINE
8
annotation
62
1
39
211
10
118.150050
20
130.384340
11
118.413135
21
130.238251
0
LINE
8
annotation
62
1
39
211
10
118.413135
20
130.238251
11
118.690301
21
130.143938
0
LINE
8
annotation
62
1
39
211
10
118.690301
20
130.143938
11
118.974951
21
130.100157
0
LINE
8
annotation
62
1
39
211
10
118.974951
20
130.100157
11
119.260492
21
130.105670
0
LINE
8
annotation
62
1
39
211
10
119.260492
20
130.105670
11
119.540328
21
130.159235
0
LINE
8
annotation
62
1
39
211
10
119.540328
20
130.159235
11
119.807865
21
130.259612
0
LINE
8
annotation
62
1
39
211
10
119.807865
20
130.259612
11
120.056509
21
130.405559
0
LINE
8
annotation
62
1
39
211
10
120.056509
20
130.405559
11
120.279663
21
130.595836
0
LINE
8
annotation
62
1
39
211
10
120.279663
20
130.595836
11
120.470734
21
130.829202
0
LINE
8
annotation
62
1
39
211
10
120.470734
20
130.829202
11
120.938093
21
131.517397
0
LINE
8
annotation
62
1
39
211
10
120.938093
20
131.517397
11
120.938093
21
131.517397
0
LINE
8
annotation
62
1
39
211
10
120.938093
20
131.517397
11
121.084487
21
131.780928
0
LINE
8
annotation
62
1
39
211
10
121.084487
20
131.780928
11
121.178879
21
132.058176
0
LINE
8
annotation
62
1
39
211
10
121.178879
20
132.058176
11
121.222578
21
132.342620
0
LINE
8
annotation
62
1
39
211
10
121.222578
20
132.342620
11
121.216892
21
132.627735
0
LINE
8
annotation
62
1
39
211
10
121.216892
20
132.627735
11
121.163129
21
132.906998
0
LINE
8
annotation
62
1
39
211
10
121.163129
20
132.906998
11
121.062596
21
133.173887
0
LINE
8
annotation
62
1
39
211
10
121.062596
20
133.173887
11
120.916603
21
133.421877
0
LINE
8
annotation
62
1
39
211
10
120.916603
20
133.421877
11
120.726457
21
133.644446
0
LINE
8
annotation
62
1
39
211
10
120.726457
20
133.644446
11
120.493466
21
133.835071
0
LINE
8
annotation
62
1
39
211
10
120.493466
20
133.835071
11
119.112004
21
134.773232
0
LINE
8
annotation
62
1
39
211
10
119.112004
20
134.773232
11
120.993360
21
137.543570
0
LINE
8
annotation
62
1
39
211
10
120.993360
20
137.543570
11
123.756286
21
135.667247
0
LINE
8
annotation
62
1
39
211
10
141.559439
20
199.130002
11
141.559439
21
199.130002
0
LINE
8
annotation
62
1
39
211
10
141.559439
20
199.130002
11
141.075729
21
199.294471
0
LINE
8
annotation
62
1
39
211
10
141.075729
20
199.294471
11
140.583006
21
199.385770
0
LINE
8
annotation
62
1
39
211
10
140.583006
20
199.385770
11
140.088593
21
199.405727
0
LINE
8
annotation
62
1
39
211
10
140.088593
20
199.405727
11
139.599814
21
199.356169
0
LINE
8
annotation
62
1
39
211
10
139.599814
20
199.356169
11
139.123992
21
199.238924
0
LINE
8
annotation
62
1
39
211
10
139.123992
20
199.238924
11
138.668450
21
199.055818
0
LINE
8
annotation
62
1
39
211
10
138.668450
20
199.055818
11
138.240511
21
198.808680
0
LINE
8
annotation
62
1
39
211
10
138.240511
20
198.808680
11
137.847499
21
198.499336
0
LINE
8
annotation
62
1
39
211
10
137.847499
20
198.499336
11
137.496737
21
198.129614
0
LINE
8
annotation
62
1
39
211
10
137.496737
20
198.129614
11
135.912568
21
196.196330
0
LINE
8
annotation
62
1
39
211
10
135.912568
20
196.196330
11
135.912568
21
196.196330
0
LINE
8
annotation
62
1
39
211
10
135.912568
20
196.196330
11
135.743025
21
195.946885
0
LINE
8
annotation
62
1
39
211
10
135.743025
20
195.946885
11
135.623904
21
195.678905
0
LINE
8
annotation
62
1
39
211
10
135.623904
20
195.678905
11
135.554524
21
195.399064
0
LINE
8
annotation
62
1
39
211
10
135.554524
20
195.399064
11
135.534204
21
195.114040
0
LINE
8
annotation
62
1
39
211
10
135.534204
20
195.114040
11
135.562260
21
194.830508
0
LINE
8
annotation
62
1
39
211
10
135.562260
20
194.830508
11
135.638012
21
194.555144
0
LINE
8
annotation
62
1
39
211
10
135.638012
20
194.555144
11
135.760778
21
194.294623
0
LINE
8
annotation
62
1
39
211
10
135.760778
20
194.294623
11
135.929875
21
194.055621
0
LINE
8
annotation
62
1
39
211
10
135.929875
20
194.055621
11
136.144621
21
193.844814
0
LINE
8
annotation
62
1
39
211
10
136.144621
20
193.844814
11
136.144621
21
193.844814
0
LINE
8
annotation
62
1
39
211
10
136.144621
20
193.844814
11
136.394008
21
193.675302
0
LINE
8
annotation
62
1
39
211
10
136.394008
20
193.675302
11
136.661841
21
193.556275
0
LINE
8
annotation
62
1
39
211
10
136.661841
20
193.556275
11
136.941486
21
193.487053
0
LINE
8
annotation
62
1
39
211
10
136.941486
20
193.487053
11
137.226309
21
193.466956
0
LINE
8
annotation
62
1
39
211
10
137.226309
20
193.466956
11
137.509674
21
193.495303
0
LINE
8
annotation
62
1
39
211
10
137.509674
20
193.495303
11
137.784948
21
193.571414
0
LINE
8
annotation
62
1
39
211
10
137.784948
20
193.571414
11
138.045495
21
193.694608
0
LINE
8
annotation
62
1
39
211
10
138.045495
20
193.694608
11
138.284682
21
193.864204
0
LINE
8
annotation
62
1
39
211
10
138.284682
20
193.864204
11
138.495874
21
194.079522
0
LINE
8
annotation
62
1
39
211
10
138.495874
20
194.079522
11
139.023133
21
194.722977
0
LINE
8
annotation
62
1
39
211
10
139.023133
20
194.722977
11
139.023133
21
194.722977
0
LINE
8
annotation
62
1
39
211
10
139.023133
20
194.722977
11
139.192644
21
194.972260
0
LINE
8
annotation
62
1
39
211
10
139.192644
20
194.972260
11
139.311668
21
195.239816
0
LINE
8
annotation
62
1
39
211
10
139.311668
20
195.239816
11
139.380885
21
195.519059
0
LINE
8
annotation
62
1
39
211
10
139.380885
20
195.519059
11
139.400976
21
195.803405
0
LINE
8
annotation
62
1
39
211
10
139.400976
20
195.803405
11
139.372623
21
196.086270
0
LINE
8
annotation
62
1
39
211
10
139.372623
20
196.086270
11
139.296507
21
196.361067
0
LINE
8
annotation
62
1
39
211
10
139.296507
20
196.361067
11
139.173308
21
196.621213
0
LINE
8
annotation
62
1
39
211
10
139.173308
20
196.621213
11
139.003709
21
196.860122
0
LINE
8
annotation
62
1
39
211
10
139.003709
20
196.860122
11
138.788390
21
197.071210
0
LINE
8
annotation
62
1
39
211
10
138.788390
20
197.071210
11
137.496737
21
198.129614
0
LINE
8
annotation
62
1
39
211
10
134.095411
20
194.308701
11
137.003727
21
191.925573
0
LINE
8
annotation
62
1
39
211
10
49.889452
20
102.855655
11
30.252076
21
102.855655
0
LINE
8
annotation
62
1
39
211
10
30.252076
20
102.855655
11
49.889452
21
138.222452
0
LINE
8
annotation
62
1
39
211
10
49.889452
20
138.222452
11
30.252076
21
138.222452
0
LINE
8
annotation
62
1
39
211
10
82.493287
20
120.539053
11
63.155328
21
120.539053
0
LINE
8
annotation
62
1
39
211
10
95.752509
20
110.697077
11
95.752509
21
110.697077
0
LINE
8
annotation
62
1
39
211
10
95.752509
20
110.697077
11
95.879307
21
109.284965
0
LINE
8
annotation
62
1
39
211
10
95.879307
20
109.284965
11
96.244781
21
107.956878
0
LINE
8
annotation
62
1
39
211
10
96.244781
20
107.956878
11
96.826552
21
106.734739
0
LINE
8
annotation
62
1
39
211
10
96.826552
20
106.734739
11
97.602240
21
105.640473
0
LINE
8
annotation
62
1
39
211
10
97.602240
20
105.640473
11
98.549464
21
104.696002
0
LINE
8
annotation
62
1
39
211
10
98.549464
20
104.696002
11
99.645845
21
103.923251
0
LINE
8
annotation
62
1
39
211
10
99.645845
20
103.923251
11
100.869002
21
103.344142
0
LINE
8
annotation
62
1
39
211
10
100.869002
20
103.344142
11
102.196557
21
102.980599
0
LINE
8
annotation
62
1
39
211
10
102.196557
20
102.980599
11
103.606129
21
102.854546
0
LINE
8
annotation
62
1
39
211
10
103.606129
20
102.854546
11
103.606129
21
102.854546
0
LINE
8
annotation
62
1
39
211
10
103.606129
20
102.854546
11
105.015700
21
102.980599
0
LINE
8
annotation
62
1
39
211
10
105.015700
20
102.980599
11
106.343255
21
103.344142
0
LINE
8
annotation
62
1
39
211
10
106.343255
20
103.344142
11
107.566413
21
103.923251
0
LINE
8
annotation
62
1
39
211
10
107.566413
20
103.923251
11
108.662794
21
104.696002
0
LINE
8
annotation
62
1
39
211
10
108.662794
20
104.696002
11
109.610018
21
105.640473
0
LINE
8
annotation
62
1
39
211
10
109.610018
20
105.640473
11
110.385705
21
106.734739
0
LINE
8
annotation
62
1
39
211
10
110.385705
20
106.734739
11
110.967476
21
107.956878
0
LINE
8
annotation
62
1
39
211
10
110.967476
20
107.956878
11
111.332951
21
109.284965
0
LINE
8
annotation
62
1
39
211
10
111.332951
20
109.284965
11
111.459749
21
110.697077
0
LINE
8
annotation
62
1
39
211
10
111.459749
20
110.697077
11
111.459749
21
114.609471
0
LINE
8
annotation
62
1
39
211
10
111.459749
20
114.609471
11
111.459749
21
114.609471
0
LINE
8
annotation
62
1
39
211
10
111.459749
20
114.609471
11
111.333024
21
116.022267
0
LINE
8
annotation
62
1
39
211
10
111.333024
20
116.022267
11
110.967732
21
117.352189
0
LINE
8
annotation
62
1
39
211
10
110.967732
20
117.352189
11
110.386198
21
118.576983
0
LINE
8
annotation
62
1
39
211
10
110.386198
20
118.576983
11
109.610748
21
119.674399
0
LINE
8
annotation
62
1
39
211
10
109.610748
20
119.674399
11
108.663706
21
120.622183
0
LINE
8
annotation
62
1
39
211
10
108.663706
20
120.622183
11
107.567398
21
121.398083
0
LINE
8
annotation
62
1
39
211
10
107.567398
20
121.398083
11
106.344149
21
121.979848
0
LINE
8
annotation
62
1
39
211
10
106.344149
20
121.979848
11
105.016284
21
122.345225
0
LINE
8
annotation
62
1
39
211
10
105.016284
20
122.345225
11
103.606129
21
122.471962
0
LINE
8
annotation
62
1
39
211
10
103.606129
20
122.471962
11
103.606129
21
122.471962
0
LINE
8
annotation
62
1
39
211
10
103.606129
20
122.471962
11
102.195973
21
122.345152
0
LINE
8
annotation
62
1
39
211
10
102.195973
20
122.345152
11
100.868108
21
121.979592
0
LINE
8
annotation
62
1
39
211
10
100.868108
20
121.979592
11
99.644859
21
121.397590
0
LINE
8
annotation
62
1
39
211
10
99.644859
20
121.397590
11
98.548551
21
120.621452
0
LINE
8
annotation
62
1
39
211
10
98.548551
20
120.621452
11
97.601509
21
119.673486
0
LINE
8
annotation
62
1
39
211
10
97.601509
20
119.673486
11
96.826059
21
118.575998
0
LINE
8
annotation
62
1
39
211
10
96.826059
20
118.575998
11
96.244526
21
117.351294
0
LINE
8
annotation
62
1
39
211
10
96.244526
20
117.351294
11
95.879234
21
116.021683
0
LINE
8
annotation
62
1
39
211
10
95.879234
20
116.021683
11
95.752509
21
114.609471
0
LINE
8
annotation
62
1
39
211
10
95.752509
20
114.609471
11
95.752509
21
110.697077
0
LINE
8
annotation
62
1
39
211
10
111.459749
20
130.336672
11
111.459749
21
130.336672
0
LINE
8
annotation
62
1
39
211
10
111.459749
20
130.336672
11
111.333024
21
131.742942
0
LINE
8
annotation
62
1
39
211
10
111.333024
20
131.742942
11
110.967732
21
133.067926
0
LINE
8
annotation
62
1
39
211
10
110.967732
20
133.067926
11
110.386198
21
134.289152
0
LINE
8
annotation
62
1
39
211
10
110.386198
20
134.289152
11
109.610748
21
135.384149
0
LINE
8
annotation
62
1
39
211
10
109.610748
20
135.384149
11
108.663706
21
136.330445
0
LINE
8
annotation
62
1
39
211
10
108.663706
20
136.330445
11
107.567398
21
137.105569
0
LINE
8
annotation
62
1
39
211
10
107.567398
20
137.105569
11
106.344149
21
137.687051
0
LINE
8
annotation
62
1
39
211
10
106.344149
20
137.687051
11
105.016284
21
138.052419
0
LINE
8
annotation
62
1
39
211
10
105.016284
20
138.052419
11
103.606129
21
138.179202
0
LINE
8
annotation
62
1
39
211
10
103.606129
20
138.179202
11
103.606129
21
138.179202
0
LINE
8
annotation
62
1
39
211
10
103.606129
20
138.179202
11
102.195973
21
138.052419
0
LINE
8
annotation
62
1
39
211
10
102.195973
20
138.052419
11
100.868108
21
137.687051
0
LINE
8
annotation
62
1
39
211
10
100.868108
20
137.687051
11
99.644859
21
137.105569
0
LINE
8
annotation
62
1
39
211
10
99.644859
20
137.105569
11
98.548551
21
136.330445
0
LINE
8
annotation
62
1
39
211
10
98.548551
20
136.330445
11
97.601509
21
135.384149
0
LINE
8
annotation
62
1
39
211
10
97.601509
20
135.384149
11
96.826059
21
134.289152
0
LINE
8
annotation
62
1
39
211
10
96.826059
20
134.289152
11
96.244526
21
133.067926
0
LINE
8
annotation
62
1
39
211
10
96.244526
20
133.067926
11
95.879234
21
131.742942
0
LINE
8
annotation
62
1
39
211
10
95.879234
20
131.742942
11
95.752509
21
130.336672
0
LINE
8
annotation
62
1
39
211
10
95.752509
20
130.336672
11
95.752509
21
130.336672
0
LINE
8
annotation
62
1
39
211
10
95.752509
20
130.336672
11
95.879307
21
128.923799
0
LINE
8
annotation
62
1
39
211
10
95.879307
20
128.923799
11
96.244781
21
127.593674
0
LINE
8
annotation
62
1
39
211
10
96.244781
20
127.593674
11
96.826552
21
126.368584
0
LINE
8
annotation
62
1
39
211
10
96.826552
20
126.368584
11
97.602240
21
125.270819
0
LINE
8
annotation
62
1
39
211
10
97.602240
20
125.270819
11
98.549464
21
124.322667
0
LINE
8
annotation
62
1
39
211
10
98.549464
20
124.322667
11
99.645845
21
123.546417
0
LINE
8
annotation
62
1
39
211
10
99.645845
20
123.546417
11
100.869002
21
122.964357
0
LINE
8
annotation
62
1
39
211
10
100.869002
20
122.964357
11
102.196557
21
122.598776
0
LINE
8
annotation
62
1
39
211
10
102.196557
20
122.598776
11
103.606129
21
122.471962
0
LINE
8
annotation
62
1
39
211
10
103.606129
20
122.471962
11
103.606129
21
122.471962
0
LINE
8
annotation
62
1
39
211
10
103.606129
20
122.471962
11
105.015700
21
122.598776
0
LINE
8
annotation
62
1
39
211
10
105.015700
20
122.598776
11
106.343255
21
122.964357
0
LINE
8
annotation
62
1
39
211
10
106.343255
20
122.964357
11
107.566413
21
123.546417
0
LINE
8
annotation
62
1
39
211
10
107.566413
20
123.546417
11
108.662794
21
124.322667
0
LINE
8
annotation
62
1
39
211
10
108.662794
20
124.322667
11
109.610018
21
125.270819
0
LINE
8
annotation
62
1
39
211
10
109.610018
20
125.270819
11
110.385705
21
126.368584
0
LINE
8
annotation
62
1
39
211
10
110.385705
20
126.368584
11
110.967476
21
127.593674
0
LINE
8
annotation
62
1
39
211
10
110.967476
20
127.593674
11
111.332951
21
128.923799
0
LINE
8
annotation
62
1
39
211
10
111.332951
20
128.923799
11
111.459749
21
130.336672
0
LINE
8
boundary
62
5
39
2
10
253.285016
20
1.605233
11
256.962828
21
5.330902
0
LINE
8
boundary
62
5
39
2
10
256.962828
20
5.330902
11
257.850728
21
6.238069
0
LINE
8
boundary
62
5
39
2
10
257.850728
20
6.238069
11
259.306942
21
7.715677
0
LINE
8
boundary
62
5
39
2
10
259.306942
20
7.715677
11
261.552162
21
9.989023
0
LINE
8
boundary
62
5
39
2
10
261.552162
20
9.989023
11
264.160526
21
12.616508
0
LINE
8
boundary
62
5
39
2
10
264.160526
20
12.616508
11
265.687624
21
14.154806
0
LINE
8
boundary
62
5
39
2
10
265.687624
20
14.154806
11
266.194470
21
14.665030
0
LINE
8
boundary
62
5
39
2
10
266.194470
20
14.665030
11
267.169693
21
15.641778
0
LINE
8
boundary
62
5
39
2
10
267.169693
20
15.641778
11
270.559471
21
19.022078
0
LINE
8
boundary
62
5
39
2
10
270.559471
20
19.022078
11
273.162289
21
21.612122
0
LINE
8
boundary
62
5
39
2
10
273.162289
20
21.612122
11
276.930470
21
25.334474
0
LINE
8
boundary
62
5
39
2
10
276.930470
20
25.334474
11
278.231130
21
26.619348
0
LINE
8
boundary
62
5
39
2
10
278.231130
20
26.619348
11
278.094942
21
27.496827
0
LINE
8
boundary
62
5
39
2
10
278.094942
20
27.496827
11
257.859367
21
38.540329
0
LINE
8
boundary
62
5
39
2
10
257.859367
20
38.540329
11
259.989222
21
42.442973
0
LINE
8
boundary
62
5
39
2
10
259.989222
20
42.442973
11
281.781072
21
30.550140
0
LINE
8
boundary
62
5
39
2
10
281.781072
20
30.550140
11
282.592720
21
30.910341
0
LINE
8
boundary
62
5
39
2
10
282.592720
20
30.910341
11
286.960283
21
35.170967
0
LINE
8
boundary
62
5
39
2
10
286.960283
20
35.170967
11
289.929501
21
38.071894
0
LINE
8
boundary
62
5
39
2
10
289.929501
20
38.071894
11
294.145840
21
42.170230
0
LINE
8
boundary
62
5
39
2
10
294.145840
20
42.170230
11
298.180149
21
46.070903
0
LINE
8
boundary
62
5
39
2
10
298.180149
20
46.070903
11
298.848371
21
46.716235
0
LINE
8
boundary
62
5
39
2
10
298.848371
20
46.716235
11
301.524496
21
49.290945
0
LINE
8
boundary
62
5
39
2
10
301.524496
20
49.290945
11
302.769453
21
50.489754
0
LINE
8
boundary
62
5
39
2
10
302.769453
20
50.489754
11
304.349371
21
52.006762
0
LINE
8
boundary
62
5
39
2
10
304.349371
20
52.006762
11
305.071747
21
52.700204
0
LINE
8
boundary
62
5
39
2
10
305.071747
20
52.700204
11
306.171071
21
53.754262
0
LINE
8
boundary
62
5
39
2
10
306.171071
20
53.754262
11
307.343999
21
54.877279
0
LINE
8
boundary
62
5
39
2
10
307.343999
20
54.877279
11
310.533840
21
57.926520
0
LINE
8
boundary
62
5
39
2
10
310.533840
20
57.926520
11
311.311104
21
58.667501
0
LINE
8
boundary
62
5
39
2
10
311.311104
20
58.667501
11
312.805466
21
60.087665
0
LINE
8
boundary
62
5
39
2
10
312.805466
20
60.087665
11
316.516373
21
63.617974
0
LINE
8
boundary
62
5
39
2
10
316.516373
20
63.617974
11
316.384428
21
64.496102
0
LINE
8
boundary
62
5
39
2
10
316.384428
20
64.496102
11
276.948529
21
86.266146
0
LINE
8
boundary
62
5
39
2
10
276.948529
20
86.266146
11
279.097222
21
90.158451
0
LINE
8
boundary
62
5
39
2
10
279.097222
20
90.158451
11
320.150511
21
67.495548
0
LINE
8
boundary
62
5
39
2
10
320.150511
20
67.495548
11
320.963890
21
67.851822
0
LINE
8
boundary
62
5
39
2
10
320.963890
20
67.851822
11
321.687936
21
68.541453
0
LINE
8
boundary
62
5
39
2
10
321.687936
20
68.541453
11
329.008012
21
75.479938
0
LINE
8
boundary
62
5
39
2
10
329.008012
20
75.479938
11
331.968100
21
78.276256
0
LINE
8
boundary
62
5
39
2
10
331.968100
20
78.276256
11
335.638401
21
81.743723
0
LINE
8
boundary
62
5
39
2
10
335.638401
20
81.743723
11
343.170334
21
88.831733
0
LINE
8
boundary
62
5
39
2
10
343.170334
20
88.831733
11
350.794289
21
95.983483
0
LINE
8
boundary
62
5
39
2
10
350.794289
20
95.983483
11
350.691245
21
96.865468
0
LINE
8
boundary
62
5
39
2
10
350.691245
20
96.865468
11
297.125772
21
128.773677
0
LINE
8
boundary
62
5
39
2
10
297.125772
20
128.773677
11
299.401092
21
132.593340
0
LINE
8
boundary
62
5
39
2
10
299.401092
20
132.593340
11
354.416564
21
99.821388
0
LINE
8
boundary
62
5
39
2
10
354.416564
20
99.821388
11
355.241202
21
100.150766
0
LINE
8
boundary
62
5
39
2
10
355.241202
20
100.150766
11
355.965624
21
100.827657
0
LINE
8
boundary
62
5
39
2
10
355.965624
20
100.827657
11
363.738147
21
108.088080
0
LINE
8
boundary
62
5
39
2
10
363.738147
20
108.088080
11
364.508177
21
108.803531
0
LINE
8
boundary
62
5
39
2
10
364.508177
20
108.803531
11
373.877052
21
117.509099
0
LINE
8
boundary
62
5
39
2
10
373.877052
20
117.509099
11
375.779277
21
119.264791
0
LINE
8
boundary
62
5
39
2
10
375.779277
20
119.264791
11
380.337709
21
123.480579
0
LINE
8
boundary
62
5
39
2
10
380.337709
20
123.480579
11
380.287139
21
124.367123
0
LINE
8
boundary
62
5
39
2
10
380.287139
20
124.367123
11
324.657363
21
162.145704
0
LINE
8
boundary
62
5
39
2
10
324.657363
20
162.145704
11
327.155147
21
165.823746
0
LINE
8
boundary
62
5
39
2
10
327.155147
20
165.823746
11
383.908318
21
127.282259
0
LINE
8
boundary
62
5
39
2
10
383.908318
20
127.282259
11
384.751033
21
127.562165
0
LINE
8
boundary
62
5
39
2
10
384.751033
20
127.562165
11
387.551600
21
130.152222
0
LINE
8
boundary
62
5
39
2
10
387.551600
20
130.152222
11
388.534137
21
131.051301
0
LINE
8
boundary
62
5
39
2
10
388.534137
20
131.051301
11
399.461098
21
141.040085
0
LINE
8
boundary
62
5
39
2
10
399.461098
20
141.040085
11
403.762407
21
144.957998
0
LINE
8
boundary
62
5
39
2
10
403.762407
20
144.957998
11
404.164562
21
145.319534
0
LINE
8
boundary
62
5
39
2
10
404.164562
20
145.319534
11
404.193792
21
146.207037
0
LINE
8
boundary
62
5
39
2
10
404.193792
20
146.207037
11
358.921569
21
183.303938
0
LINE
8
boundary
62
5
39
2
10
358.921569
20
183.303938
11
361.739492
21
186.742867
0
LINE
8
boundary
62
5
39
2
10
361.739492
20
186.742867
11
407.705860
21
149.077170
0
LINE
8
boundary
62
5
39
2
10
407.705860
20
149.077170
11
408.570302
21
149.280285
0
LINE
8
boundary
62
5
39
2
10
408.570302
20
149.280285
11
410.467181
21
150.985575
0
LINE
8
boundary
62
5
39
2
10
410.467181
20
150.985575
11
418.346201
21
158.044915
0
LINE
8
boundary
62
5
39
2
10
418.346201
20
158.044915
11
420.040857
21
159.546395
0
LINE
8
boundary
62
5
39
2
10
420.040857
20
159.546395
11
421.327454
21
160.686933
0
LINE
8
boundary
62
5
39
2
10
421.327454
20
160.686933
11
421.468800
21
161.563596
0
LINE
8
boundary
62
5
39
2
10
421.468800
20
161.563596
11
398.861929
21
185.473472
0
LINE
8
boundary
62
5
39
2
10
398.861929
20
185.473472
11
402.092522
21
188.528008
0
LINE
8
boundary
62
5
39
2
10
402.092522
20
188.528008
11
424.830026
21
164.479968
0
LINE
8
boundary
62
5
39
2
10
424.830026
20
164.479968
11
425.713227
21
164.572018
0
LINE
8
boundary
62
5
39
2
10
425.713227
20
164.572018
11
428.161528
21
166.738628
0
LINE
8
boundary
62
5
39
2
10
428.161528
20
166.738628
11
429.743207
21
168.133647
0
LINE
8
boundary
62
5
39
2
10
429.743207
20
168.133647
11
433.398713
21
171.331414
0
LINE
8
boundary
62
5
39
2
10
433.398713
20
171.331414
11
434.539214
21
172.330218
0
LINE
8
boundary
62
5
39
2
10
434.539214
20
172.330218
11
432.750273
21
173.988056
0
LINE
8
boundary
62
5
39
2
10
432.750273
20
173.988056
11
431.887961
21
174.740853
0
LINE
8
boundary
62
5
39
2
10
431.887961
20
174.740853
11
431.356526
21
175.139534
0
LINE
8
boundary
62
5
39
2
10
431.356526
20
175.139534
11
430.549312
21
175.813647
0
LINE
8
boundary
62
5
39
2
10
430.549312
20
175.813647
11
429.790473
21
176.585159
0
LINE
8
boundary
62
5
39
2
10
429.790473
20
176.585159
11
427.473062
21
178.619381
0
LINE
8
boundary
62
5
39
2
10
427.473062
20
178.619381
11
426.713931
21
179.288130
0
LINE
8
boundary
62
5
39
2
10
426.713931
20
179.288130
11
422.883565
21
182.212639
0
LINE
8
boundary
62
5
39
2
10
422.883565
20
182.212639
11
421.699161
21
183.202710
0
LINE
8
boundary
62
5
39
2
10
421.699161
20
183.202710
11
420.860815
21
183.903346
0
LINE
8
boundary
62
5
39
2
10
420.860815
20
183.903346
11
419.464935
21
185.253829
0
LINE
8
boundary
62
5
39
2
10
419.464935
20
185.253829
11
418.492715
21
186.094898
0
LINE
8
boundary
62
5
39
2
10
418.492715
20
186.094898
11
416.084117
21
187.956401
0
LINE
8
boundary
62
5
39
2
10
416.084117
20
187.956401
11
414.269800
21
189.263178
0
LINE
8
boundary
62
5
39
2
10
414.269800
20
189.263178
11
413.811479
21
189.544516
0
LINE
8
boundary
62
5
39
2
10
413.811479
20
189.544516
11
412.470590
21
190.470321
0
LINE
8
boundary
62
5
39
2
10
412.470590
20
190.470321
11
407.301913
21
194.065952
0
LINE
8
boundary
62
5
39
2
10
407.301913
20
194.065952
11
405.290789
21
195.328738
0
LINE
8
boundary
62
5
39
2
10
405.290789
20
195.328738
11
403.941825
21
196.226796
0
LINE
8
boundary
62
5
39
2
10
403.941825
20
196.226796
11
402.853770
21
196.929724
0
LINE
8
boundary
62
5
39
2
10
402.853770
20
196.929724
11
400.128095
21
198.603173
0
LINE
8
boundary
62
5
39
2
10
400.128095
20
198.603173
11
398.410405
21
199.658726
0
LINE
8
boundary
62
5
39
2
10
398.410405
20
199.658726
11
395.886281
21
201.131359
0
LINE
8
boundary
62
5
39
2
10
395.886281
20
201.131359
11
391.348506
21
203.808613
0
LINE
8
boundary
62
5
39
2
10
391.348506
20
203.808613
11
390.600504
21
204.230282
0
LINE
8
boundary
62
5
39
2
10
390.600504
20
204.230282
11
389.606572
21
204.822898
0
LINE
8
boundary
62
5
39
2
10
389.606572
20
204.822898
11
388.684949
21
205.330377
0
LINE
8
boundary
62
5
39
2
10
388.684949
20
205.330377
11
382.435006
21
208.716173
0
LINE
8
boundary
62
5
39
2
10
382.435006
20
208.716173
11
381.269594
21
209.322115
0
LINE
8
boundary
62
5
39
2
10
381.269594
20
209.322115
11
380.718258
21
209.606781
0
LINE
8
boundary
62
5
39
2
10
380.718258
20
209.606781
11
378.353300
21
210.721485
0
LINE
8
boundary
62
5
39
2
10
378.353300
20
210.721485
11
375.542716
21
212.028140
0
LINE
8
boundary
62
5
39
2
10
375.542716
20
212.028140
11
371.851919
21
213.657073
0
LINE
8
boundary
62
5
39
2
10
371.851919
20
213.657073
11
367.750727
21
215.166209
0
LINE
8
boundary
62
5
39
2
10
367.750727
20
215.166209
11
364.575058
21
216.269274
0
LINE
8
boundary
62
5
39
2
10
364.575058
20
216.269274
11
362.812191
21
216.865304
0
LINE
8
boundary
62
5
39
2
10
362.812191
20
216.865304
11
359.744905
21
217.619153
0
LINE
8
boundary
62
5
39
2
10
359.744905
20
217.619153
11
353.869474
21
219.076633
0
LINE
8
boundary
62
5
39
2
10
353.869474
20
219.076633
11
351.584754
21
219.468826
0
LINE
8
boundary
62
5
39
2
10
351.584754
20
219.468826
11
349.666347
21
219.817657
0
LINE
8
boundary
62
5
39
2
10
349.666347
20
219.817657
11
344.958112
21
220.710710
0
LINE
8
boundary
62
5
39
2
10
344.958112
20
220.710710
11
343.873190
21
220.860790
0
LINE
8
boundary
62
5
39
2
10
343.873190
20
220.860790
11
343.352273
21
220.902265
0
LINE
8
boundary
62
5
39
2
10
343.352273
20
220.902265
11
336.255155
21
221.861204
0
LINE
8
boundary
62
5
39
2
10
336.255155
20
221.861204
11
333.959901
21
222.018394
0
LINE
8
boundary
62
5
39
2
10
333.959901
20
222.018394
11
329.895357
21
222.284046
0
LINE
8
boundary
62
5
39
2
10
329.895357
20
222.284046
11
327.745973
21
222.366540
0
LINE
8
boundary
62
5
39
2
10
327.745973
20
222.366540
11
327.035278
21
222.365877
0
LINE
8
boundary
62
5
39
2
10
327.035278
20
222.365877
11
323.647005
21
222.405704
0
LINE
8
boundary
62
5
39
2
10
323.647005
20
222.405704
11
320.415359
21
222.297745
0
LINE
8
boundary
62
5
39
2
10
320.415359
20
222.297745
11
319.547440
21
222.257963
0
LINE
8
boundary
62
5
39
2
10
319.547440
20
222.257963
11
316.543727
21
222.054457
0
LINE
8
boundary
62
5
39
2
10
316.543727
20
222.054457
11
314.788052
21
221.924316
0
LINE
8
boundary
62
5
39
2
10
314.788052
20
221.924316
11
311.569027
21
221.625601
0
LINE
8
boundary
62
5
39
2
10
311.569027
20
221.625601
11
309.454731
21
221.316296
0
LINE
8
boundary
62
5
39
2
10
309.454731
20
221.316296
11
306.418597
21
220.653536
0
LINE
8
boundary
62
5
39
2
10
306.418597
20
220.653536
11
303.802558
21
220.150774
0
LINE
8
boundary
62
5
39
2
10
303.802558
20
220.150774
11
300.645270
21
219.697697
0
LINE
8
boundary
62
5
39
2
10
300.645270
20
219.697697
11
296.728802
21
218.710212
0
LINE
8
boundary
62
5
39
2
10
296.728802
20
218.710212
11
295.211543
21
218.161033
0
LINE
8
boundary
62
5
39
2
10
295.211543
20
218.161033
11
291.697074
21
216.838602
0
LINE
8
boundary
62
5
39
2
10
291.697074
20
216.838602
11
289.995816
21
216.158897
0
LINE
8
boundary
62
5
39
2
10
289.995816
20
216.158897
11
289.336663
21
215.838934
0
LINE
8
boundary
62
5
39
2
10
289.336663
20
215.838934
11
285.939267
21
214.184151
0
LINE
8
boundary
62
5
39
2
10
285.939267
20
214.184151
11
283.608149
21
213.055004
0
LINE
8
boundary
62
5
39
2
10
283.608149
20
213.055004
11
282.601123
21
212.478184
0
LINE
8
boundary
62
5
39
2
10
282.601123
20
212.478184
11
277.641100
21
209.440152
0
LINE
8
boundary
62
5
39
2
10
277.641100
20
209.440152
11
273.372355
21
206.401864
0
LINE
8
boundary
62
5
39
2
10
273.372355
20
206.401864
11
271.991437
21
205.345660
0
LINE
8
boundary
62
5
39
2
10
271.991437
20
205.345660
11
270.271345
21
203.735142
0
LINE
8
boundary
62
5
39
2
10
270.271345
20
203.735142
11
267.687909
21
201.325054
0
LINE
8
boundary
62
5
39
2
10
267.687909
20
201.325054
11
266.898196
21
200.591096
0
LINE
8
boundary
62
5
39
2
10
266.898196
20
200.591096
11
264.160889
21
197.725492
0
LINE
8
boundary
62
5
39
2
10
264.160889
20
197.725492
11
262.066649
21
195.423974
0
LINE
8
boundary
62
5
39
2
10
262.066649
20
195.423974
11
260.120068
21
192.943967
0
LINE
8
boundary
62
5
39
2
10
260.120068
20
192.943967
11
255.031006
21
186.230574
0
LINE
8
boundary
62
5
39
2
10
255.031006
20
186.230574
11
254.187991
21
185.056288
0
LINE
8
boundary
62
5
39
2
10
254.187991
20
185.056288
11
253.422270
21
183.940800
0
LINE
8
boundary
62
5
39
2
10
253.422270
20
183.940800
11
252.789982
21
182.898387
0
LINE
8
boundary
62
5
39
2
10
252.789982
20
182.898387
11
252.254833
21
181.967863
0
LINE
8
boundary
62
5
39
2
10
252.254833
20
181.967863
11
250.425849
21
178.828541
0
LINE
8
boundary
62
5
39
2
10
250.425849
20
178.828541
11
249.709687
21
177.631782
0
LINE
8
boundary
62
5
39
2
10
249.709687
20
177.631782
11
248.688024
21
175.722536
0
LINE
8
boundary
62
5
39
2
10
248.688024
20
175.722536
11
247.135296
21
172.826743
0
LINE
8
boundary
62
5
39
2
10
247.135296
20
172.826743
11
246.144705
21
171.093567
0
LINE
8
boundary
62
5
39
2
10
246.144705
20
171.093567
11
243.246560
21
164.146840
0
LINE
8
boundary
62
5
39
2
10
243.246560
20
164.146840
11
241.907585
21
160.678027
0
LINE
8
boundary
62
5
39
2
10
241.907585
20
160.678027
11
241.358343
21
159.276769
0
LINE
8
boundary
62
5
39
2
10
241.358343
20
159.276769
11
240.524608
21
156.992650
0
LINE
8
boundary
62
5
39
2
10
240.524608
20
156.992650
11
239.271595
21
152.471498
0
LINE
8
boundary
62
5
39
2
10
239.271595
20
152.471498
11
238.493237
21
149.562260
0
LINE
8
boundary
62
5
39
2
10
238.493237
20
149.562260
11
238.344590
21
148.996738
0
LINE
8
boundary
62
5
39
2
10
238.344590
20
148.996738
11
238.148966
21
148.212278
0
LINE
8
boundary
62
5
39
2
10
238.148966
20
148.212278
11
238.024261
21
147.705569
0
LINE
8
boundary
62
5
39
2
10
238.024261
20
147.705569
11
237.773257
21
146.579857
0
LINE
8
boundary
62
5
39
2
10
237.773257
20
146.579857
11
237.372125
21
144.857265
0
LINE
8
boundary
62
5
39
2
10
237.372125
20
144.857265
11
236.842843
21
142.096700
0
LINE
8
boundary
62
5
39
2
10
236.842843
20
142.096700
11
236.406322
21
139.268599
0
LINE
8
boundary
62
5
39
2
10
236.406322
20
139.268599
11
236.215379
21
137.627870
0
LINE
8
boundary
62
5
39
2
10
236.215379
20
137.627870
11
236.088399
21
136.546779
0
LINE
8
boundary
62
5
39
2
10
236.088399
20
136.546779
11
235.570029
21
130.023266
0
LINE
8
boundary
62
5
39
2
10
235.570029
20
130.023266
11
235.409227
21
127.855997
0
LINE
8
boundary
62
5
39
2
10
235.409227
20
127.855997
11
235.541685
21
122.500630
0
LINE
8
boundary
62
5
39
2
10
235.541685
20
122.500630
11
235.895678
21
115.947788
0
LINE
8
boundary
62
5
39
2
10
235.895678
20
115.947788
11
236.164627
21
114.751305
0
LINE
8
boundary
62
5
39
2
10
236.164627
20
114.751305
11
237.269080
21
109.758804
0
LINE
8
boundary
62
5
39
2
10
237.269080
20
109.758804
11
237.638596
21
108.621522
0
LINE
8
boundary
62
5
39
2
10
237.638596
20
108.621522
11
238.537120
21
106.046115
0
LINE
8
boundary
62
5
39
2
10
238.537120
20
106.046115
11
239.097429
21
105.154730
0
LINE
8
boundary
62
5
39
2
10
239.097429
20
105.154730
11
242.060063
21
99.365447
0
LINE
8
boundary
62
5
39
2
10
242.060063
20
99.365447
11
242.484857
21
98.326554
0
LINE
8
boundary
62
5
39
2
10
242.484857
20
98.326554
11
242.854554
21
97.685743
0
LINE
8
boundary
62
5
39
2
10
242.854554
20
97.685743
11
243.966706
21
96.112599
0
LINE
8
boundary
62
5
39
2
10
243.966706
20
96.112599
11
245.076622
21
94.631003
0
LINE
8
boundary
62
5
39
2
10
245.076622
20
94.631003
11
246.428799
21
92.822270
0
LINE
8
boundary
62
5
39
2
10
246.428799
20
92.822270
11
248.185613
21
90.693942
0
LINE
8
boundary
62
5
39
2
10
248.185613
20
90.693942
11
250.732968
21
88.267510
0
LINE
8
boundary
62
5
39
2
10
250.732968
20
88.267510
11
252.088916
21
87.038559
0
LINE
8
boundary
62
5
39
2
10
252.088916
20
87.038559
11
254.135090
21
85.250036
0
LINE
8
boundary
62
5
39
2
10
254.135090
20
85.250036
11
255.217359
21
84.410988
0
LINE
8
boundary
62
5
39
2
10
255.217359
20
84.410988
11
255.662624
21
84.091475
0
LINE
8
boundary
62
5
39
2
10
255.662624
20
84.091475
11
257.566411
21
82.682491
0
LINE
8
boundary
62
5
39
2
10
257.566411
20
82.682491
11
258.551719
21
82.002166
0
LINE
8
boundary
62
5
39
2
10
258.551719
20
82.002166
11
260.254674
21
80.844536
0
LINE
8
boundary
62
5
39
2
10
260.254674
20
80.844536
11
262.086717
21
79.701732
0
LINE
8
boundary
62
5
39
2
10
262.086717
20
79.701732
11
263.803255
21
78.674554
0
LINE
8
boundary
62
5
39
2
10
263.803255
20
78.674554
11
264.517694
21
78.234888
0
LINE
8
boundary
62
5
39
2
10
264.517694
20
78.234888
11
265.233174
21
77.776578
0
LINE
8
boundary
62
5
39
2
10
265.233174
20
77.776578
11
266.074866
21
77.111578
0
LINE
8
boundary
62
5
39
2
10
266.074866
20
77.111578
11
265.446043
21
76.794801
0
LINE
8
boundary
62
5
39
2
10
265.446043
20
76.794801
11
264.710593
21
76.861915
0
LINE
8
boundary
62
5
39
2
10
264.710593
20
76.861915
11
264.040777
21
76.948217
0
LINE
8
boundary
62
5
39
2
10
264.040777
20
76.948217
11
263.337141
21
77.054136
0
LINE
8
boundary
62
5
39
2
10
263.337141
20
77.054136
11
260.528275
21
77.461172
0
LINE
8
boundary
62
5
39
2
10
260.528275
20
77.461172
11
259.712108
21
77.573896
0
LINE
8
boundary
62
5
39
2
10
259.712108
20
77.573896
11
258.839379
21
77.659641
0
LINE
8
boundary
62
5
39
2
10
258.839379
20
77.659641
11
257.667409
21
77.707279
0
LINE
8
boundary
62
5
39
2
10
257.667409
20
77.707279
11
256.455129
21
77.775030
0
LINE
8
boundary
62
5
39
2
10
256.455129
20
77.775030
11
254.559328
21
77.693737
0
LINE
8
boundary
62
5
39
2
10
254.559328
20
77.693737
11
253.424678
21
77.576202
0
LINE
8
boundary
62
5
39
2
10
253.424678
20
77.576202
11
252.530388
21
77.335275
0
LINE
8
boundary
62
5
39
2
10
252.530388
20
77.335275
11
251.982244
21
77.193225
0
LINE
8
boundary
62
5
39
2
10
251.982244
20
77.193225
11
251.247317
21
76.930848
0
LINE
8
boundary
62
5
39
2
10
251.247317
20
76.930848
11
250.397441
21
76.539818
0
LINE
8
boundary
62
5
39
2
10
250.397441
20
76.539818
11
249.670919
21
76.218047
0
LINE
8
boundary
62
5
39
2
10
249.670919
20
76.218047
11
248.987926
21
75.815349
0
LINE
8
boundary
62
5
39
2
10
248.987926
20
75.815349
11
247.845504
21
75.108925
0
LINE
8
boundary
62
5
39
2
10
247.845504
20
75.108925
11
247.299937
21
74.731215
0
LINE
8
boundary
62
5
39
2
10
247.299937
20
74.731215
11
246.447679
21
74.062497
0
LINE
8
boundary
62
5
39
2
10
246.447679
20
74.062497
11
245.427837
21
73.211734
0
LINE
8
boundary
62
5
39
2
10
245.427837
20
73.211734
11
243.476729
21
70.889482
0
LINE
8
boundary
62
5
39
2
10
243.476729
20
70.889482
11
241.684388
21
68.677883
0
LINE
8
boundary
62
5
39
2
10
241.684388
20
68.677883
11
240.212949
21
65.993696
0
LINE
8
boundary
62
5
39
2
10
240.212949
20
65.993696
11
239.878065
21
65.236833
0
LINE
8
boundary
62
5
39
2
10
239.878065
20
65.236833
11
239.513816
21
64.361334
0
LINE
8
boundary
62
5
39
2
10
239.513816
20
64.361334
11
238.539528
21
61.178285
0
LINE
8
boundary
62
5
39
2
10
238.539528
20
61.178285
11
237.241674
21
51.138708
0
LINE
8
boundary
62
5
39
2
10
237.241674
20
51.138708
11
237.096214
21
48.758766
0
LINE
8
boundary
62
5
39
2
10
237.096214
20
48.758766
11
237.713453
21
40.785269
0
LINE
8
boundary
62
5
39
2
10
237.713453
20
40.785269
11
239.818220
21
32.101981
0
LINE
8
boundary
62
5
39
2
10
239.818220
20
32.101981
11
240.078619
21
31.070934
0
LINE
8
boundary
62
5
39
2
10
240.078619
20
31.070934
11
240.355198
21
29.772280
0
LINE
8
boundary
62
5
39
2
10
240.355198
20
29.772280
11
242.140847
21
24.006089
0
LINE
8
boundary
62
5
39
2
10
242.140847
20
24.006089
11
242.972854
21
22.547939
0
LINE
8
boundary
62
5
39
2
10
242.972854
20
22.547939
11
243.479837
21
21.623441
0
LINE
8
boundary
62
5
39
2
10
243.479837
20
21.623441
11
245.296884
21
17.134958
0
LINE
8
boundary
62
5
39
2
10
245.296884
20
17.134958
11
247.546881
21
12.227604
0
LINE
8
boundary
62
5
39
2
10
247.546881
20
12.227604
11
248.256558
21
9.952443
0
LINE
8
boundary
62
5
39
2
10
248.256558
20
9.952443
11
248.819631
21
8.883961
0
LINE
8
boundary
62
5
39
2
10
248.819631
20
8.883961
11
251.358648
21
4.700076
0
LINE
8
boundary
62
5
39
2
10
251.358648
20
4.700076
11
253.242148
21
1.666567
0
LINE
8
boundary
62
5
39
2
10
253.242148
20
1.666567
11
253.285016
21
1.605233
0
LINE
8
annotation
62
1
39
211
10
250.225349
20
40.955507
11
247.293704
21
42.555444
0
LINE
8
annotation
62
1
39
211
10
247.293704
20
42.555444
11
252.382664
21
45.438091
0
LINE
8
annotation
62
1
39
211
10
252.382664
20
45.438091
11
252.382664
21
45.438091
0
LINE
8
annotation
62
1
39
211
10
252.382664
20
45.438091
11
252.388090
21
45.440330
0
LINE
8
annotation
62
1
39
211
10
252.388090
20
45.440330
11
252.393401
21
45.442677
0
LINE
8
annotation
62
1
39
211
10
252.393401
20
45.442677
11
252.398637
21
45.445153
0
LINE
8
annotation
62
1
39
211
10
252.398637
20
45.445153
11
252.403836
21
45.447781
0
LINE
8
annotation
62
1
39
211
10
252.403836
20
45.447781
11
252.409039
21
45.450585
0
LINE
8
annotation
62
1
39
211
10
252.409039
20
45.450585
11
252.414283
21
45.453587
0
LINE
8
annotation
62
1
39
211
10
252.414283
20
45.453587
11
252.419608
21
45.456810
0
LINE
8
annotation
62
1
39
211
10
252.419608
20
45.456810
11
252.425053
21
45.460277
0
LINE
8
annotation
62
1
39
211
10
252.425053
20
45.460277
11
252.430658
21
45.464012
0
LINE
8
annotation
62
1
39
211
10
252.430658
20
45.464012
11
252.430658
21
45.464012
0
LINE
8
annotation
62
1
39
211
10
252.430658
20
45.464012
11
252.673572
21
45.643123
0
LINE
8
annotation
62
1
39
211
10
252.673572
20
45.643123
11
252.874773
21
45.856405
0
LINE
8
annotation
62
1
39
211
10
252.874773
20
45.856405
11
253.032790
21
46.097356
0
LINE
8
annotation
62
1
39
211
10
253.032790
20
46.097356
11
253.146157
21
46.359479
0
LINE
8
annotation
62
1
39
211
10
253.146157
20
46.359479
11
253.213403
21
46.636274
0
LINE
8
annotation
62
1
39
211
10
253.213403
20
46.636274
11
253.233060
21
46.921243
0
LINE
8
annotation
62
1
39
211
10
253.233060
20
46.921243
11
253.203661
21
47.207886
0
LINE
8
annotation
62
1
39
211
10
253.203661
20
47.207886
11
253.123736
21
47.489705
0
LINE
8
annotation
62
1
39
211
10
253.123736
20
47.489705
11
252.991817
21
47.760201
0
LINE
8
annotation
62
1
39
211
10
252.991817
20
47.760201
11
252.991817
21
47.760201
0
LINE
8
annotation
62
1
39
211
10
252.991817
20
47.760201
11
252.811170
21
48.001891
0
LINE
8
annotation
62
1
39
211
10
252.811170
20
48.001891
11
252.596958
21
48.202292
0
LINE
8
annotation
62
1
39
211
10
252.596958
20
48.202292
11
252.355545
21
48.359813
0
LINE
8
annotation
62
1
39
211
10
252.355545
20
48.359813
11
252.093295
21
48.472857
0
LINE
8
annotation
62
1
39
211
10
252.093295
20
48.472857
11
251.816572
21
48.539831
0
LINE
8
annotation
62
1
39
211
10
251.816572
20
48.539831
11
251.531741
21
48.559142
0
LINE
8
annotation
62
1
39
211
10
251.531741
20
48.559142
11
251.245166
21
48.529194
0
LINE
8
annotation
62
1
39
211
10
251.245166
20
48.529194
11
250.963211
21
48.448395
0
LINE
8
annotation
62
1
39
211
10
250.963211
20
48.448395
11
250.692239
21
48.315151
0
LINE
8
annotation
62
1
39
211
10
250.692239
20
48.315151
11
250.298232
21
48.050952
0
LINE
8
annotation
62
1
39
211
10
266.402538
20
90.332540
11
267.864478
21
89.525496
0
LINE
8
annotation
62
1
39
211
10
267.864478
20
89.525496
11
267.864478
21
89.525496
0
LINE
8
annotation
62
1
39
211
10
267.864478
20
89.525496
11
268.140432
21
89.403934
0
LINE
8
annotation
62
1
39
211
10
268.140432
20
89.403934
11
268.425370
21
89.335333
0
LINE
8
annotation
62
1
39
211
10
268.425370
20
89.335333
11
268.712872
21
89.317792
0
LINE
8
annotation
62
1
39
211
10
268.712872
20
89.317792
11
268.996522
21
89.349408
0
LINE
8
annotation
62
1
39
211
10
268.996522
20
89.349408
11
269.269900
21
89.428282
0
LINE
8
annotation
62
1
39
211
10
269.269900
20
89.428282
11
269.526587
21
89.552512
0
LINE
8
annotation
62
1
39
211
10
269.526587
20
89.552512
11
269.760165
21
89.720198
0
LINE
8
annotation
62
1
39
211
10
269.760165
20
89.720198
11
269.964216
21
89.929436
0
LINE
8
annotation
62
1
39
211
10
269.964216
20
89.929436
11
270.132321
21
90.178328
0
LINE
8
annotation
62
1
39
211
10
270.132321
20
90.178328
11
270.536412
21
90.910330
0
LINE
8
annotation
62
1
39
211
10
270.536412
20
90.910330
11
270.536412
21
90.910330
0
LINE
8
annotation
62
1
39
211
10
270.536412
20
90.910330
11
270.657386
21
91.185097
0
LINE
8
annotation
62
1
39
211
10
270.657386
20
91.185097
11
270.725680
21
91.469204
0
LINE
8
annotation
62
1
39
211
10
270.725680
20
91.469204
11
270.743099
21
91.756194
0
LINE
8
annotation
62
1
39
211
10
270.743099
20
91.756194
11
270.711450
21
92.039614
0
LINE
8
annotation
62
1
39
211
10
270.711450
20
92.039614
11
270.632537
21
92.313009
0
LINE
8
annotation
62
1
39
211
10
270.632537
20
92.313009
11
270.508168
21
92.569925
0
LINE
8
annotation
62
1
39
211
10
270.508168
20
92.569925
11
270.340148
21
92.803906
0
LINE
8
annotation
62
1
39
211
10
270.340148
20
92.803906
11
270.130282
21
93.008499
0
LINE
8
annotation
62
1
39
211
10
270.130282
20
93.008499
11
269.880377
21
93.177248
0
LINE
8
annotation
62
1
39
211
10
269.880377
20
93.177248
11
269.148375
21
93.581340
0
LINE
8
annotation
62
1
39
211
10
269.148375
20
93.581340
11
269.880377
21
93.177248
0
LINE
8
annotation
62
1
39
211
10
269.880377
20
93.177248
11
269.880377
21
93.177248
0
LINE
8
annotation
62
1
39
211
10
269.880377
20
93.177248
11
270.156342
21
93.055706
0
LINE
8
annotation
62
1
39
211
10
270.156342
20
93.055706
11
270.441320
21
92.987178
0
LINE
8
annotation
62
1
39
211
10
270.441320
20
92.987178
11
270.728907
21
92.969788
0
LINE
8
annotation
62
1
39
211
10
270.728907
20
92.969788
11
271.012697
21
93.001659
0
LINE
8
annotation
62
1
39
211
10
271.012697
20
93.001659
11
271.286284
21
93.080912
0
LINE
8
annotation
62
1
39
211
10
271.286284
20
93.080912
11
271.543263
21
93.205671
0
LINE
8
annotation
62
1
39
211
10
271.543263
20
93.205671
11
271.777229
21
93.374058
0
LINE
8
annotation
62
1
39
211
10
271.777229
20
93.374058
11
271.981776
21
93.584197
0
LINE
8
annotation
62
1
39
211
10
271.981776
20
93.584197
11
272.150499
21
93.834208
0
LINE
8
annotation
62
1
39
211
10
272.150499
20
93.834208
11
272.150499
21
93.834208
0
LINE
8
annotation
62
1
39
211
10
272.150499
20
93.834208
11
272.271473
21
94.108976
0
LINE
8
annotation
62
1
39
211
10
272.271473
20
94.108976
11
272.339767
21
94.393082
0
LINE
8
annotation
62
1
39
211
10
272.339767
20
94.393082
11
272.357186
21
94.680073
0
LINE
8
annotation
62
1
39
211
10
272.357186
20
94.680073
11
272.325537
21
94.963493
0
LINE
8
annotation
62
1
39
211
10
272.325537
20
94.963493
11
272.246624
21
95.236888
0
LINE
8
annotation
62
1
39
211
10
272.246624
20
95.236888
11
272.122255
21
95.493804
0
LINE
8
annotation
62
1
39
211
10
272.122255
20
95.493804
11
271.954234
21
95.727785
0
LINE
8
annotation
62
1
39
211
10
271.954234
20
95.727785
11
271.744369
21
95.932378
0
LINE
8
annotation
62
1
39
211
10
271.744369
20
95.932378
11
271.494464
21
96.101127
0
LINE
8
annotation
62
1
39
211
10
271.494464
20
96.101127
11
270.032524
21
96.908170
0
LINE
8
annotation
62
1
39
211
10
290.802696
20
132.697140
11
287.215449
21
134.834013
0
LINE
8
annotation
62
1
39
211
10
287.215449
20
134.834013
11
291.641005
21
139.004949
0
LINE
8
annotation
62
1
39
211
10
288.871843
20
131.901395
11
290.581052
21
134.770706
0
LINE
8
annotation
62
1
39
211
10
314.530226
20
167.165197
11
315.911689
21
166.227036
0
LINE
8
annotation
62
1
39
211
10
315.911689
20
166.227036
11
315.911689
21
166.227036
0
LINE
8
annotation
62
1
39
211
10
315.911689
20
166.227036
11
316.174774
21
166.080947
0
LINE
8
annotation
62
1
39
211
10
316.174774
20
166.080947
11
316.451939
21
165.986633
0
LINE
8
annotation
62
1
39
211
10
316.451939
20
165.986633
11
316.736590
21
165.942853
0
LINE
8
annotation
62
1
39
211
10
316.736590
20
165.942853
11
317.022130
21
165.948366
0
LINE
8
annotation
62
1
39
211
10
317.022130
20
165.948366
11
317.301967
21
166.001931
0
LINE
8
annotation
62
1
39
211
10
317.301967
20
166.001931
11
317.569504
21
166.102307
0
LINE
8
annotation
62
1
39
211
10
317.569504
20
166.102307
11
317.818147
21
166.248254
0
LINE
8
annotation
62
1
39
211
10
317.818147
20
166.248254
11
318.041302
21
166.438531
0
LINE
8
annotation
62
1
39
211
10
318.041302
20
166.438531
11
318.232373
21
166.671897
0
LINE
8
annotation
62
1
39
211
10
318.232373
20
166.671897
11
318.699731
21
167.360093
0
LINE
8
annotation
62
1
39
211
10
318.699731
20
167.360093
11
318.699731
21
167.360093
0
LINE
8
annotation
62
1
39
211
10
318.699731
20
167.360093
11
318.846125
21
167.623624
0
LINE
8
annotation
62
1
39
211
10
318.846125
20
167.623624
11
318.940518
21
167.900872
0
LINE
8
annotation
62
1
39
211
10
318.940518
20
167.900872
11
318.984217
21
168.185316
0
LINE
8
annotation
62
1
39
211
10
318.984217
20
168.185316
11
318.978531
21
168.470431
0
LINE
8
annotation
62
1
39
211
10
318.978531
20
168.470431
11
318.924767
21
168.749694
0
LINE
8
annotation
62
1
39
211
10
318.924767
20
168.749694
11
318.824235
21
169.016583
0
LINE
8
annotation
62
1
39
211
10
318.824235
20
169.016583
11
318.678242
21
169.264573
0
LINE
8
annotation
62
1
39
211
10
318.678242
20
169.264573
11
318.488096
21
169.487142
0
LINE
8
annotation
62
1
39
211
10
318.488096
20
169.487142
11
318.255105
21
169.677766
0
LINE
8
annotation
62
1
39
211
10
318.255105
20
169.677766
11
316.873642
21
170.615928
0
LINE
8
annotation
62
1
39
211
10
316.873642
20
170.615928
11
318.754999
21
173.386266
0
LINE
8
annotation
62
1
39
211
10
318.754999
20
173.386266
11
321.517924
21
171.509943
0
LINE
8
annotation
62
1
39
211
10
355.992469
20
193.439186
11
355.992469
21
193.439186
0
LINE
8
annotation
62
1
39
211
10
355.992469
20
193.439186
11
355.508759
21
193.603655
0
LINE
8
annotation
62
1
39
211
10
355.508759
20
193.603655
11
355.016035
21
193.694954
0
LINE
8
annotation
62
1
39
211
10
355.016035
20
193.694954
11
354.521623
21
193.714911
0
LINE
8
annotation
62
1
39
211
10
354.521623
20
193.714911
11
354.032843
21
193.665353
0
LINE
8
annotation
62
1
39
211
10
354.032843
20
193.665353
11
353.557021
21
193.548108
0
LINE
8
annotation
62
1
39
211
10
353.557021
20
193.548108
11
353.101479
21
193.365003
0
LINE
8
annotation
62
1
39
211
10
353.101479
20
193.365003
11
352.673540
21
193.117864
0
LINE
8
annotation
62
1
39
211
10
352.673540
20
193.117864
11
352.280528
21
192.808520
0
LINE
8
annotation
62
1
39
211
10
352.280528
20
192.808520
11
351.929766
21
192.438798
0
LINE
8
annotation
62
1
39
211
10
351.929766
20
192.438798
11
350.345598
21
190.505514
0
LINE
8
annotation
62
1
39
211
10
350.345598
20
190.505514
11
350.345598
21
190.505514
0
LINE
8
annotation
62
1
39
211
10
350.345598
20
190.505514
11
350.176054
21
190.256069
0
LINE
8
annotation
62
1
39
211
10
350.176054
20
190.256069
11
350.056933
21
189.988089
0
LINE
8
annotation
62
1
39
211
10
350.056933
20
189.988089
11
349.987554
21
189.708249
0
LINE
8
annotation
62
1
39
211
10
349.987554
20
189.708249
11
349.967233
21
189.423225
0
LINE
8
annotation
62
1
39
211
10
349.967233
20
189.423225
11
349.995290
21
189.139692
0
LINE
8
annotation
62
1
39
211
10
349.995290
20
189.139692
11
350.071042
21
188.864328
0
LINE
8
annotation
62
1
39
211
10
350.071042
20
188.864328
11
350.193807
21
188.603807
0
LINE
8
annotation
62
1
39
211
10
350.193807
20
188.603807
11
350.362904
21
188.364805
0
LINE
8
annotation
62
1
39
211
10
350.362904
20
188.364805
11
350.577650
21
188.153998
0
LINE
8
annotation
62
1
39
211
10
350.577650
20
188.153998
11
350.577650
21
188.153998
0
LINE
8
annotation
62
1
39
211
10
350.577650
20
188.153998
11
350.827037
21
187.984486
0
LINE
8
annotation
62
1
39
211
10
350.827037
20
187.984486
11
351.094870
21
187.865459
0
LINE
8
annotation
62
1
39
211
10
351.094870
20
187.865459
11
351.374515
21
187.796237
0
LINE
8
annotation
62
1
39
211
10
351.374515
20
187.796237
11
351.659338
21
187.776140
0
LINE
8
annotation
62
1
39
211
10
351.659338
20
187.776140
11
351.942703
21
187.804487
0
LINE
8
annotation
62
1
39
211
10
351.942703
20
187.804487
11
352.217977
21
187.880598
0
LINE
8
annotation
62
1
39
211
10
352.217977
20
187.880598
11
352.478525
21
188.003792
0
LINE
8
annotation
62
1
39
211
10
352.478525
20
188.003792
11
352.717711
21
188.173388
0
LINE
8
annotation
62
1
39
211
10
352.717711
20
188.173388
11
352.928903
21
188.388706
0
LINE
8
annotation
62
1
39
211
10
352.928903
20
188.388706
11
353.456162
21
189.032161
0
LINE
8
annotation
62
1
39
211
10
353.456162
20
189.032161
11
353.456162
21
189.032161
0
LINE
8
annotation
62
1
39
211
10
353.456162
20
189.032161
11
353.625673
21
189.281444
0
LINE
8
annotation
62
1
39
211
10
353.625673
20
189.281444
11
353.744697
21
189.549000
0
LINE
8
annotation
62
1
39
211
10
353.744697
20
189.549000
11
353.813914
21
189.828243
0
LINE
8
annotation
62
1
39
211
10
353.813914
20
189.828243
11
353.834005
21
190.112590
0
LINE
8
annotation
62
1
39
211
10
353.834005
20
190.112590
11
353.805652
21
190.395454
0
LINE
8
annotation
62
1
39
211
10
353.805652
20
190.395454
11
353.729536
21
190.670251
0
LINE
8
annotation
62
1
39
211
10
353.729536
20
190.670251
11
353.606337
21
190.930397
0
LINE
8
annotation
62
1
39
211
10
353.606337
20
190.930397
11
353.436738
21
191.169306
0
LINE
8
annotation
62
1
39
211
10
353.436738
20
191.169306
11
353.221419
21
191.380394
0
LINE
8
annotation
62
1
39
211
10
353.221419
20
191.380394
11
351.929766
21
192.438798
0
LINE
8
annotation
62
1
39
211
10
348.528440
20
188.617885
11
351.436756
21
186.234757
0
LINE
8
annotation
62
1
39
211
10
391.199116
20
191.340786
11
397.811938
21
195.292480
0
LINE
8
annotation
62
1
39
211
10
397.811938
20
195.292480
11
395.514470
21
197.722368
0
LINE
8
annotation
62
1
39
211
10
395.378623
20
192.991773
11
394.230051
21
194.206545
0
LINE
8
annotation
62
1
39
211
10
307.027496
20
179.435704
11
293.784391
21
179.435704
0
LINE
8
annotation
62
1
39
211
10
293.784391
20
179.435704
11
307.027496
21
203.286455
0
LINE
8
annotation
62
1
39
211
10
307.027496
20
203.286455
11
293.784391
21
203.286455
0
LINE
8
annotation
62
1
39
211
10
329.014954
20
191.361080
11
315.973771
21
191.361080
0
LINE
8
annotation
62
1
39
211
10
348.551231
20
179.435510
11
337.958542
21
179.435510
0
LINE
8
annotation
62
1
39
211
10
337.958542
20
179.435510
11
347.746534
21
195.192920
0
LINE
8
annotation
62
1
39
211
10
347.746534
20
195.192920
11
347.746534
21
195.192920
0
LINE
8
annotation
62
1
39
211
10
347.746534
20
195.192920
11
347.758235
21
195.207399
0
LINE
8
annotation
62
1
39
211
10
347.758235
20
195.207399
11
347.769456
21
195.222002
0
LINE
8
annotation
62
1
39
211
10
347.769456
20
195.222002
11
347.780271
21
195.236850
0
LINE
8
annotation
62
1
39
211
10
347.780271
20
195.236850
11
347.790753
21
195.252068
0
LINE
8
annotation
62
1
39
211
10
347.790753
20
195.252068
11
347.800977
21
195.267778
0
LINE
8
annotation
62
1
39
211
10
347.800977
20
195.267778
11
347.811016
21
195.284104
0
LINE
8
annotation
62
1
39
211
10
347.811016
20
195.284104
11
347.820944
21
195.301168
0
LINE
8
annotation
62
1
39
211
10
347.820944
20
195.301168
11
347.830836
21
195.319094
0
LINE
8
annotation
62
1
39
211
10
347.830836
20
195.319094
11
347.840764
21
195.338005
0
LINE
8
annotation
62
1
39
211
10
347.840764
20
195.338005
11
347.840764
21
195.338005
0
LINE
8
annotation
62
1
39
211
10
347.840764
20
195.338005
11
348.244908
21
196.205736
0
LINE
8
annotation
62
1
39
211
10
348.244908
20
196.205736
11
348.481002
21
197.105216
0
LINE
8
annotation
62
1
39
211
10
348.481002
20
197.105216
11
348.554832
21
198.016119
0
LINE
8
annotation
62
1
39
211
10
348.554832
20
198.016119
11
348.472184
21
198.918123
0
LINE
8
annotation
62
1
39
211
10
348.472184
20
198.918123
11
348.238843
21
199.790901
0
LINE
8
annotation
62
1
39
211
10
348.238843
20
199.790901
11
347.860596
21
200.614130
0
LINE
8
annotation
62
1
39
211
10
347.860596
20
200.614130
11
347.343229
21
201.367484
0
LINE
8
annotation
62
1
39
211
10
347.343229
20
201.367484
11
346.692527
21
202.030640
0
LINE
8
annotation
62
1
39
211
10
346.692527
20
202.030640
11
345.914277
21
202.583273
0
LINE
8
annotation
62
1
39
211
10
345.914277
20
202.583273
11
345.914277
21
202.583273
0
LINE
8
annotation
62
1
39
211
10
345.914277
20
202.583273
11
345.044133
21
202.981674
0
LINE
8
annotation
62
1
39
211
10
345.044133
20
202.981674
11
344.143275
21
203.214130
0
LINE
8
annotation
62
1
39
211
10
344.143275
20
203.214130
11
343.231841
21
203.285873
0
LINE
8
annotation
62
1
39
211
10
343.231841
20
203.285873
11
342.329974
21
203.202136
0
LINE
8
annotation
62
1
39
211
10
342.329974
20
203.202136
11
341.457811
21
202.968149
0
LINE
8
annotation
62
1
39
211
10
341.457811
20
202.968149
11
340.635493
21
202.589145
0
LINE
8
annotation
62
1
39
211
10
340.635493
20
202.589145
11
339.883160
21
202.070356
0
LINE
8
annotation
62
1
39
211
10
339.883160
20
202.070356
11
339.220952
21
201.417013
0
LINE
8
annotation
62
1
39
211
10
339.220952
20
201.417013
11
338.669009
21
200.634350
0
LINE
8
annotation
62
1
39
211
10
338.669009
20
200.634350
11
337.973499
21
199.300167
0
LINE
8
boundary
62
5
39
2
10
108.836796
20
253.838043
11
116.437511
21
253.455246
0
LINE
8
boundary
62
5
39
2
10
116.437511
20
253.455246
11
117.142511
21
253.995146
0
LINE
8
boundary
62
5
39
2
10
117.142511
20
253.995146
11
117.142511
21
338.941529
0
LINE
8
boundary
62
5
39
2
10
117.142511
20
338.941529
11
121.588511
21
338.941529
0
LINE
8
boundary
62
5
39
2
10
121.588511
20
338.941529
11
121.588511
21
253.666537
0
LINE
8
boundary
62
5
39
2
10
121.588511
20
253.666537
11
122.293512
21
253.126637
0
LINE
8
boundary
62
5
39
2
10
122.293512
20
253.126637
11
127.885410
21
252.793150
0
LINE
8
boundary
62
5
39
2
10
127.885410
20
252.793150
11
128.532534
21
252.792627
0
LINE
8
boundary
62
5
39
2
10
128.532534
20
252.792627
11
129.302532
21
252.742783
0
LINE
8
boundary
62
5
39
2
10
129.302532
20
252.742783
11
137.000362
21
252.006743
0
LINE
8
boundary
62
5
39
2
10
137.000362
20
252.006743
11
138.276954
21
251.932796
0
LINE
8
boundary
62
5
39
2
10
138.276954
20
251.932796
11
139.902282
21
251.868270
0
LINE
8
boundary
62
5
39
2
10
139.902282
20
251.868270
11
144.464122
21
251.431497
0
LINE
8
boundary
62
5
39
2
10
144.464122
20
251.431497
11
150.335262
21
250.794912
0
LINE
8
boundary
62
5
39
2
10
150.335262
20
250.794912
11
154.225998
21
250.418028
0
LINE
8
boundary
62
5
39
2
10
154.225998
20
250.418028
11
157.222308
21
250.340693
0
LINE
8
boundary
62
5
39
2
10
157.222308
20
250.340693
11
162.165877
21
250.622202
0
LINE
8
boundary
62
5
39
2
10
162.165877
20
250.622202
11
166.607087
21
250.530755
0
LINE
8
boundary
62
5
39
2
10
166.607087
20
250.530755
11
169.022799
21
250.729922
0
LINE
8
boundary
62
5
39
2
10
169.022799
20
250.729922
11
169.727799
21
251.269821
0
LINE
8
boundary
62
5
39
2
10
169.727799
20
251.269821
11
169.727799
21
320.128833
0
LINE
8
boundary
62
5
39
2
10
169.727799
20
320.128833
11
174.173799
21
320.128833
0
LINE
8
boundary
62
5
39
2
10
174.173799
20
320.128833
11
174.173799
21
252.647892
0
LINE
8
boundary
62
5
39
2
10
174.173799
20
252.647892
11
174.878799
21
252.107992
0
LINE
8
boundary
62
5
39
2
10
174.878799
20
252.107992
11
176.101782
21
252.474728
0
LINE
8
boundary
62
5
39
2
10
176.101782
20
252.474728
11
180.266843
21
254.311414
0
LINE
8
boundary
62
5
39
2
10
180.266843
20
254.311414
11
181.049419
21
254.654821
0
LINE
8
boundary
62
5
39
2
10
181.049419
20
254.654821
11
182.274994
21
255.533880
0
LINE
8
boundary
62
5
39
2
10
182.274994
20
255.533880
11
185.491726
21
257.837271
0
LINE
8
boundary
62
5
39
2
10
185.491726
20
257.837271
11
185.992456
21
258.283432
0
LINE
8
boundary
62
5
39
2
10
185.992456
20
258.283432
11
189.651097
21
262.276275
0
LINE
8
boundary
62
5
39
2
10
189.651097
20
262.276275
11
191.156553
21
264.772872
0
LINE
8
boundary
62
5
39
2
10
191.156553
20
264.772872
11
192.854118
21
267.509141
0
LINE
8
boundary
62
5
39
2
10
192.854118
20
267.509141
11
194.809027
21
272.237688
0
LINE
8
boundary
62
5
39
2
10
194.809027
20
272.237688
11
195.420168
21
273.648813
0
LINE
8
boundary
62
5
39
2
10
195.420168
20
273.648813
11
196.028297
21
275.600160
0
LINE
8
boundary
62
5
39
2
10
196.028297
20
275.600160
11
197.036892
21
279.350327
0
LINE
8
boundary
62
5
39
2
10
197.036892
20
279.350327
11
197.167979
21
279.999901
0
LINE
8
boundary
62
5
39
2
10
197.167979
20
279.999901
11
198.618935
21
287.844177
0
LINE
8
boundary
62
5
39
2
10
198.618935
20
287.844177
11
199.371404
21
295.845001
0
LINE
8
boundary
62
5
39
2
10
199.371404
20
295.845001
11
199.320842
21
304.027013
0
LINE
8
boundary
62
5
39
2
10
199.320842
20
304.027013
11
199.309482
21
304.827884
0
LINE
8
boundary
62
5
39
2
10
199.309482
20
304.827884
11
198.672736
21
310.471842
0
LINE
8
boundary
62
5
39
2
10
198.672736
20
310.471842
11
198.414045
21
312.087687
0
LINE
8
boundary
62
5
39
2
10
198.414045
20
312.087687
11
198.050486
21
314.402059
0
LINE
8
boundary
62
5
39
2
10
198.050486
20
314.402059
11
196.796379
21
320.099302
0
LINE
8
boundary
62
5
39
2
10
196.796379
20
320.099302
11
196.042329
21
323.784329
0
LINE
8
boundary
62
5
39
2
10
196.042329
20
323.784329
11
195.853463
21
324.595690
0
LINE
8
boundary
62
5
39
2
10
195.853463
20
324.595690
11
194.777043
21
328.051028
0
LINE
8
boundary
62
5
39
2
10
194.777043
20
328.051028
11
192.759606
21
335.302208
0
LINE
8
boundary
62
5
39
2
10
192.759606
20
335.302208
11
192.492771
21
336.113683
0
LINE
8
boundary
62
5
39
2
10
192.492771
20
336.113683
11
191.988423
21
337.691957
0
LINE
8
boundary
62
5
39
2
10
191.988423
20
337.691957
11
189.953922
21
343.850741
0
LINE
8
boundary
62
5
39
2
10
189.953922
20
343.850741
11
189.209721
21
346.289386
0
LINE
8
boundary
62
5
39
2
10
189.209721
20
346.289386
11
188.364116
21
348.606375
0
LINE
8
boundary
62
5
39
2
10
188.364116
20
348.606375
11
187.232697
21
351.731545
0
LINE
8
boundary
62
5
39
2
10
187.232697
20
351.731545
11
185.186341
21
357.568735
0
LINE
8
boundary
62
5
39
2
10
185.186341
20
357.568735
11
184.364747
21
359.591272
0
LINE
8
boundary
62
5
39
2
10
184.364747
20
359.591272
11
183.935286
21
360.640484
0
LINE
8
boundary
62
5
39
2
10
183.935286
20
360.640484
11
182.620199
21
363.898562
0
LINE
8
boundary
62
5
39
2
10
182.620199
20
363.898562
11
181.635598
21
366.129572
0
LINE
8
boundary
62
5
39
2
10
181.635598
20
366.129572
11
181.384114
21
366.810991
0
LINE
8
boundary
62
5
39
2
10
181.384114
20
366.810991
11
181.218312
21
367.409405
0
LINE
8
boundary
62
5
39
2
10
181.218312
20
367.409405
11
180.549865
21
369.125158
0
LINE
8
boundary
62
5
39
2
10
180.549865
20
369.125158
11
179.108976
21
372.370813
0
LINE
8
boundary
62
5
39
2
10
179.108976
20
372.370813
11
177.907405
21
375.223550
0
LINE
8
boundary
62
5
39
2
10
177.907405
20
375.223550
11
176.860299
21
377.100521
0
LINE
8
boundary
62
5
39
2
10
176.860299
20
377.100521
11
176.442901
21
378.027850
0
LINE
8
boundary
62
5
39
2
10
176.442901
20
378.027850
11
175.927323
21
379.196544
0
LINE
8
boundary
62
5
39
2
10
175.927323
20
379.196544
11
174.416821
21
383.355810
0
LINE
8
boundary
62
5
39
2
10
174.416821
20
383.355810
11
174.200674
21
383.821341
0
LINE
8
boundary
62
5
39
2
10
174.200674
20
383.821341
11
173.282254
21
385.823120
0
LINE
8
boundary
62
5
39
2
10
173.282254
20
385.823120
11
171.541910
21
389.322423
0
LINE
8
boundary
62
5
39
2
10
171.541910
20
389.322423
11
171.001087
21
390.797683
0
LINE
8
boundary
62
5
39
2
10
171.001087
20
390.797683
11
169.481538
21
394.129063
0
LINE
8
boundary
62
5
39
2
10
169.481538
20
394.129063
11
169.096798
21
394.871476
0
LINE
8
boundary
62
5
39
2
10
169.096798
20
394.871476
11
167.217756
21
398.498972
0
LINE
8
boundary
62
5
39
2
10
167.217756
20
398.498972
11
164.366516
21
404.101126
0
LINE
8
boundary
62
5
39
2
10
164.366516
20
404.101126
11
163.638743
21
405.527166
0
LINE
8
boundary
62
5
39
2
10
163.638743
20
405.527166
11
163.314634
21
406.173214
0
LINE
8
boundary
62
5
39
2
10
163.314634
20
406.173214
11
162.942219
21
406.966817
0
LINE
8
boundary
62
5
39
2
10
162.942219
20
406.966817
11
162.466744
21
407.925608
0
LINE
8
boundary
62
5
39
2
10
162.466744
20
407.925608
11
159.799604
21
413.035428
0
LINE
8
boundary
62
5
39
2
10
159.799604
20
413.035428
11
158.407938
21
415.662242
0
LINE
8
boundary
62
5
39
2
10
158.407938
20
415.662242
11
157.931520
21
416.586962
0
LINE
8
boundary
62
5
39
2
10
157.931520
20
416.586962
11
157.251545
21
417.824224
0
LINE
8
boundary
62
5
39
2
10
157.251545
20
417.824224
11
155.902113
21
420.580302
0
LINE
8
boundary
62
5
39
2
10
155.902113
20
420.580302
11
155.507590
21
421.293578
0
LINE
8
boundary
62
5
39
2
10
155.507590
20
421.293578
11
155.256527
21
421.894337
0
LINE
8
boundary
62
5
39
2
10
155.256527
20
421.894337
11
154.850207
21
422.742454
0
LINE
8
boundary
62
5
39
2
10
154.850207
20
422.742454
11
154.111071
21
424.188943
0
LINE
8
boundary
62
5
39
2
10
154.111071
20
424.188943
11
152.894676
21
426.575963
0
LINE
8
boundary
62
5
39
2
10
152.894676
20
426.575963
11
151.324004
21
429.646047
0
LINE
8
boundary
62
5
39
2
10
151.324004
20
429.646047
11
150.089138
21
431.777033
0
LINE
8
boundary
62
5
39
2
10
150.089138
20
431.777033
11
148.042596
21
436.130066
0
LINE
8
boundary
62
5
39
2
10
148.042596
20
436.130066
11
147.617494
21
437.239095
0
LINE
8
boundary
62
5
39
2
10
147.617494
20
437.239095
11
146.335443
21
439.813472
0
LINE
8
boundary
62
5
39
2
10
146.335443
20
439.813472
11
144.159032
21
444.060575
0
LINE
8
boundary
62
5
39
2
10
144.159032
20
444.060575
11
142.350333
21
442.590389
0
LINE
8
boundary
62
5
39
2
10
142.350333
20
442.590389
11
141.474713
21
441.880142
0
LINE
8
boundary
62
5
39
2
10
141.474713
20
441.880142
11
140.299147
21
440.926638
0
LINE
8
boundary
62
5
39
2
10
140.299147
20
440.926638
11
137.414163
21
438.609157
0
LINE
8
boundary
62
5
39
2
10
137.414163
20
438.609157
11
132.398021
21
434.591108
0
LINE
8
boundary
62
5
39
2
10
132.398021
20
434.591108
11
130.247511
21
432.878969
0
LINE
8
boundary
62
5
39
2
10
130.247511
20
432.878969
11
124.069160
21
427.984139
0
LINE
8
boundary
62
5
39
2
10
124.069160
20
427.984139
11
117.552631
21
422.821843
0
LINE
8
boundary
62
5
39
2
10
117.552631
20
422.821843
11
115.675239
21
421.346767
0
LINE
8
boundary
62
5
39
2
10
115.675239
20
421.346767
11
114.125371
21
420.138969
0
LINE
8
boundary
62
5
39
2
10
114.125371
20
420.138969
11
106.840607
21
414.460792
0
LINE
8
boundary
62
5
39
2
10
106.840607
20
414.460792
11
99.921586
21
409.082799
0
LINE
8
boundary
62
5
39
2
10
99.921586
20
409.082799
11
97.240449
21
407.005156
0
LINE
8
boundary
62
5
39
2
10
97.240449
20
407.005156
11
93.409015
21
404.040048
0
LINE
8
boundary
62
5
39
2
10
93.409015
20
404.040048
11
87.235032
21
399.295287
0
LINE
8
boundary
62
5
39
2
10
87.235032
20
399.295287
11
81.533643
21
394.901823
0
LINE
8
boundary
62
5
39
2
10
81.533643
20
394.901823
11
79.316485
21
393.194302
0
LINE
8
boundary
62
5
39
2
10
79.316485
20
393.194302
11
78.136828
21
392.288317
0
LINE
8
boundary
62
5
39
2
10
78.136828
20
392.288317
11
70.106811
21
386.131649
0
LINE
8
boundary
62
5
39
2
10
70.106811
20
386.131649
11
68.473575
21
384.877984
0
LINE
8
boundary
62
5
39
2
10
68.473575
20
384.877984
11
58.577585
21
377.305492
0
LINE
8
boundary
62
5
39
2
10
58.577585
20
377.305492
11
58.028471
21
376.886872
0
LINE
8
boundary
62
5
39
2
10
58.028471
20
376.886872
11
54.969299
21
374.563249
0
LINE
8
boundary
62
5
39
2
10
54.969299
20
374.563249
11
47.159502
21
368.641098
0
LINE
8
boundary
62
5
39
2
10
47.159502
20
368.641098
11
45.887392
21
367.676963
0
LINE
8
boundary
62
5
39
2
10
45.887392
20
367.676963
11
43.104625
21
365.582942
0
LINE
8
boundary
62
5
39
2
10
43.104625
20
365.582942
11
36.698566
21
360.770782
0
LINE
8
boundary
62
5
39
2
10
36.698566
20
360.770782
11
32.699265
21
357.782711
0
LINE
8
boundary
62
5
39
2
10
32.699265
20
357.782711
11
30.448139
21
356.103070
0
LINE
8
boundary
62
5
39
2
10
30.448139
20
356.103070
11
24.323641
21
351.571337
0
LINE
8
boundary
62
5
39
2
10
24.323641
20
351.571337
11
23.184076
21
350.730850
0
LINE
8
boundary
62
5
39
2
10
23.184076
20
350.730850
11
16.625484
21
345.923632
0
LINE
8
boundary
62
5
39
2
10
16.625484
20
345.923632
11
15.281837
21
344.940419
0
LINE
8
boundary
62
5
39
2
10
15.281837
20
344.940419
11
10.239004
21
341.294313
0
LINE
8
boundary
62
5
39
2
10
10.239004
20
341.294313
11
9.688523
21
340.896647
0
LINE
8
boundary
62
5
39
2
10
9.688523
20
340.896647
11
5.165033
21
337.652780
0
LINE
8
boundary
62
5
39
2
10
5.165033
20
337.652780
11
4.490804
21
337.172968
0
LINE
8
boundary
62
5
39
2
10
4.490804
20
337.172968
11
2.866509
21
336.018944
0
LINE
8
boundary
62
5
39
2
10
2.866509
20
336.018944
11
1.587500
21
335.109491
0
LINE
8
boundary
62
5
39
2
10
1.587500
20
335.109491
11
2.877005
21
325.531359
0
LINE
8
boundary
62
5
39
2
10
2.877005
20
325.531359
11
3.248503
21
322.329269
0
LINE
8
boundary
62
5
39
2
10
3.248503
20
322.329269
11
3.896902
21
320.066880
0
LINE
8
boundary
62
5
39
2
10
3.896902
20
320.066880
11
9.273729
21
304.455617
0
LINE
8
boundary
62
5
39
2
10
9.273729
20
304.455617
11
10.933572
21
300.941049
0
LINE
8
boundary
62
5
39
2
10
10.933572
20
300.941049
11
11.266936
21
300.339688
0
LINE
8
boundary
62
5
39
2
10
11.266936
20
300.339688
11
11.971936
21
300.879588
0
LINE
8
boundary
62
5
39
2
10
11.971936
20
300.879588
11
11.971936
21
319.425328
0
LINE
8
boundary
62
5
39
2
10
11.971936
20
319.425328
11
16.417936
21
319.425328
0
LINE
8
boundary
62
5
39
2
10
16.417936
20
319.425328
11
16.417936
21
291.811264
0
LINE
8
boundary
62
5
39
2
10
16.417936
20
291.811264
11
17.122936
21
290.805937
0
LINE
8
boundary
62
5
39
2
10
17.122936
20
290.805937
11
19.228802
21
287.802983
0
LINE
8
boundary
62
5
39
2
10
19.228802
20
287.802983
11
19.778975
21
287.170381
0
LINE
8
boundary
62
5
39
2
10
19.778975
20
287.170381
11
20.204317
21
286.657147
0
LINE
8
boundary
62
5
39
2
10
20.204317
20
286.657147
11
23.866562
21
282.735263
0
LINE
8
boundary
62
5
39
2
10
23.866562
20
282.735263
11
26.177074
21
280.618251
0
LINE
8
boundary
62
5
39
2
10
26.177074
20
280.618251
11
32.282150
21
275.359273
0
LINE
8
boundary
62
5
39
2
10
32.282150
20
275.359273
11
33.486786
21
274.454676
0
LINE
8
boundary
62
5
39
2
10
33.486786
20
274.454676
11
40.009316
21
270.177297
0
LINE
8
boundary
62
5
39
2
10
40.009316
20
270.177297
11
40.716843
21
269.751926
0
LINE
8
boundary
62
5
39
2
10
40.716843
20
269.751926
11
49.144209
21
265.447698
0
LINE
8
boundary
62
5
39
2
10
49.144209
20
265.447698
11
49.745067
21
265.178253
0
LINE
8
boundary
62
5
39
2
10
49.745067
20
265.178253
11
52.640060
21
264.061542
0
LINE
8
boundary
62
5
39
2
10
52.640060
20
264.061542
11
58.022985
21
261.990542
0
LINE
8
boundary
62
5
39
2
10
58.022985
20
261.990542
11
58.553387
21
261.793312
0
LINE
8
boundary
62
5
39
2
10
58.553387
20
261.793312
11
63.852224
21
260.234429
0
LINE
8
boundary
62
5
39
2
10
63.852224
20
260.234429
11
64.557224
21
260.774329
0
LINE
8
boundary
62
5
39
2
10
64.557224
20
260.774329
11
64.557224
21
321.448404
0
LINE
8
boundary
62
5
39
2
10
64.557224
20
321.448404
11
69.003224
21
321.448404
0
LINE
8
boundary
62
5
39
2
10
69.003224
20
321.448404
11
69.003224
21
259.252930
0
LINE
8
boundary
62
5
39
2
10
69.003224
20
259.252930
11
69.708224
21
258.713030
0
LINE
8
boundary
62
5
39
2
10
69.708224
20
258.713030
11
77.355953
21
257.103454
0
LINE
8
boundary
62
5
39
2
10
77.355953
20
257.103454
11
78.439251
21
256.910451
0
LINE
8
boundary
62
5
39
2
10
78.439251
20
256.910451
11
80.656921
21
256.574910
0
LINE
8
boundary
62
5
39
2
10
80.656921
20
256.574910
11
84.135811
21
256.093383
0
LINE
8
boundary
62
5
39
2
10
84.135811
20
256.093383
11
86.431209
21
255.752929
0
LINE
8
boundary
62
5
39
2
10
86.431209
20
255.752929
11
87.554371
21
255.630690
0
LINE
8
boundary
62
5
39
2
10
87.554371
20
255.630690
11
97.019971
21
254.718859
0
LINE
8
boundary
62
5
39
2
10
97.019971
20
254.718859
11
97.942991
21
254.608747
0
LINE
8
boundary
62
5
39
2
10
97.942991
20
254.608747
11
98.834636
21
254.521138
0
LINE
8
boundary
62
5
39
2
10
98.834636
20
254.521138
11
106.482063
21
254.009087
0
LINE
8
boundary
62
5
39
2
10
106.482063
20
254.009087
11
107.745559
21
253.925955
0
LINE
8
boundary
62
5
39
2
10
107.745559
20
253.925955
11
108.311744
21
253.888697
0
LINE
8
boundary
62
5
39
2
10
108.311744
20
253.888697
11
108.836796
21
253.838043
0
LINE
8
annotation
62
1
39
211
10
10.434875
20
327.283365
11
10.434875
21
330.623177
0
LINE
8
annotation
62
1
39
211
10
10.434875
20
330.623177
11
15.403093
21
327.537081
0
LINE
8
annotation
62
1
39
211
10
15.403093
20
327.537081
11
15.403093
21
327.537081
0
LINE
8
annotation
62
1
39
211
10
15.403093
20
327.537081
11
15.407658
21
327.533392
0
LINE
8
annotation
62
1
39
211
10
15.407658
20
327.533392
11
15.412262
21
327.529854
0
LINE
8
annotation
62
1
39
211
10
15.412262
20
327.529854
11
15.416944
21
327.526444
0
LINE
8
annotation
62
1
39
211
10
15.416944
20
327.526444
11
15.421742
21
327.523139
0
LINE
8
annotation
62
1
39
211
10
15.421742
20
327.523139
11
15.426695
21
327.519916
0
LINE
8
annotation
62
1
39
211
10
15.426695
20
327.519916
11
15.431843
21
327.516750
0
LINE
8
annotation
62
1
39
211
10
15.431843
20
327.516750
11
15.437223
21
327.513620
0
LINE
8
annotation
62
1
39
211
10
15.437223
20
327.513620
11
15.442875
21
327.510501
0
LINE
8
annotation
62
1
39
211
10
15.442875
20
327.510501
11
15.448837
21
327.507371
0
LINE
8
annotation
62
1
39
211
10
15.448837
20
327.507371
11
15.448837
21
327.507371
0
LINE
8
annotation
62
1
39
211
10
15.448837
20
327.507371
11
15.722428
21
327.379947
0
LINE
8
annotation
62
1
39
211
10
15.722428
20
327.379947
11
16.006028
21
327.305508
0
LINE
8
annotation
62
1
39
211
10
16.006028
20
327.305508
11
16.293231
21
327.282230
0
LINE
8
annotation
62
1
39
211
10
16.293231
20
327.282230
11
16.577627
21
327.308288
0
LINE
8
annotation
62
1
39
211
10
16.577627
20
327.308288
11
16.852809
21
327.381859
0
LINE
8
annotation
62
1
39
211
10
16.852809
20
327.381859
11
17.112368
21
327.501118
0
LINE
8
annotation
62
1
39
211
10
17.112368
20
327.501118
11
17.349896
21
327.664241
0
LINE
8
annotation
62
1
39
211
10
17.349896
20
327.664241
11
17.558985
21
327.869403
0
LINE
8
annotation
62
1
39
211
10
17.558985
20
327.869403
11
17.733227
21
328.114781
0
LINE
8
annotation
62
1
39
211
10
17.733227
20
328.114781
11
17.733227
21
328.114781
0
LINE
8
annotation
62
1
39
211
10
17.733227
20
328.114781
11
17.858841
21
328.389132
0
LINE
8
annotation
62
1
39
211
10
17.858841
20
328.389132
11
17.932133
21
328.673167
0
LINE
8
annotation
62
1
39
211
10
17.932133
20
328.673167
11
17.954753
21
328.960537
0
LINE
8
annotation
62
1
39
211
10
17.954753
20
328.960537
11
17.928351
21
329.244890
0
LINE
8
annotation
62
1
39
211
10
17.928351
20
329.244890
11
17.854576
21
329.519878
0
LINE
8
annotation
62
1
39
211
10
17.854576
20
329.519878
11
17.735079
21
329.779150
0
LINE
8
annotation
62
1
39
211
10
17.735079
20
329.779150
11
17.571507
21
330.016356
0
LINE
8
annotation
62
1
39
211
10
17.571507
20
330.016356
11
17.365512
21
330.225146
0
LINE
8
annotation
62
1
39
211
10
17.365512
20
330.225146
11
17.118743
21
330.399171
0
LINE
8
annotation
62
1
39
211
10
17.118743
20
330.399171
11
16.698084
21
330.618461
0
LINE
8
annotation
62
1
39
211
10
63.020460
20
332.646253
11
63.020460
21
330.976347
0
LINE
8
annotation
62
1
39
211
10
63.020460
20
330.976347
11
63.020460
21
330.976347
0
LINE
8
annotation
62
1
39
211
10
63.020460
20
330.976347
11
63.047402
21
330.676011
0
LINE
8
annotation
62
1
39
211
10
63.047402
20
330.676011
11
63.125051
21
330.393405
0
LINE
8
annotation
62
1
39
211
10
63.125051
20
330.393405
11
63.248640
21
330.133229
0
LINE
8
annotation
62
1
39
211
10
63.248640
20
330.133229
11
63.413403
21
329.900184
0
LINE
8
annotation
62
1
39
211
10
63.413403
20
329.900184
11
63.614575
21
329.698971
0
LINE
8
annotation
62
1
39
211
10
63.614575
20
329.698971
11
63.847387
21
329.534290
0
LINE
8
annotation
62
1
39
211
10
63.847387
20
329.534290
11
64.107074
21
329.410841
0
LINE
8
annotation
62
1
39
211
10
64.107074
20
329.410841
11
64.388870
21
329.333325
0
LINE
8
annotation
62
1
39
211
10
64.388870
20
329.333325
11
64.688008
21
329.306441
0
LINE
8
annotation
62
1
39
211
10
64.688008
20
329.306441
11
65.524140
21
329.306441
0
LINE
8
annotation
62
1
39
211
10
65.524140
20
329.306441
11
65.524140
21
329.306441
0
LINE
8
annotation
62
1
39
211
10
65.524140
20
329.306441
11
65.823153
21
329.333325
0
LINE
8
annotation
62
1
39
211
10
65.823153
20
329.333325
11
66.104883
21
329.410841
0
LINE
8
annotation
62
1
39
211
10
66.104883
20
329.410841
11
66.364551
21
329.534290
0
LINE
8
annotation
62
1
39
211
10
66.364551
20
329.534290
11
66.597379
21
329.698971
0
LINE
8
annotation
62
1
39
211
10
66.597379
20
329.698971
11
66.798588
21
329.900184
0
LINE
8
annotation
62
1
39
211
10
66.798588
20
329.900184
11
66.963402
21
330.133229
0
LINE
8
annotation
62
1
39
211
10
66.963402
20
330.133229
11
67.087042
21
330.393405
0
LINE
8
annotation
62
1
39
211
10
67.087042
20
330.393405
11
67.164730
21
330.676011
0
LINE
8
annotation
62
1
39
211
10
67.164730
20
330.676011
11
67.191688
21
330.976347
0
LINE
8
annotation
62
1
39
211
10
67.191688
20
330.976347
11
67.191688
21
331.812479
0
LINE
8
annotation
62
1
39
211
10
67.191688
20
331.812479
11
67.191688
21
330.976347
0
LINE
8
annotation
62
1
39
211
10
67.191688
20
330.976347
11
67.191688
21
330.976347
0
LINE
8
annotation
62
1
39
211
10
67.191688
20
330.976347
11
67.218652
21
330.676011
0
LINE
8
annotation
62
1
39
211
10
67.218652
20
330.676011
11
67.296385
21
330.393405
0
LINE
8
annotation
62
1
39
211
10
67.296385
20
330.393405
11
67.420147
21
330.133229
0
LINE
8
annotation
62
1
39
211
10
67.420147
20
330.133229
11
67.585201
21
329.900184
0
LINE
8
annotation
62
1
39
211
10
67.585201
20
329.900184
11
67.786805
21
329.698971
0
LINE
8
annotation
62
1
39
211
10
67.786805
20
329.698971
11
68.020222
21
329.534290
0
LINE
8
annotation
62
1
39
211
10
68.020222
20
329.534290
11
68.280711
21
329.410841
0
LINE
8
annotation
62
1
39
211
10
68.280711
20
329.410841
11
68.563534
21
329.333325
0
LINE
8
annotation
62
1
39
211
10
68.563534
20
329.333325
11
68.863951
21
329.306441
0
LINE
8
annotation
62
1
39
211
10
68.863951
20
329.306441
11
68.863951
21
329.306441
0
LINE
8
annotation
62
1
39
211
10
68.863951
20
329.306441
11
69.162965
21
329.333325
0
LINE
8
annotation
62
1
39
211
10
69.162965
20
329.333325
11
69.444695
21
329.410841
0
LINE
8
annotation
62
1
39
211
10
69.444695
20
329.410841
11
69.704363
21
329.534290
0
LINE
8
annotation
62
1
39
211
10
69.704363
20
329.534290
11
69.937190
21
329.698971
0
LINE
8
annotation
62
1
39
211
10
69.937190
20
329.698971
11
70.138400
21
329.900184
0
LINE
8
annotation
62
1
39
211
10
70.138400
20
329.900184
11
70.303214
21
330.133229
0
LINE
8
annotation
62
1
39
211
10
70.303214
20
330.133229
11
70.426854
21
330.393405
0
LINE
8
annotation
62
1
39
211
10
70.426854
20
330.393405
11
70.504542
21
330.676011
0
LINE
8
annotation
62
1
39
211
10
70.504542
20
330.676011
11
70.531499
21
330.976347
0
LINE
8
annotation
62
1
39
211
10
70.531499
20
330.976347
11
70.531499
21
332.646253
0
LINE
8
annotation
62
1
39
211
10
117.277304
20
346.381736
11
117.277304
21
350.557208
0
LINE
8
annotation
62
1
39
211
10
117.277304
20
350.557208
11
123.125511
21
348.889660
0
LINE
8
annotation
62
1
39
211
10
115.605511
20
347.633340
11
118.945323
21
347.633340
0
LINE
8
annotation
62
1
39
211
10
168.190799
20
331.326682
11
168.190799
21
329.656776
0
LINE
8
annotation
62
1
39
211
10
168.190799
20
329.656776
11
168.190799
21
329.656776
0
LINE
8
annotation
62
1
39
211
10
168.190799
20
329.656776
11
168.217747
21
329.357061
0
LINE
8
annotation
62
1
39
211
10
168.217747
20
329.357061
11
168.295437
21
329.074784
0
LINE
8
annotation
62
1
39
211
10
168.295437
20
329.074784
11
168.419137
21
328.814706
0
LINE
8
annotation
62
1
39
211
10
168.419137
20
328.814706
11
168.584115
21
328.581584
0
LINE
8
annotation
62
1
39
211
10
168.584115
20
328.581584
11
168.785641
21
328.380176
0
LINE
8
annotation
62
1
39
211
10
168.785641
20
328.380176
11
169.018984
21
328.215243
0
LINE
8
annotation
62
1
39
211
10
169.018984
20
328.215243
11
169.279410
21
328.091542
0
LINE
8
annotation
62
1
39
211
10
169.279410
20
328.091542
11
169.562190
21
328.013831
0
LINE
8
annotation
62
1
39
211
10
169.562190
20
328.013831
11
169.862591
21
327.986870
0
LINE
8
annotation
62
1
39
211
10
169.862591
20
327.986870
11
170.694479
21
327.986870
0
LINE
8
annotation
62
1
39
211
10
170.694479
20
327.986870
11
170.694479
21
327.986870
0
LINE
8
annotation
62
1
39
211
10
170.694479
20
327.986870
11
170.994734
21
328.013816
0
LINE
8
annotation
62
1
39
211
10
170.994734
20
328.013816
11
171.277124
21
328.091487
0
LINE
8
annotation
62
1
39
211
10
171.277124
20
328.091487
11
171.536986
21
328.215138
0
LINE
8
annotation
62
1
39
211
10
171.536986
20
328.215138
11
171.769659
21
328.380021
0
LINE
8
annotation
62
1
39
211
10
171.769659
20
328.380021
11
171.970480
21
328.581389
0
LINE
8
annotation
62
1
39
211
10
171.970480
20
328.581389
11
172.134789
21
328.814496
0
LINE
8
annotation
62
1
39
211
10
172.134789
20
328.814496
11
172.257925
21
329.074594
0
LINE
8
annotation
62
1
39
211
10
172.257925
20
329.074594
11
172.335224
21
329.356936
0
LINE
8
annotation
62
1
39
211
10
172.335224
20
329.356936
11
172.362027
21
329.656776
0
LINE
8
annotation
62
1
39
211
10
172.362027
20
329.656776
11
172.362027
21
331.326682
0
LINE
8
annotation
62
1
39
211
10
172.362027
20
331.326682
11
175.710799
21
331.326682
0
LINE
8
annotation
62
1
39
211
10
175.710799
20
331.326682
11
175.710799
21
327.986870
0
LINE
8
annotation
62
1
39
211
10
116.825913
20
379.519002
11
109.701073
21
369.213572
0
LINE
8
annotation
62
1
39
211
10
109.701073
20
369.213572
11
102.574893
21
379.519002
0
LINE
8
annotation
62
1
39
211
10
109.701073
20
370.042883
11
109.701073
21
358.153858
0
LINE
8
annotation
62
1
39
211
10
136.521382
20
368.836430
11
124.840019
21
368.836430
0
LINE
8
annotation
62
1
39
211
10
154.020587
20
358.154355
11
144.532411
21
358.154355
0
LINE
8
annotation
62
1
39
211
10
144.532411
20
358.154355
11
153.299797
21
372.268720
0
LINE
8
annotation
62
1
39
211
10
153.299797
20
372.268720
11
153.299797
21
372.268720
0
LINE
8
annotation
62
1
39
211
10
153.299797
20
372.268720
11
153.310278
21
372.281689
0
LINE
8
annotation
62
1
39
211
10
153.310278
20
372.281689
11
153.320329
21
372.294769
0
LINE
8
annotation
62
1
39
211
10
153.320329
20
372.294769
11
153.330016
21
372.308069
0
LINE
8
annotation
62
1
39
211
10
153.330016
20
372.308069
11
153.339405
21
372.321700
0
LINE
8
annotation
62
1
39
211
10
153.339405
20
372.321700
11
153.348563
21
372.335772
0
LINE
8
annotation
62
1
39
211
10
153.348563
20
372.335772
11
153.357555
21
372.350396
0
LINE
8
annotation
62
1
39
211
10
153.357555
20
372.350396
11
153.366448
21
372.365681
0
LINE
8
annotation
62
1
39
211
10
153.366448
20
372.365681
11
153.375308
21
372.381738
0
LINE
8
annotation
62
1
39
211
10
153.375308
20
372.381738
11
153.384201
21
372.398677
0
LINE
8
annotation
62
1
39
211
10
153.384201
20
372.398677
11
153.384201
21
372.398677
0
LINE
8
annotation
62
1
39
211
10
153.384201
20
372.398677
11
153.746205
21
373.175928
0
LINE
8
annotation
62
1
39
211
10
153.746205
20
373.175928
11
153.957681
21
373.981618
0
LINE
8
annotation
62
1
39
211
10
153.957681
20
373.981618
11
154.023812
21
374.797541
0
LINE
8
annotation
62
1
39
211
10
154.023812
20
374.797541
11
153.949782
21
375.605491
0
LINE
8
annotation
62
1
39
211
10
153.949782
20
375.605491
11
153.740772
21
376.387264
0
LINE
8
annotation
62
1
39
211
10
153.740772
20
376.387264
11
153.401966
21
377.124653
0
LINE
8
annotation
62
1
39
211
10
153.401966
20
377.124653
11
152.938545
21
377.799455
0
LINE
8
annotation
62
1
39
211
10
152.938545
20
377.799455
11
152.355693
21
378.393462
0
LINE
8
annotation
62
1
39
211
10
152.355693
20
378.393462
11
151.658591
21
378.888471
0
LINE
8
annotation
62
1
39
211
10
151.658591
20
378.888471
11
151.658591
21
378.888471
0
LINE
8
annotation
62
1
39
211
10
151.658591
20
378.888471
11
150.879178
21
379.245331
0
LINE
8
annotation
62
1
39
211
10
150.879178
20
379.245331
11
150.072254
21
379.453548
0
LINE
8
annotation
62
1
39
211
10
150.072254
20
379.453548
11
149.255857
21
379.517811
0
LINE
8
annotation
62
1
39
211
10
149.255857
20
379.517811
11
148.448028
21
379.442805
0
LINE
8
annotation
62
1
39
211
10
148.448028
20
379.442805
11
147.666807
21
379.233216
0
LINE
8
annotation
62
1
39
211
10
147.666807
20
379.233216
11
146.930233
21
378.893731
0
LINE
8
annotation
62
1
39
211
10
146.930233
20
378.893731
11
146.256347
21
378.429037
0
LINE
8
annotation
62
1
39
211
10
146.256347
20
378.429037
11
145.663188
21
377.843819
0
LINE
8
annotation
62
1
39
211
10
145.663188
20
377.843819
11
145.168797
21
377.142765
0
LINE
8
annotation
62
1
39
211
10
145.168797
20
377.142765
11
144.545809
21
375.947699
0
LINE
8
frame
62
5
39
2
10
0.000000
20
0.000000
11
600.000000
21
0.000000
0
LINE
8
frame
62
5
39
2
10
600.000000
20
0.000000
11
600.000000
21
900.000000
0
LINE
8
frame
62
5
39
2
10
600.000000
20
900.000000
11
0.000000
21
900.000000
0
LINE
8
frame
62
5
39
2
10
0.000000
20
900.000000
11
0.000000
21
0.000000
0
ENDSEC
0
EOF
