  0
SECTION
  2
HEADER
  9
$ACADVER
  1
AC1032
  9
$ACADMAINTVER
 90
      197
  9
$DWGCODEPAGE
  3
ANSI_1251
  9
$REQUIREDVERSIONS
160
                 0
  9
$INSBASE
 10
0.0
 20
0.0
 30
0.0
  9
$EXTMIN
 10
1.000000000000000E+20
 20
1.000000000000000E+20
 30
1.000000000000000E+20
  9
$EXTMAX
 10
-1.000000000000000E+20
 20
-1.000000000000000E+20
 30
-1.000000000000000E+20
  9
$LIMMIN
 10
0.0
 20
0.0
  9
$LIMMAX
 10
12.0
 20
9.0
  9
$ORTHOMODE
 70
     0
  9
$REGENMODE
 70
     1
  9
$FILLMODE
 70
     1
  9
$QTEXTMODE
 70
     0
  9
$MIRRTEXT
 70
     0
  9
$LTSCALE
 40
1.0
  9
$ATTMODE
 70
     1
  9
$TEXTSIZE
 40
0.2
  9
$TRACEWID
 40
0.05
  9
$TEXTSTYLE
  7
Standard
  9
$CLAYER
  8
0
  9
$CELTYPE
  6
ByLayer
  9
$CECOLOR
 62
   256
  9
$CELTSCALE
 40
1.0
  9
$DISPSILH
 70
     0
  9
$DIMSCALE
 40
1.0
  9
$DIMASZ
 40
0.18
  9
$DIMEXO
 40
0.0625
  9
$DIMDLI
 40
0.38
  9
$DIMRND
 40
0.0
  9
$DIMDLE
 40
0.0
  9
$DIMEXE
 40
0.18
  9
$DIMTP
 40
0.0
  9
$DIMTM
 40
0.0
  9
$DIMTXT
 40
0.18
  9
$DIMCEN
 40
0.09
  9
$DIMTSZ
 40
0.0
  9
$DIMTOL
 70
     0
  9
$DIMLIM
 70
     0
  9
$DIMTIH
 70
     1
  9
$DIMTOH
 70
     1
  9
$DIMSE1
 70
     0
  9
$DIMSE2
 70
     0
  9
$DIMTAD
 70
     0
  9
$DIMZIN
 70
     0
  9
$DIMBLK
  1

  9
$DIMASO
 70
     1
  9
$DIMSHO
 70
     1
  9
$DIMPOST
  1

  9
$DIMAPOST
  1

  9
$DIMALT
 70
     0
  9
$DIMALTD
 70
     2
  9
$DIMALTF
 40
25.4
  9
$DIMLFAC
 40
1.0
  9
$DIMTOFL
 70
     0
  9
$DIMTVP
 40
0.0
  9
$DIMTIX
 70
     0
  9
$DIMSOXD
 70
     0
  9
$DIMSAH
 70
     0
  9
$DIMBLK1
  1

  9
$DIMBLK2
  1

  9
$DIMSTYLE
  2
Standard
  9
$DIMCLRD
 70
     0
  9
$DIMCLRE
 70
     0
  9
$DIMCLRT
 70
     0
  9
$DIMTFAC
 40
1.0
  9
$DIMGAP
 40
0.09
  9
$DIMJUST
 70
     0
  9
$DIMSD1
 70
     0
  9
$DIMSD2
 70
     0
  9
$DIMTOLJ
 70
     1
  9
$DIMTZIN
 70
     0
  9
$DIMALTZ
 70
     0
  9
$DIMALTTZ
 70
     0
  9
$DIMUPT
 70
     0
  9
$DIMDEC
 70
     4
  9
$DIMTDEC
 70
     4
  9
$DIMALTU
 70
     2
  9
$DIMALTTD
 70
     2
  9
$DIMTXSTY
  7
Standard
  9
$DIMAUNIT
 70
     0
  9
$DIMADEC
 70
     0
  9
$DIMALTRND
 40
0.0
  9
$DIMAZIN
 70
     0
  9
$DIMDSEP
 70
    46
  9
$DIMATFIT
 70
     3
  9
$DIMFRAC
 70
     0
  9
$DIMLDRBLK
  1

  9
$DIMLUNIT
 70
     2
  9
$DIMLWD
 70
    -2
  9
$DIMLWE
 70
    -2
  9
$DIMTMOVE
 70
     0
  9
$DIMFXL
 40
1.0
  9
$DIMFXLON
 70
     0
  9
$DIMJOGANG
 40
0.7853981633974483
  9
$DIMTFILL
 70
     0
  9
$DIMTFILLCLR
 70
     0
  9
$DIMARCSYM
 70
     0
  9
$DIMLTYPE
  6

  9
$DIMLTEX1
  6

  9
$DIMLTEX2
  6

  9
$DIMTXTDIRECTION
 70
     0
  9
$LUNITS
 70
     2
  9
$LUPREC
 70
     4
  9
$SKETCHINC
 40
0.1
  9
$FILLETRAD
 40
0.0
  9
$AUNITS
 70
     0
  9
$AUPREC
 70
     0
  9
$MENU
  1
.
  9
$ELEVATION
 40
0.0
  9
$PELEVATION
 40
0.0
  9
$THICKNESS
 40
0.0
  9
$LIMCHECK
 70
     0
  9
$CHAMFERA
 40
0.0
  9
$CHAMFERB
 40
0.0
  9
$CHAMFERC
 40
0.0
  9
$CHAMFERD
 40
0.0
  9
$SKPOLY
 70
     0
  9
$TDCREATE
 40
2460075.328657408
  9
$TDUCREATE
 40
2460075.203657407
  9
$TDUPDATE
 40
2460075.328657408
  9
$TDUUPDATE
 40
2460075.203657407
  9
$TDINDWG
 40
0.0000000000
  9
$TDUSRTIMER
 40
0.0000000000
  9
$USRTIMER
 70
     1
  9
$ANGBASE
 50
0.0
  9
$ANGDIR
 70
     0
  9
$PDMODE
 70
     0
  9
$PDSIZE
 40
0.0
  9
$PLINEWID
 40
0.0
  9
$SPLFRAME
 70
     0
  9
$SPLINETYPE
 70
     6
  9
$SPLINESEGS
 70
     8
  9
$HANDSEED
  5
95
  9
$SURFTAB1
 70
     6
  9
$SURFTAB2
 70
     6
  9
$SURFTYPE
 70
     6
  9
$SURFU
 70
     6
  9
$SURFV
 70
     6
  9
$UCSBASE
  2

  9
$UCSNAME
  2

  9
$UCSORG
 10
0.0
 20
0.0
 30
0.0
  9
$UCSXDIR
 10
1.0
 20
0.0
 30
0.0
  9
$UCSYDIR
 10
0.0
 20
1.0
 30
0.0
  9
$UCSORTHOREF
  2

  9
$UCSORTHOVIEW
 70
     0
  9
$UCSORGTOP
 10
0.0
 20
0.0
 30
0.0
  9
$UCSORGBOTTOM
 10
0.0
 20
0.0
 30
0.0
  9
$UCSORGLEFT
 10
0.0
 20
0.0
 30
0.0
  9
$UCSORGRIGHT
 10
0.0
 20
0.0
 30
0.0
  9
$UCSORGFRONT
 10
0.0
 20
0.0
 30
0.0
  9
$UCSORGBACK
 10
0.0
 20
0.0
 30
0.0
  9
$PUCSBASE
  2

  9
$PUCSNAME
  2

  9
$PUCSORG
 10
0.0
 20
0.0
 30
0.0
  9
$PUCSXDIR
 10
1.0
 20
0.0
 30
0.0
  9
$PUCSYDIR
 10
0.0
 20
1.0
 30
0.0
  9
$PUCSORTHOREF
  2

  9
$PUCSORTHOVIEW
 70
     0
  9
$PUCSORGTOP
 10
0.0
 20
0.0
 30
0.0
  9
$PUCSORGBOTTOM
 10
0.0
 20
0.0
 30
0.0
  9
$PUCSORGLEFT
 10
0.0
 20
0.0
 30
0.0
  9
$PUCSORGRIGHT
 10
0.0
 20
0.0
 30
0.0
  9
$PUCSORGFRONT
 10
0.0
 20
0.0
 30
0.0
  9
$PUCSORGBACK
 10
0.0
 20
0.0
 30
0.0
  9
$USERI1
 70
     0
  9
$USERI2
 70
     0
  9
$USERI3
 70
     0
  9
$USERI4
 70
     0
  9
$USERI5
 70
     0
  9
$USERR1
 40
0.0
  9
$USERR2
 40
0.0
  9
$USERR3
 40
0.0
  9
$USERR4
 40
0.0
  9
$USERR5
 40
0.0
  9
$WORLDVIEW
 70
     1
  9
$SHADEDGE
 70
     3
  9
$SHADEDIF
 70
    70
  9
$TILEMODE
 70
     1
  9
$MAXACTVP
 70
    64
  9
$PINSBASE
 10
0.0
 20
0.0
 30
0.0
  9
$PLIMCHECK
 70
     0
  9
$PEXTMIN
 10
1.000000000000000E+20
 20
1.000000000000000E+20
 30
1.000000000000000E+20
  9
$PEXTMAX
 10
-1.000000000000000E+20
 20
-1.000000000000000E+20
 30
-1.000000000000000E+20
  9
$PLIMMIN
 10
0.0
 20
0.0
  9
$PLIMMAX
 10
12.0
 20
9.0
  9
$UNITMODE
 70
     0
  9
$VISRETAIN
 70
     1
  9
$PLINEGEN
 70
     0
  9
$PSLTSCALE
 70
     1
  9
$TREEDEPTH
 70
  3020
  9
$CMLSTYLE
  2
Standard
  9
$CMLJUST
 70
     0
  9
$CMLSCALE
 40
1.0
  9
$PROXYGRAPHICS
 70
     1
  9
$MEASUREMENT
 70
     0
  9
$CELWEIGHT
370
    -1
  9
$ENDCAPS
280
     0
  9
$JOINSTYLE
280
     0
  9
$LWDISPLAY
290
     1
  9
$INSUNITS
 70
     0
  9
$HYPERLINKBASE
  1

  9
$STYLESHEET
  1

  9
$XEDIT
290
     1
  9
$CEPSNTYPE
380
     0
  9
$PSTYLEMODE
290
     1
  9
$FINGERPRINTGUID
  2
{588B3C6F-1B32-8E46-84AB-903BDC28D820}
  9
$VERSIONGUID
  2
{BE52EAC2-9BDF-FA48-841D-A370346E7132}
  9
$EXTNAMES
290
     1
  9
$PSVPSCALE
 40
0.0
  9
$OLESTARTUP
290
     0
  9
$SORTENTS
280
   127
  9
$INDEXCTL
280
     0
  9
$HIDETEXT
280
     1
  9
$XCLIPFRAME
280
     2
  9
$HALOGAP
280
     0
  9
$OBSCOLOR
 70
   257
  9
$OBSLTYPE
280
     0
  9
$INTERSECTIONDISPLAY
280
     0
  9
$INTERSECTIONCOLOR
 70
   257
  9
$DIMASSOC
280
     2
  9
$PROJECTNAME
  1

  9
$CAMERADISPLAY
290
     0
  9
$LENSLENGTH
 40
50.0
  9
$CAMERAHEIGHT
 40
0.0
  9
$STEPSPERSEC
 40
2.0
  9
$STEPSIZE
 40
6.0
  9
$3DDWFPREC
 40
2.0
  9
$PSOLWIDTH
 40
0.25
  9
$PSOLHEIGHT
 40
4.0
  9
$LOFTANG1
 40
1.570796326794896
  9
$LOFTANG2
 40
1.570796326794896
  9
$LOFTMAG1
 40
0.0
  9
$LOFTMAG2
 40
0.0
  9
$LOFTPARAM
 70
     7
  9
$LOFTNORMALS
280
     1
  9
$LATITUDE
 40
37.795
  9
$LONGITUDE
 40
-122.394
  9
$NORTHDIRECTION
 40
0.0
  9
$TIMEZONE
 70
 -8000
  9
$LIGHTGLYPHDISPLAY
280
     1
  9
$TILEMODELIGHTSYNCH
280
     1
  9
$CMATERIAL
347
11
  9
$SOLIDHIST
280
     0
  9
$SHOWHIST
280
     1
  9
$DWFFRAME
280
     2
  9
$DGNFRAME
280
     0
  9
$REALWORLDSCALE
290
     1
  9
$INTERFERECOLOR
 62
     1
  9
$INTERFEREOBJVS
345
33
  9
$INTERFEREVPVS
346
30
  9
$CSHADOW
280
     0
  9
$SHADOWPLANELOCATION
 40
0.0
  0
ENDSEC
  0
SECTION
  2
CLASSES
  0
CLASS
  1
ACDBDICTIONARYWDFLT
  2
AcDbDictionaryWithDefault
  3
ObjectDBX Classes
 90
        0
 91
        1
280
     0
281
     0
  0
CLASS
  1
MATERIAL
  2
AcDbMaterial
  3
ObjectDBX Classes
 90
     1153
 91
        3
280
     0
281
     0
  0
CLASS
  1
VISUALSTYLE
  2
AcDbVisualStyle
  3
ObjectDBX Classes
 90
     4095
 91
       24
280
     0
281
     0
  0
CLASS
  1
SCALE
  2
AcDbScale
  3
ObjectDBX Classes
 90
     1153
 91
       17
280
     0
281
     0
  0
CLASS
  1
TABLESTYLE
  2
AcDbTableStyle
  3
ObjectDBX Classes
 90
     4095
 91
        1
280
     0
281
     0
  0
CLASS
  1
MLEADERSTYLE
  2
AcDbMLeaderStyle
  3
ACDB_MLEADERSTYLE_CLASS
 90
     4095
 91
        1
280
     0
281
     0
  0
CLASS
  1
ACDBSECTIONVIEWSTYLE
  2
AcDbSectionViewStyle
  3
ObjectDBX Classes
 90
     1025
 91
        1
280
     0
281
     0
  0
CLASS
  1
ACDBDETAILVIEWSTYLE
  2
AcDbDetailViewStyle
  3
ObjectDBX Classes
 90
     1025
 91
        1
280
     0
281
     0
  0
CLASS
  1
DICTIONARYVAR
  2
AcDbDictionaryVar
  3
ObjectDBX Classes
 90
        0
 91
        5
280
     0
281
     0
  0
CLASS
  1
CELLSTYLEMAP
  2
AcDbCellStyleMap
  3
ObjectDBX Classes
 90
     1152
 91
        1
280
     0
281
     0
  0
ENDSEC
  0
SECTION
  2
TABLES
  0
TABLE
  2
VPORT
  5
8
330
0
100
AcDbSymbolTable
 70
     1
  0
VPORT
  5
57
330
8
100
AcDbSymbolTableRecord
100
AcDbViewportTableRecord
  2
*Active
 70
     0
 10
0.0
 20
0.0
 11
1.0
 21
1.0
 12
0.0
 22
0.0
 13
0.0
 23
0.0
 14
1.0
 24
1.0
 15
0.0
 25
0.0
 16
0.0
 26
0.0
 36
1.0
 17
420.2384643554687
 27
297.0145874023438
 37
0.0
 40
869.0102416992187
 41
1.108578956907847
 42
50.0
 43
0.0
 44
0.0
 50
0.0
 51
0.0
 71
     0
 72
   100
 73
     1
 74
     1
 75
     0
 76
     0
 77
     0
 78
     0
281
     0
 65
     1
110
0.0
120
0.0
130
0.0
111
1.0
121
0.0
131
0.0
112
0.0
122
1.0
132
0.0
 79
     0
146
0.0
 60
     3
 61
     5
292
     1
282
     1
141
0.0
142
0.0
 63
   250
421
  3355443
  0
ENDTAB
  0
TABLE
  2
LTYPE
  5
5
330
0
100
AcDbSymbolTable
 70
     1
  0
LTYPE
  5
5B
330
5
100
AcDbSymbolTableRecord
100
AcDbLinetypeTableRecord
  2
ByBlock
 70
     0
  3

 72
    65
 73
     0
 40
0.0
  0
LTYPE
  5
5C
330
5
100
AcDbSymbolTableRecord
100
AcDbLinetypeTableRecord
  2
ByLayer
 70
     0
  3

 72
    65
 73
     0
 40
0.0
  0
LTYPE
  5
5D
330
5
100
AcDbSymbolTableRecord
100
AcDbLinetypeTableRecord
  2
Continuous
 70
     0
  3
Solid line
 72
    65
 73
     0
 40
0.0
  0
ENDTAB
  0
TABLE
  2
LAYER
  5
2
330
0
100
AcDbSymbolTable
 70
     2
  0
LAYER
  5
54
330
2
100
AcDbSymbolTableRecord
100
AcDbLayerTableRecord
  2
0
 70
     0
 62
     7
  6
Continuous
370
    -3
390
F
347
21
348
0
  0
LAYER
  5
78
330
2
100
AcDbSymbolTableRecord
100
AcDbLayerTableRecord
  2
Layer 1
 70
     0
 62
     7
  6
Continuous
370
     0
390
F
347
21
348
0
  0
ENDTAB
  0
TABLE
  2
STYLE
  5
3
330
0
100
AcDbSymbolTable
 70
     2
  0
STYLE
  5
55
330
3
100
AcDbSymbolTableRecord
100
AcDbTextStyleTableRecord
  2
Standard
 70
     0
 40
0.0
 41
1.0
 50
0.0
 71
     0
 42
0.2
  3
txt
  4

  0
STYLE
  5
5A
330
3
100
AcDbSymbolTableRecord
100
AcDbTextStyleTableRecord
  2
Annotative
 70
     0
 40
0.0
 41
1.0
 50
0.0
 71
     0
 42
0.2
  3
txt
  4

1001
AcadAnnotative
1000
AnnotativeData
1002
{
1070
     1
1070
     1
1002
}
  0
ENDTAB
  0
TABLE
  2
VIEW
  5
6
330
0
100
AcDbSymbolTable
 70
     0
  0
ENDTAB
  0
TABLE
  2
UCS
  5
7
330
0
100
AcDbSymbolTable
 70
     0
  0
ENDTAB
  0
TABLE
  2
APPID
  5
9
330
0
100
AcDbSymbolTable
 70
     2
  0
APPID
  5
56
330
9
100
AcDbSymbolTableRecord
100
AcDbRegAppTableRecord
  2
ACAD
 70
     0
  0
APPID
  5
5E
330
9
100
AcDbSymbolTableRecord
100
AcDbRegAppTableRecord
  2
AcadAnnotative
 70
     0
  0
ENDTAB
  0
TABLE
  2
DIMSTYLE
  5
A
330
0
100
AcDbSymbolTable
 70
     2
100
AcDbDimStyleTable
 71
     0
  0
DIMSTYLE
105
58
330
A
100
AcDbSymbolTableRecord
100
AcDbDimStyleTableRecord
  2
Standard
 70
     0
340
55
  0
DIMSTYLE
105
59
330
A
100
AcDbSymbolTableRecord
100
AcDbDimStyleTableRecord
  2
Annotative
 70
     0
340
55
1001
AcadAnnotative
1000
AnnotativeData
1002
{
1070
     1
1070
     1
1002
}
  0
ENDTAB
  0
TABLE
  2
BLOCK_RECORD
  5
1
330
0
100
AcDbSymbolTable
 70
     2
  0
BLOCK_RECORD
  5
70
330
1
100
AcDbSymbolTableRecord
100
AcDbBlockTableRecord
  2
*Model_Space
340
73
 70
     0
280
     1
281
     0
  0
BLOCK_RECORD
  5
6C
330
1
100
AcDbSymbolTableRecord
100
AcDbBlockTableRecord
  2
*Paper_Space
340
6F
 70
     0
280
     1
281
     0
  0
BLOCK_RECORD
  5
74
330
1
100
AcDbSymbolTableRecord
100
AcDbBlockTableRecord
  2
*Paper_Space0
340
77
 70
     0
280
     1
281
     0
  0
BLOCK_RECORD
  5
79
330
1
100
AcDbSymbolTableRecord
100
AcDbBlockTableRecord
  2
Block_0
340
0
102
{BLKREFS
331
7A
102
}
 70
     0
280
     1
281
     0
  0
ENDTAB
  0
ENDSEC
  0
SECTION
  2
BLOCKS
  0
BLOCK
  5
71
330
70
100
AcDbEntity
  8
0
100
AcDbBlockBegin
  2
*Model_Space
 70
     0
 10
0.0
 20
0.0
 30
0.0
  3
*Model_Space
  1

  0
ENDBLK
  5
72
330
70
100
AcDbEntity
  8
0
100
AcDbBlockEnd
  0
BLOCK
  5
6D
330
6C
100
AcDbEntity
 67
     1
  8
0
100
AcDbBlockBegin
  2
*Paper_Space
 70
     0
 10
0.0
 20
0.0
 30
0.0
  3
*Paper_Space
  1

  0
ENDBLK
  5
6E
330
6C
100
AcDbEntity
 67
     1
  8
0
100
AcDbBlockEnd
  0
BLOCK
  5
75
330
74
100
AcDbEntity
 67
     1
  8
0
100
AcDbBlockBegin
  2
*Paper_Space0
 70
     0
 10
0.0
 20
0.0
 30
0.0
  3
*Paper_Space0
  1

  0
ENDBLK
  5
76
330
74
100
AcDbEntity
 67
     1
  8
0
100
AcDbBlockEnd
  0
BLOCK
  5
7B
330
79
100
AcDbEntity
  8
0
100
AcDbBlockBegin
  2
Block_0
 70
     0
 10
0.0
 20
0.0
 30
0.0
  3
Block_0
  1

  0
LWPOLYLINE
  5
7D
330
79
100
AcDbEntity
  8
Layer 1
100
AcDbPolyline
 90
       61
 70
     1
 43
0.0
 10
707.5670776367187
 20
-72.88400268554688
 10
698.5715942382812
 20
-73.52206420898437
 10
698.5715942382812
 20
-128.4708251953125
 10
617.6111450195312
 20
-128.4708251953125
 10
617.6111450195312
 20
-73.52206420898437
 10
608.6155395507812
 20
-72.88400268554688
 10
608.6155395507812
 20
-128.4708251953125
 10
424.2058715820312
 20
-128.4708251953125
 10
424.2058715820312
 20
73.92999267578125
 10
488.7669677734375
 20
73.92999267578125
 10
490.658203125
 20
67.941162109375
 10
493.4923706054687
 20
60.54498291015625
 10
496.7510986328124
 20
53.39620971679687
 10
500.434814453125
 20
46.51022338867187
 10
504.5421142578125
 20
39.90545654296875
 10
509.0761108398437
 20
33.59902954101563
 10
514.0371704101562
 20
27.60745239257813
 10
519.4251098632812
 20
21.95083618164062
 10
525.23681640625
 20
16.645751953125
 10
531.4621582031249
 20
11.70840454101562
 10
538.099609375
 20
7.137725830078125
 10
545.1513671875
 20
2.9268798828125
 10
552.6195678710937
 20
-0.93084716796875
 10
560.5062255859374
 20
-4.4422607421875
 10
568.8118286132812
 20
-7.612030029296875
 10
577.5368652343749
 20
-10.44003295898437
 10
586.6736450195312
 20
-12.93133544921875
 10
596.1787719726562
 20
-15.0877685546875
 10
606.0032348632812
 20
-16.9111328125
 10
616.0970458984374
 20
-18.40286254882812
 10
626.4067382812499
 20
-19.56320190429687
 10
636.8783569335938
 20
-20.39190673828125
 10
647.4578857421875
 20
-20.88916015625
 10
658.0914306640624
 20
-21.05487060546875
 10
668.724853515625
 20
-20.88916015625
 10
679.3042602539062
 20
-20.39190673828125
 10
689.7759399414062
 20
-19.56320190429687
 10
700.0856323242187
 20
-18.40286254882812
 10
710.1795043945312
 20
-16.9111328125
 10
720.0037231445312
 20
-15.08782958984375
 10
729.5042114257812
 20
-12.93310546875
 10
738.6268920898437
 20
-10.44683837890625
 10
747.3275756835938
 20
-7.627593994140625
 10
755.6005249023437
 20
-4.468231201171875
 10
763.4492797851562
 20
-0.959991455078125
 10
770.8776245117187
 20
2.906036376953125
 10
777.8895874023437
 20
7.1385498046875
 10
784.4887084960937
 20
11.74624633789062
 10
790.6787719726562
 20
16.73779296875
 10
796.4628295898437
 20
22.12057495117187
 10
801.8356323242187
 20
27.88613891601563
 10
806.7993774414063
 20
34.02984619140625
 10
811.3594360351562
 20
40.55133056640625
 10
815.5127563476563
 20
47.4368896484375
 10
819.2510375976562
 20
54.66207885742187
 10
822.5718383789063
 20
62.21237182617187
 10
825.4647827148437
 20
70.0504150390625
 10
826.6371459960938
 20
73.92999267578125
 10
891.9769287109375
 20
73.92999267578125
 10
891.9769287109375
 20
-128.4708251953125
 10
707.5670776367187
 20
-128.4708251953125
  0
HATCH
  5
7E
330
79
100
AcDbEntity
  8
Layer 1
 62
   254
420
 13421772
440
 33554687
100
AcDbHatch
 10
0.0
 20
0.0
 30
0.0
210
0.0
220
0.0
230
1.0
  2
SOLID
 70
     1
 71
     1
 91
        1
 92
        1
 93
       61
 72
     1
 10
707.5670776367187
 20
-72.88400268554688
 11
698.5715942382812
 21
-73.52206420898437
 72
     1
 10
698.5715942382812
 20
-73.52206420898437
 11
698.5715942382812
 21
-128.4708251953125
 72
     1
 10
698.5715942382812
 20
-128.4708251953125
 11
617.6111450195312
 21
-128.4708251953125
 72
     1
 10
617.6111450195312
 20
-128.4708251953125
 11
617.6111450195312
 21
-73.52206420898437
 72
     1
 10
617.6111450195312
 20
-73.52206420898437
 11
608.6155395507812
 21
-72.88400268554688
 72
     1
 10
608.6155395507812
 20
-72.88400268554688
 11
608.6155395507812
 21
-128.4708251953125
 72
     1
 10
608.6155395507812
 20
-128.4708251953125
 11
424.2058715820312
 21
-128.4708251953125
 72
     1
 10
424.2058715820312
 20
-128.4708251953125
 11
424.2058715820312
 21
73.92999267578125
 72
     1
 10
424.2058715820312
 20
73.92999267578125
 11
488.7669677734375
 21
73.92999267578125
 72
     1
 10
488.7669677734375
 20
73.92999267578125
 11
490.658203125
 21
67.941162109375
 72
     1
 10
490.658203125
 20
67.941162109375
 11
493.4923706054687
 21
60.54498291015625
 72
     1
 10
493.4923706054687
 20
60.54498291015625
 11
496.7510986328124
 21
53.39620971679687
 72
     1
 10
496.7510986328124
 20
53.39620971679687
 11
500.434814453125
 21
46.51022338867187
 72
     1
 10
500.434814453125
 20
46.51022338867187
 11
504.5421142578125
 21
39.90545654296875
 72
     1
 10
504.5421142578125
 20
39.90545654296875
 11
509.0761108398437
 21
33.59902954101563
 72
     1
 10
509.0761108398437
 20
33.59902954101563
 11
514.0371704101562
 21
27.60745239257813
 72
     1
 10
514.0371704101562
 20
27.60745239257813
 11
519.4251098632812
 21
21.95083618164062
 72
     1
 10
519.4251098632812
 20
21.95083618164062
 11
525.23681640625
 21
16.645751953125
 72
     1
 10
525.23681640625
 20
16.645751953125
 11
531.4621582031249
 21
11.70840454101562
 72
     1
 10
531.4621582031249
 20
11.70840454101562
 11
538.099609375
 21
7.137725830078125
 72
     1
 10
538.099609375
 20
7.137725830078125
 11
545.1513671875
 21
2.9268798828125
 72
     1
 10
545.1513671875
 20
2.9268798828125
 11
552.6195678710937
 21
-0.93084716796875
 72
     1
 10
552.6195678710937
 20
-0.93084716796875
 11
560.5062255859374
 21
-4.4422607421875
 72
     1
 10
560.5062255859374
 20
-4.4422607421875
 11
568.8118286132812
 21
-7.612030029296875
 72
     1
 10
568.8118286132812
 20
-7.612030029296875
 11
577.5368652343749
 21
-10.44003295898437
 72
     1
 10
577.5368652343749
 20
-10.44003295898437
 11
586.6736450195312
 21
-12.93133544921875
 72
     1
 10
586.6736450195312
 20
-12.93133544921875
 11
596.1787719726562
 21
-15.0877685546875
 72
     1
 10
596.1787719726562
 20
-15.0877685546875
 11
606.0032348632812
 21
-16.9111328125
 72
     1
 10
606.0032348632812
 20
-16.9111328125
 11
616.0970458984374
 21
-18.40286254882812
 72
     1
 10
616.0970458984374
 20
-18.40286254882812
 11
626.4067382812499
 21
-19.56320190429687
 72
     1
 10
626.4067382812499
 20
-19.56320190429687
 11
636.8783569335938
 21
-20.39190673828125
 72
     1
 10
636.8783569335938
 20
-20.39190673828125
 11
647.4578857421875
 21
-20.88916015625
 72
     1
 10
647.4578857421875
 20
-20.88916015625
 11
658.0914306640624
 21
-21.05487060546875
 72
     1
 10
658.0914306640624
 20
-21.05487060546875
 11
668.724853515625
 21
-20.88916015625
 72
     1
 10
668.724853515625
 20
-20.88916015625
 11
679.3042602539062
 21
-20.39190673828125
 72
     1
 10
679.3042602539062
 20
-20.39190673828125
 11
689.7759399414062
 21
-19.56320190429687
 72
     1
 10
689.7759399414062
 20
-19.56320190429687
 11
700.0856323242187
 21
-18.40286254882812
 72
     1
 10
700.0856323242187
 20
-18.40286254882812
 11
710.1795043945312
 21
-16.9111328125
 72
     1
 10
710.1795043945312
 20
-16.9111328125
 11
720.0037231445312
 21
-15.08782958984375
 72
     1
 10
720.0037231445312
 20
-15.08782958984375
 11
729.5042114257812
 21
-12.93310546875
 72
     1
 10
729.5042114257812
 20
-12.93310546875
 11
738.6268920898437
 21
-10.44683837890625
 72
     1
 10
738.6268920898437
 20
-10.44683837890625
 11
747.3275756835938
 21
-7.627593994140625
 72
     1
 10
747.3275756835938
 20
-7.627593994140625
 11
755.6005249023437
 21
-4.468231201171875
 72
     1
 10
755.6005249023437
 20
-4.468231201171875
 11
763.4492797851562
 21
-0.959991455078125
 72
     1
 10
763.4492797851562
 20
-0.959991455078125
 11
770.8776245117187
 21
2.906036376953125
 72
     1
 10
770.8776245117187
 20
2.906036376953125
 11
777.8895874023437
 21
7.1385498046875
 72
     1
 10
777.8895874023437
 20
7.1385498046875
 11
784.4887084960937
 21
11.74624633789062
 72
     1
 10
784.4887084960937
 20
11.74624633789062
 11
790.6787719726562
 21
16.73779296875
 72
     1
 10
790.6787719726562
 20
16.73779296875
 11
796.4628295898437
 21
22.12057495117187
 72
     1
 10
796.4628295898437
 20
22.12057495117187
 11
801.8356323242187
 21
27.88613891601563
 72
     1
 10
801.8356323242187
 20
27.88613891601563
 11
806.7993774414063
 21
34.02984619140625
 72
     1
 10
806.7993774414063
 20
34.02984619140625
 11
811.3594360351562
 21
40.55133056640625
 72
     1
 10
811.3594360351562
 20
40.55133056640625
 11
815.5127563476563
 21
47.4368896484375
 72
     1
 10
815.5127563476563
 20
47.4368896484375
 11
819.2510375976562
 21
54.66207885742187
 72
     1
 10
819.2510375976562
 20
54.66207885742187
 11
822.5718383789063
 21
62.21237182617187
 72
     1
 10
822.5718383789063
 20
62.21237182617187
 11
825.4647827148437
 21
70.0504150390625
 72
     1
 10
825.4647827148437
 20
70.0504150390625
 11
826.6371459960938
 21
73.92999267578125
 72
     1
 10
826.6371459960938
 20
73.92999267578125
 11
891.9769287109375
 21
73.92999267578125
 72
     1
 10
891.9769287109375
 20
73.92999267578125
 11
891.9769287109375
 21
-128.4708251953125
 72
     1
 10
891.9769287109375
 20
-128.4708251953125
 11
707.5670776367187
 21
-128.4708251953125
 72
     1
 10
707.5670776367187
 20
-128.4708251953125
 11
707.5670776367187
 21
-72.88400268554688
 97
        1
330
7D
 75
     2
 76
     1
 98
        1
 10
0.0
 20
0.0
450
        0
451
        0
460
0.0
461
0.0
452
        0
462
0.0
453
        0
470

  0
LWPOLYLINE
  5
7F
330
79
100
AcDbEntity
  8
Layer 1
100
AcDbPolyline
 90
       12
 70
     1
 43
0.0
 10
87.15975952148438
 20
218.6355895996094
 10
87.15975952148438
 20
308.5914916992188
 10
136.635498046875
 20
308.5914916992188
 10
136.635498046875
 20
263.613525390625
 10
145.6310424804687
 20
263.613525390625
 10
145.6310424804687
 20
308.5914916992188
 10
226.5914306640625
 20
308.5914916992188
 10
226.59130859375
 20
263.613525390625
 10
235.5869750976562
 20
263.613525390625
 10
235.5869750976562
 20
308.5914916992188
 10
285.062744140625
 20
308.5914916992188
 10
285.062744140625
 20
218.6355895996094
  0
HATCH
  5
80
330
79
100
AcDbEntity
  8
Layer 1
 62
   254
420
 13421772
440
 33554687
100
AcDbHatch
 10
0.0
 20
0.0
 30
0.0
210
0.0
220
0.0
230
1.0
  2
SOLID
 70
     1
 71
     1
 91
        1
 92
        1
 93
       12
 72
     1
 10
87.15975952148438
 20
218.6355895996094
 11
87.15975952148438
 21
308.5914916992188
 72
     1
 10
87.15975952148438
 20
308.5914916992188
 11
136.635498046875
 21
308.5914916992188
 72
     1
 10
136.635498046875
 20
308.5914916992188
 11
136.635498046875
 21
263.613525390625
 72
     1
 10
136.635498046875
 20
263.613525390625
 11
145.6310424804687
 21
263.613525390625
 72
     1
 10
145.6310424804687
 20
263.613525390625
 11
145.6310424804687
 21
308.5914916992188
 72
     1
 10
145.6310424804687
 20
308.5914916992188
 11
226.5914306640625
 21
308.5914916992188
 72
     1
 10
226.5914306640625
 20
308.5914916992188
 11
226.59130859375
 21
263.613525390625
 72
     1
 10
226.59130859375
 20
263.613525390625
 11
235.5869750976562
 21
263.613525390625
 72
     1
 10
235.5869750976562
 20
263.613525390625
 11
235.5869750976562
 21
308.5914916992188
 72
     1
 10
235.5869750976562
 20
308.5914916992188
 11
285.062744140625
 21
308.5914916992188
 72
     1
 10
285.062744140625
 20
308.5914916992188
 11
285.062744140625
 21
218.6355895996094
 72
     1
 10
285.062744140625
 20
218.6355895996094
 11
87.15975952148438
 21
218.6355895996094
 97
        1
330
7F
 75
     2
 76
     1
 98
        1
 10
0.0
 20
0.0
450
        0
451
        0
460
0.0
461
0.0
452
        0
462
0.0
453
        0
470

  0
LWPOLYLINE
  5
81
330
79
100
AcDbEntity
  8
Layer 1
100
AcDbPolyline
 90
       63
 70
     1
 43
0.0
 10
-47.58453369140625
 20
-128.0837097167968
 10
-47.58453369140625
 20
276.7179870605469
 10
28.13211059570313
 20
276.7179870605469
 10
28.58984375
 20
274.9830932617188
 10
30.99154663085938
 20
267.393798828125
 10
33.765625
 20
260.1589965820313
 10
36.90469360351563
 20
253.3207092285156
 10
40.41021728515625
 20
246.9033203125
 10
44.29168701171875
 20
240.9186401367187
 10
45.39263916015625
 20
239.4899291992187
 10
48.57406616210937
 20
235.3696899414063
 10
53.27349853515625
 20
230.2488098144531
 10
58.405517578125
 20
225.5510864257812
 10
62.87838745117188
 20
222.1058349609375
 10
63.98541259765625
 20
221.2547607421875
 10
70.02581787109375
 20
217.3440856933594
 10
76.52963256835938
 20
213.7899780273437
 10
83.50137329101562
 20
210.5700378417969
 10
90.94369506835937
 20
207.6642150878906
 10
98.85830688476563
 20
205.0545654296875
 10
107.2460327148437
 20
202.7249450683594
 10
116.09716796875
 20
200.6636352539063
 10
125.3616027832031
 20
198.8707275390625
 10
134.9795227050781
 20
197.349365234375
 10
136.8251647949219
 20
197.1169738769531
 10
136.8251647949219
 20
28.06494140625
 10
145.8212585449218
 20
28.06494140625
 10
145.8207092285156
 20
196.0124206542968
 10
155.0386047363281
 20
195.1291198730469
 10
165.3616943359375
 20
194.4335327148437
 10
175.802001953125
 20
194.0157775878906
 10
186.3009643554687
 20
193.8765258789062
 10
196.7998657226562
 20
194.0157775878906
 10
207.2384033203125
 20
194.4317932128906
 10
217.5551452636719
 20
195.1204223632812
 10
226.7810668945312
 20
195.9946899414062
 10
226.7811279296875
 20
28.0660400390625
 10
235.7766723632813
 20
28.06552124023438
 10
235.7766723632813
 20
197.0860900878906
 10
237.5880737304687
 20
197.3112182617187
 10
247.1861572265625
 20
198.8084106445312
 10
256.4266357421875
 20
200.5710754394531
 10
265.2504577636719
 20
202.5968933105469
 10
273.6078491210938
 20
204.8861999511719
 10
281.4891357421875
 20
207.4507141113281
 10
288.894775390625
 20
210.3057250976562
 10
295.8257446289063
 20
213.467041015625
 10
302.2839660644531
 20
216.949951171875
 10
308.0699768066406
 20
220.643798828125
 10
308.2725219726563
 20
220.7734069824219
 10
313.79248046875
 20
224.9608764648438
 10
318.8570556640625
 20
229.5241088867188
 10
323.4807739257813
 20
234.4847717285156
 10
327.1182861328125
 20
239.1246948242188
 10
327.688232421875
 20
239.8533935546875
 10
331.4954223632812
 20
245.6374816894531
 10
334.9317321777344
 20
251.8339233398438
 10
338.0187072753906
 20
258.4418640136719
 10
340.7746887207031
 20
265.4569702148438
 10
343.2158813476562
 20
272.8649291992188
 10
344.291259765625
 20
276.7179870605469
 10
420.1863403320303
 20
276.7179870605469
 10
420.1863403320303
 20
-128.0837097167968
  0
HATCH
  5
82
330
79
100
AcDbEntity
  8
Layer 1
 62
   254
420
 13421772
440
 33554687
100
AcDbHatch
 10
0.0
 20
0.0
 30
0.0
210
0.0
220
0.0
230
1.0
  2
SOLID
 70
     1
 71
     1
 91
        1
 92
        1
 93
       63
 72
     1
 10
-47.58453369140625
 20
-128.0837097167968
 11
-47.58453369140625
 21
276.7179870605469
 72
     1
 10
-47.58453369140625
 20
276.7179870605469
 11
28.13211059570313
 21
276.7179870605469
 72
     1
 10
28.13211059570313
 20
276.7179870605469
 11
28.58984375
 21
274.9830932617188
 72
     1
 10
28.58984375
 20
274.9830932617188
 11
30.99154663085938
 21
267.393798828125
 72
     1
 10
30.99154663085938
 20
267.393798828125
 11
33.765625
 21
260.1589965820313
 72
     1
 10
33.765625
 20
260.1589965820313
 11
36.90469360351563
 21
253.3207092285156
 72
     1
 10
36.90469360351563
 20
253.3207092285156
 11
40.41021728515625
 21
246.9033203125
 72
     1
 10
40.41021728515625
 20
246.9033203125
 11
44.29168701171875
 21
240.9186401367187
 72
     1
 10
44.29168701171875
 20
240.9186401367187
 11
45.39263916015625
 21
239.4899291992187
 72
     1
 10
45.39263916015625
 20
239.4899291992187
 11
48.57406616210937
 21
235.3696899414063
 72
     1
 10
48.57406616210937
 20
235.3696899414063
 11
53.27349853515625
 21
230.2488098144531
 72
     1
 10
53.27349853515625
 20
230.2488098144531
 11
58.405517578125
 21
225.5510864257812
 72
     1
 10
58.405517578125
 20
225.5510864257812
 11
62.87838745117188
 21
222.1058349609375
 72
     1
 10
62.87838745117188
 20
222.1058349609375
 11
63.98541259765625
 21
221.2547607421875
 72
     1
 10
63.98541259765625
 20
221.2547607421875
 11
70.02581787109375
 21
217.3440856933594
 72
     1
 10
70.02581787109375
 20
217.3440856933594
 11
76.52963256835938
 21
213.7899780273437
 72
     1
 10
76.52963256835938
 20
213.7899780273437
 11
83.50137329101562
 21
210.5700378417969
 72
     1
 10
83.50137329101562
 20
210.5700378417969
 11
90.94369506835937
 21
207.6642150878906
 72
     1
 10
90.94369506835937
 20
207.6642150878906
 11
98.85830688476563
 21
205.0545654296875
 72
     1
 10
98.85830688476563
 20
205.0545654296875
 11
107.2460327148437
 21
202.7249450683594
 72
     1
 10
107.2460327148437
 20
202.7249450683594
 11
116.09716796875
 21
200.6636352539063
 72
     1
 10
116.09716796875
 20
200.6636352539063
 11
125.3616027832031
 21
198.8707275390625
 72
     1
 10
125.3616027832031
 20
198.8707275390625
 11
134.9795227050781
 21
197.349365234375
 72
     1
 10
134.9795227050781
 20
197.349365234375
 11
136.8251647949219
 21
197.1169738769531
 72
     1
 10
136.8251647949219
 20
197.1169738769531
 11
136.8251647949219
 21
28.06494140625
 72
     1
 10
136.8251647949219
 20
28.06494140625
 11
145.8212585449218
 21
28.06494140625
 72
     1
 10
145.8212585449218
 20
28.06494140625
 11
145.8207092285156
 21
196.0124206542968
 72
     1
 10
145.8207092285156
 20
196.0124206542968
 11
155.0386047363281
 21
195.1291198730469
 72
     1
 10
155.0386047363281
 20
195.1291198730469
 11
165.3616943359375
 21
194.4335327148437
 72
     1
 10
165.3616943359375
 20
194.4335327148437
 11
175.802001953125
 21
194.0157775878906
 72
     1
 10
175.802001953125
 20
194.0157775878906
 11
186.3009643554687
 21
193.8765258789062
 72
     1
 10
186.3009643554687
 20
193.8765258789062
 11
196.7998657226562
 21
194.0157775878906
 72
     1
 10
196.7998657226562
 20
194.0157775878906
 11
207.2384033203125
 21
194.4317932128906
 72
     1
 10
207.2384033203125
 20
194.4317932128906
 11
217.5551452636719
 21
195.1204223632812
 72
     1
 10
217.5551452636719
 20
195.1204223632812
 11
226.7810668945312
 21
195.9946899414062
 72
     1
 10
226.7810668945312
 20
195.9946899414062
 11
226.7811279296875
 21
28.0660400390625
 72
     1
 10
226.7811279296875
 20
28.0660400390625
 11
235.7766723632813
 21
28.06552124023438
 72
     1
 10
235.7766723632813
 20
28.06552124023438
 11
235.7766723632813
 21
197.0860900878906
 72
     1
 10
235.7766723632813
 20
197.0860900878906
 11
237.5880737304687
 21
197.3112182617187
 72
     1
 10
237.5880737304687
 20
197.3112182617187
 11
247.1861572265625
 21
198.8084106445312
 72
     1
 10
247.1861572265625
 20
198.8084106445312
 11
256.4266357421875
 21
200.5710754394531
 72
     1
 10
256.4266357421875
 20
200.5710754394531
 11
265.2504577636719
 21
202.5968933105469
 72
     1
 10
265.2504577636719
 20
202.5968933105469
 11
273.6078491210938
 21
204.8861999511719
 72
     1
 10
273.6078491210938
 20
204.8861999511719
 11
281.4891357421875
 21
207.4507141113281
 72
     1
 10
281.4891357421875
 20
207.4507141113281
 11
288.894775390625
 21
210.3057250976562
 72
     1
 10
288.894775390625
 20
210.3057250976562
 11
295.8257446289063
 21
213.467041015625
 72
     1
 10
295.8257446289063
 20
213.467041015625
 11
302.2839660644531
 21
216.949951171875
 72
     1
 10
302.2839660644531
 20
216.949951171875
 11
308.0699768066406
 21
220.643798828125
 72
     1
 10
308.0699768066406
 20
220.643798828125
 11
308.2725219726563
 21
220.7734069824219
 72
     1
 10
308.2725219726563
 20
220.7734069824219
 11
313.79248046875
 21
224.9608764648438
 72
     1
 10
313.79248046875
 20
224.9608764648438
 11
318.8570556640625
 21
229.5241088867188
 72
     1
 10
318.8570556640625
 20
229.5241088867188
 11
323.4807739257813
 21
234.4847717285156
 72
     1
 10
323.4807739257813
 20
234.4847717285156
 11
327.1182861328125
 21
239.1246948242188
 72
     1
 10
327.1182861328125
 20
239.1246948242188
 11
327.688232421875
 21
239.8533935546875
 72
     1
 10
327.688232421875
 20
239.8533935546875
 11
331.4954223632812
 21
245.6374816894531
 72
     1
 10
331.4954223632812
 20
245.6374816894531
 11
334.9317321777344
 21
251.8339233398438
 72
     1
 10
334.9317321777344
 20
251.8339233398438
 11
338.0187072753906
 21
258.4418640136719
 72
     1
 10
338.0187072753906
 20
258.4418640136719
 11
340.7746887207031
 21
265.4569702148438
 72
     1
 10
340.7746887207031
 20
265.4569702148438
 11
343.2158813476562
 21
272.8649291992188
 72
     1
 10
343.2158813476562
 20
272.8649291992188
 11
344.291259765625
 21
276.7179870605469
 72
     1
 10
344.291259765625
 20
276.7179870605469
 11
420.1863403320303
 21
276.7179870605469
 72
     1
 10
420.1863403320303
 20
276.7179870605469
 11
420.1863403320303
 21
-128.0837097167968
 72
     1
 10
420.1863403320303
 20
-128.0837097167968
 11
-47.58453369140625
 21
-128.0837097167968
 97
        1
330
81
 75
     2
 76
     1
 98
        1
 10
0.0
 20
0.0
450
        0
451
        0
460
0.0
461
0.0
452
        0
462
0.0
453
        0
470

  0
LWPOLYLINE
  5
83
330
79
100
AcDbEntity
  8
Layer 1
100
AcDbPolyline
 90
       65
 70
     1
 43
0.0
 10
-51.5
 20
722.5
 10
16.79302978515625
 20
722.5
 10
17.11383056640625
 20
720.8067016601562
 10
18.88742065429687
 20
714.177001953125
 10
21.15960693359375
 20
707.6452026367187
 10
23.92153930664063
 20
701.2310791015624
 10
27.1776123046875
 20
694.9482421875
 10
30.91946411132813
 20
688.82275390625
 10
35.1419677734375
 20
682.8923950195312
 10
39.83856201171875
 20
677.1947021484375
 10
44.99990844726562
 20
671.7615966796874
 10
50.6168212890625
 20
666.62451171875
 10
56.67681884765625
 20
661.8065185546875
 10
63.18194580078125
 20
657.3118896484374
 10
70.12631225585938
 20
653.1575927734374
 10
77.4942626953125
 20
649.3687744140625
 10
85.28338623046876
 20
645.947265625
 10
93.49655151367187
 20
642.8817138671875
 10
102.139892578125
 20
640.1580810546875
 10
111.2106323242187
 20
637.7608032226562
 10
120.6651916503906
 20
635.6839599609375
 10
130.4490661621094
 20
633.926025390625
 10
140.5072021484375
 20
632.4874267578125
 10
150.7847900390625
 20
631.3682250976562
 10
161.2269592285156
 20
630.568603515625
 10
171.77880859375
 20
630.0888061523437
 10
177.8876342773437
 20
629.9967041015625
 10
177.8876342773437
 20
575.0478515624999
 10
186.8832397460937
 20
575.0478515624999
 10
186.8833312988281
 20
629.9967041015625
 10
192.9921264648437
 20
630.0888061523437
 10
203.5439758300781
 20
630.568603515625
 10
213.9861450195312
 20
631.3682250976562
 10
224.2637329101563
 20
632.4874267578125
 10
234.3218994140625
 20
633.926025390625
 10
244.105712890625
 20
635.6839599609375
 10
253.5603332519531
 20
637.7608032226562
 10
262.6305847167969
 20
640.1561279296875
 10
271.2713012695313
 20
642.8714599609374
 10
279.4759521484375
 20
645.9156494140625
 10
287.2479553222656
 20
649.2994384765625
 10
294.5905456542969
 20
653.033935546875
 10
301.5077209472656
 20
657.1287841796874
 10
308.0040588378906
 20
661.5933227539062
 10
314.0848083496094
 20
666.4323730468749
 10
319.7574157714844
 20
671.6400146484375
 10
325.0314331054688
 20
677.213134765625
 10
329.9219360351563
 20
683.1405029296875
 10
334.4435424804688
 20
689.415771484375
 10
338.6094970703125
 20
696.03466796875
 10
342.4336547851563
 20
702.9920654296875
 10
345.9293212890625
 20
710.2840576171875
 10
349.1116333007813
 20
717.9013671875
 10
350.7851257324219
 20
722.5
 10
416.2709045410156
 20
722.5
 10
416.2709045410156
 20
317.6981811523437
 10
276.8391723632813
 20
317.6981811523437
 10
276.8391723632813
 20
473.8466796875
 10
267.8436889648438
 20
473.8470458984375
 10
267.8436279296875
 20
317.6981811523437
 10
96.92736816406251
 20
317.6981811523437
 10
96.92736816406251
 20
362.6762084960938
 10
87.93173217773437
 20
362.6762084960938
 10
87.93173217773437
 20
317.6981811523437
 10
-51.5
 20
317.6981811523437
  0
HATCH
  5
84
330
79
100
AcDbEntity
  8
Layer 1
 62
   254
420
 13421772
440
 33554687
100
AcDbHatch
 10
0.0
 20
0.0
 30
0.0
210
0.0
220
0.0
230
1.0
  2
SOLID
 70
     1
 71
     1
 91
        1
 92
        1
 93
       65
 72
     1
 10
-51.5
 20
722.5
 11
16.79302978515625
 21
722.5
 72
     1
 10
16.79302978515625
 20
722.5
 11
17.11383056640625
 21
720.8067016601562
 72
     1
 10
17.11383056640625
 20
720.8067016601562
 11
18.88742065429687
 21
714.177001953125
 72
     1
 10
18.88742065429687
 20
714.177001953125
 11
21.15960693359375
 21
707.6452026367187
 72
     1
 10
21.15960693359375
 20
707.6452026367187
 11
23.92153930664063
 21
701.2310791015624
 72
     1
 10
23.92153930664063
 20
701.2310791015624
 11
27.1776123046875
 21
694.9482421875
 72
     1
 10
27.1776123046875
 20
694.9482421875
 11
30.91946411132813
 21
688.82275390625
 72
     1
 10
30.91946411132813
 20
688.82275390625
 11
35.1419677734375
 21
682.8923950195312
 72
     1
 10
35.1419677734375
 20
682.8923950195312
 11
39.83856201171875
 21
677.1947021484375
 72
     1
 10
39.83856201171875
 20
677.1947021484375
 11
44.99990844726562
 21
671.7615966796874
 72
     1
 10
44.99990844726562
 20
671.7615966796874
 11
50.6168212890625
 21
666.62451171875
 72
     1
 10
50.6168212890625
 20
666.62451171875
 11
56.67681884765625
 21
661.8065185546875
 72
     1
 10
56.67681884765625
 20
661.8065185546875
 11
63.18194580078125
 21
657.3118896484374
 72
     1
 10
63.18194580078125
 20
657.3118896484374
 11
70.12631225585938
 21
653.1575927734374
 72
     1
 10
70.12631225585938
 20
653.1575927734374
 11
77.4942626953125
 21
649.3687744140625
 72
     1
 10
77.4942626953125
 20
649.3687744140625
 11
85.28338623046876
 21
645.947265625
 72
     1
 10
85.28338623046876
 20
645.947265625
 11
93.49655151367187
 21
642.8817138671875
 72
     1
 10
93.49655151367187
 20
642.8817138671875
 11
102.139892578125
 21
640.1580810546875
 72
     1
 10
102.139892578125
 20
640.1580810546875
 11
111.2106323242187
 21
637.7608032226562
 72
     1
 10
111.2106323242187
 20
637.7608032226562
 11
120.6651916503906
 21
635.6839599609375
 72
     1
 10
120.6651916503906
 20
635.6839599609375
 11
130.4490661621094
 21
633.926025390625
 72
     1
 10
130.4490661621094
 20
633.926025390625
 11
140.5072021484375
 21
632.4874267578125
 72
     1
 10
140.5072021484375
 20
632.4874267578125
 11
150.7847900390625
 21
631.3682250976562
 72
     1
 10
150.7847900390625
 20
631.3682250976562
 11
161.2269592285156
 21
630.568603515625
 72
     1
 10
161.2269592285156
 20
630.568603515625
 11
171.77880859375
 21
630.0888061523437
 72
     1
 10
171.77880859375
 20
630.0888061523437
 11
177.8876342773437
 21
629.9967041015625
 72
     1
 10
177.8876342773437
 20
629.9967041015625
 11
177.8876342773437
 21
575.0478515624999
 72
     1
 10
177.8876342773437
 20
575.0478515624999
 11
186.8832397460937
 21
575.0478515624999
 72
     1
 10
186.8832397460937
 20
575.0478515624999
 11
186.8833312988281
 21
629.9967041015625
 72
     1
 10
186.8833312988281
 20
629.9967041015625
 11
192.9921264648437
 21
630.0888061523437
 72
     1
 10
192.9921264648437
 20
630.0888061523437
 11
203.5439758300781
 21
630.568603515625
 72
     1
 10
203.5439758300781
 20
630.568603515625
 11
213.9861450195312
 21
631.3682250976562
 72
     1
 10
213.9861450195312
 20
631.3682250976562
 11
224.2637329101563
 21
632.4874267578125
 72
     1
 10
224.2637329101563
 20
632.4874267578125
 11
234.3218994140625
 21
633.926025390625
 72
     1
 10
234.3218994140625
 20
633.926025390625
 11
244.105712890625
 21
635.6839599609375
 72
     1
 10
244.105712890625
 20
635.6839599609375
 11
253.5603332519531
 21
637.7608032226562
 72
     1
 10
253.5603332519531
 20
637.7608032226562
 11
262.6305847167969
 21
640.1561279296875
 72
     1
 10
262.6305847167969
 20
640.1561279296875
 11
271.2713012695313
 21
642.8714599609374
 72
     1
 10
271.2713012695313
 20
642.8714599609374
 11
279.4759521484375
 21
645.9156494140625
 72
     1
 10
279.4759521484375
 20
645.9156494140625
 11
287.2479553222656
 21
649.2994384765625
 72
     1
 10
287.2479553222656
 20
649.2994384765625
 11
294.5905456542969
 21
653.033935546875
 72
     1
 10
294.5905456542969
 20
653.033935546875
 11
301.5077209472656
 21
657.1287841796874
 72
     1
 10
301.5077209472656
 20
657.1287841796874
 11
308.0040588378906
 21
661.5933227539062
 72
     1
 10
308.0040588378906
 20
661.5933227539062
 11
314.0848083496094
 21
666.4323730468749
 72
     1
 10
314.0848083496094
 20
666.4323730468749
 11
319.7574157714844
 21
671.6400146484375
 72
     1
 10
319.7574157714844
 20
671.6400146484375
 11
325.0314331054688
 21
677.213134765625
 72
     1
 10
325.0314331054688
 20
677.213134765625
 11
329.9219360351563
 21
683.1405029296875
 72
     1
 10
329.9219360351563
 20
683.1405029296875
 11
334.4435424804688
 21
689.415771484375
 72
     1
 10
334.4435424804688
 20
689.415771484375
 11
338.6094970703125
 21
696.03466796875
 72
     1
 10
338.6094970703125
 20
696.03466796875
 11
342.4336547851563
 21
702.9920654296875
 72
     1
 10
342.4336547851563
 20
702.9920654296875
 11
345.9293212890625
 21
710.2840576171875
 72
     1
 10
345.9293212890625
 20
710.2840576171875
 11
349.1116333007813
 21
717.9013671875
 72
     1
 10
349.1116333007813
 20
717.9013671875
 11
350.7851257324219
 21
722.5
 72
     1
 10
350.7851257324219
 20
722.5
 11
416.2709045410156
 21
722.5
 72
     1
 10
416.2709045410156
 20
722.5
 11
416.2709045410156
 21
317.6981811523437
 72
     1
 10
416.2709045410156
 20
317.6981811523437
 11
276.8391723632813
 21
317.6981811523437
 72
     1
 10
276.8391723632813
 20
317.6981811523437
 11
276.8391723632813
 21
473.8466796875
 72
     1
 10
276.8391723632813
 20
473.8466796875
 11
267.8436889648438
 21
473.8470458984375
 72
     1
 10
267.8436889648438
 20
473.8470458984375
 11
267.8436279296875
 21
317.6981811523437
 72
     1
 10
267.8436279296875
 20
317.6981811523437
 11
96.92736816406251
 21
317.6981811523437
 72
     1
 10
96.92736816406251
 20
317.6981811523437
 11
96.92736816406251
 21
362.6762084960938
 72
     1
 10
96.92736816406251
 20
362.6762084960938
 11
87.93173217773437
 21
362.6762084960938
 72
     1
 10
87.93173217773437
 20
362.6762084960938
 11
87.93173217773437
 21
317.6981811523437
 72
     1
 10
87.93173217773437
 20
317.6981811523437
 11
-51.5
 21
317.6981811523437
 72
     1
 10
-51.5
 20
317.6981811523437
 11
-51.5
 21
722.5
 97
        1
330
83
 75
     2
 76
     1
 98
        1
 10
0.0
 20
0.0
450
        0
451
        0
460
0.0
461
0.0
452
        0
462
0.0
453
        0
470

  0
LWPOLYLINE
  5
85
330
79
100
AcDbEntity
  8
Layer 1
100
AcDbPolyline
 90
       65
 70
     1
 43
0.0
 10
421.3558959960937
 20
317.2879028320313
 10
560.7875366210937
 20
317.2879028320313
 10
560.7875366210937
 20
473.436279296875
 10
569.7832641601562
 20
473.4367065429687
 10
569.7832641601562
 20
317.2879028320313
 10
740.6995239257812
 20
317.2879028320313
 10
740.6995239257812
 20
362.2657470703125
 10
749.6951293945312
 20
362.2657470703125
 10
749.6951293945312
 20
317.2879028320313
 10
889.1268310546875
 20
317.2879028320313
 10
889.1268310546875
 20
722.089599609375
 10
820.8339233398437
 20
722.089599609375
 10
820.5130004882812
 20
720.3963623046875
 10
818.7393188476562
 20
713.7666015625
 10
816.4671630859375
 20
707.23486328125
 10
813.7052612304687
 20
700.8206787109375
 10
810.4492797851563
 20
694.5379028320312
 10
806.7073364257812
 20
688.4123535156249
 10
802.4849243164062
 20
682.4820556640625
 10
797.7882690429687
 20
676.784423828125
 10
792.6268920898437
 20
671.3511962890625
 10
787.0099487304687
 20
666.214111328125
 10
780.9500122070312
 20
661.3961181640624
 10
774.4448852539062
 20
656.9014892578125
 10
767.5004882812499
 20
652.7472534179687
 10
760.1325683593749
 20
648.9583740234374
 10
752.3434448242187
 20
645.536865234375
 10
744.1302490234375
 20
642.4713134765625
 10
735.4869995117187
 20
639.7476806640625
 10
726.416259765625
 20
637.3504028320312
 10
716.9616088867187
 20
635.2735595703125
 10
707.1777954101563
 20
633.5157470703125
 10
697.1196899414062
 20
632.0770263671875
 10
686.8421020507812
 20
630.9577636718749
 10
676.3998413085937
 20
630.1582641601562
 10
665.8480834960937
 20
629.678466796875
 10
659.7391357421875
 20
629.5863037109374
 10
659.7391357421875
 20
574.6375122070312
 10
650.7435913085937
 20
574.6375122070312
 10
650.7435302734375
 20
629.5863037109374
 10
644.6346435546875
 20
629.678466796875
 10
634.0828247070312
 20
630.1582641601562
 10
623.6406249999999
 20
630.9577636718749
 10
613.363037109375
 20
632.0770263671875
 10
603.3049316406249
 20
633.5157470703125
 10
593.5211181640625
 20
635.2735595703125
 10
584.0665283203125
 20
637.3503417968749
 10
574.9961547851562
 20
639.7457275390625
 10
566.3555908203124
 20
642.4610595703125
 10
558.1508178710937
 20
645.5053100585937
 10
550.3788452148437
 20
648.8890991210937
 10
543.0362548828124
 20
652.6235351562499
 10
536.1190795898437
 20
656.7183837890625
 10
529.6227416992187
 20
661.1829833984375
 10
523.5420532226562
 20
666.0220336914062
 10
517.869384765625
 20
671.2296142578125
 10
512.5953979492187
 20
676.8027954101562
 10
507.7048950195312
 20
682.7301025390625
 10
503.1832885742187
 20
689.0054931640625
 10
499.017333984375
 20
695.6243896484375
 10
495.193115234375
 20
702.581787109375
 10
491.6973876953124
 20
709.8737182617187
 10
488.5152587890624
 20
717.490966796875
 10
486.8417358398438
 20
722.089599609375
 10
421.3558959960937
 20
722.089599609375
  0
HATCH
  5
86
330
79
100
AcDbEntity
  8
Layer 1
 62
   254
420
 13421772
440
 33554687
100
AcDbHatch
 10
0.0
 20
0.0
 30
0.0
210
0.0
220
0.0
230
1.0
  2
SOLID
 70
     1
 71
     1
 91
        1
 92
        1
 93
       65
 72
     1
 10
421.3558959960937
 20
317.2879028320313
 11
560.7875366210937
 21
317.2879028320313
 72
     1
 10
560.7875366210937
 20
317.2879028320313
 11
560.7875366210937
 21
473.436279296875
 72
     1
 10
560.7875366210937
 20
473.436279296875
 11
569.7832641601562
 21
473.4367065429687
 72
     1
 10
569.7832641601562
 20
473.4367065429687
 11
569.7832641601562
 21
317.2879028320313
 72
     1
 10
569.7832641601562
 20
317.2879028320313
 11
740.6995239257812
 21
317.2879028320313
 72
     1
 10
740.6995239257812
 20
317.2879028320313
 11
740.6995239257812
 21
362.2657470703125
 72
     1
 10
740.6995239257812
 20
362.2657470703125
 11
749.6951293945312
 21
362.2657470703125
 72
     1
 10
749.6951293945312
 20
362.2657470703125
 11
749.6951293945312
 21
317.2879028320313
 72
     1
 10
749.6951293945312
 20
317.2879028320313
 11
889.1268310546875
 21
317.2879028320313
 72
     1
 10
889.1268310546875
 20
317.2879028320313
 11
889.1268310546875
 21
722.089599609375
 72
     1
 10
889.1268310546875
 20
722.089599609375
 11
820.8339233398437
 21
722.089599609375
 72
     1
 10
820.8339233398437
 20
722.089599609375
 11
820.5130004882812
 21
720.3963623046875
 72
     1
 10
820.5130004882812
 20
720.3963623046875
 11
818.7393188476562
 21
713.7666015625
 72
     1
 10
818.7393188476562
 20
713.7666015625
 11
816.4671630859375
 21
707.23486328125
 72
     1
 10
816.4671630859375
 20
707.23486328125
 11
813.7052612304687
 21
700.8206787109375
 72
     1
 10
813.7052612304687
 20
700.8206787109375
 11
810.4492797851563
 21
694.5379028320312
 72
     1
 10
810.4492797851563
 20
694.5379028320312
 11
806.7073364257812
 21
688.4123535156249
 72
     1
 10
806.7073364257812
 20
688.4123535156249
 11
802.4849243164062
 21
682.4820556640625
 72
     1
 10
802.4849243164062
 20
682.4820556640625
 11
797.7882690429687
 21
676.784423828125
 72
     1
 10
797.7882690429687
 20
676.784423828125
 11
792.6268920898437
 21
671.3511962890625
 72
     1
 10
792.6268920898437
 20
671.3511962890625
 11
787.0099487304687
 21
666.214111328125
 72
     1
 10
787.0099487304687
 20
666.214111328125
 11
780.9500122070312
 21
661.3961181640624
 72
     1
 10
780.9500122070312
 20
661.3961181640624
 11
774.4448852539062
 21
656.9014892578125
 72
     1
 10
774.4448852539062
 20
656.9014892578125
 11
767.5004882812499
 21
652.7472534179687
 72
     1
 10
767.5004882812499
 20
652.7472534179687
 11
760.1325683593749
 21
648.9583740234374
 72
     1
 10
760.1325683593749
 20
648.9583740234374
 11
752.3434448242187
 21
645.536865234375
 72
     1
 10
752.3434448242187
 20
645.536865234375
 11
744.1302490234375
 21
642.4713134765625
 72
     1
 10
744.1302490234375
 20
642.4713134765625
 11
735.4869995117187
 21
639.7476806640625
 72
     1
 10
735.4869995117187
 20
639.7476806640625
 11
726.416259765625
 21
637.3504028320312
 72
     1
 10
726.416259765625
 20
637.3504028320312
 11
716.9616088867187
 21
635.2735595703125
 72
     1
 10
716.9616088867187
 20
635.2735595703125
 11
707.1777954101563
 21
633.5157470703125
 72
     1
 10
707.1777954101563
 20
633.5157470703125
 11
697.1196899414062
 21
632.0770263671875
 72
     1
 10
697.1196899414062
 20
632.0770263671875
 11
686.8421020507812
 21
630.9577636718749
 72
     1
 10
686.8421020507812
 20
630.9577636718749
 11
676.3998413085937
 21
630.1582641601562
 72
     1
 10
676.3998413085937
 20
630.1582641601562
 11
665.8480834960937
 21
629.678466796875
 72
     1
 10
665.8480834960937
 20
629.678466796875
 11
659.7391357421875
 21
629.5863037109374
 72
     1
 10
659.7391357421875
 20
629.5863037109374
 11
659.7391357421875
 21
574.6375122070312
 72
     1
 10
659.7391357421875
 20
574.6375122070312
 11
650.7435913085937
 21
574.6375122070312
 72
     1
 10
650.7435913085937
 20
574.6375122070312
 11
650.7435302734375
 21
629.5863037109374
 72
     1
 10
650.7435302734375
 20
629.5863037109374
 11
644.6346435546875
 21
629.678466796875
 72
     1
 10
644.6346435546875
 20
629.678466796875
 11
634.0828247070312
 21
630.1582641601562
 72
     1
 10
634.0828247070312
 20
630.1582641601562
 11
623.6406249999999
 21
630.9577636718749
 72
     1
 10
623.6406249999999
 20
630.9577636718749
 11
613.363037109375
 21
632.0770263671875
 72
     1
 10
613.363037109375
 20
632.0770263671875
 11
603.3049316406249
 21
633.5157470703125
 72
     1
 10
603.3049316406249
 20
633.5157470703125
 11
593.5211181640625
 21
635.2735595703125
 72
     1
 10
593.5211181640625
 20
635.2735595703125
 11
584.0665283203125
 21
637.3503417968749
 72
     1
 10
584.0665283203125
 20
637.3503417968749
 11
574.9961547851562
 21
639.7457275390625
 72
     1
 10
574.9961547851562
 20
639.7457275390625
 11
566.3555908203124
 21
642.4610595703125
 72
     1
 10
566.3555908203124
 20
642.4610595703125
 11
558.1508178710937
 21
645.5053100585937
 72
     1
 10
558.1508178710937
 20
645.5053100585937
 11
550.3788452148437
 21
648.8890991210937
 72
     1
 10
550.3788452148437
 20
648.8890991210937
 11
543.0362548828124
 21
652.6235351562499
 72
     1
 10
543.0362548828124
 20
652.6235351562499
 11
536.1190795898437
 21
656.7183837890625
 72
     1
 10
536.1190795898437
 20
656.7183837890625
 11
529.6227416992187
 21
661.1829833984375
 72
     1
 10
529.6227416992187
 20
661.1829833984375
 11
523.5420532226562
 21
666.0220336914062
 72
     1
 10
523.5420532226562
 20
666.0220336914062
 11
517.869384765625
 21
671.2296142578125
 72
     1
 10
517.869384765625
 20
671.2296142578125
 11
512.5953979492187
 21
676.8027954101562
 72
     1
 10
512.5953979492187
 20
676.8027954101562
 11
507.7048950195312
 21
682.7301025390625
 72
     1
 10
507.7048950195312
 20
682.7301025390625
 11
503.1832885742187
 21
689.0054931640625
 72
     1
 10
503.1832885742187
 20
689.0054931640625
 11
499.017333984375
 21
695.6243896484375
 72
     1
 10
499.017333984375
 20
695.6243896484375
 11
495.193115234375
 21
702.581787109375
 72
     1
 10
495.193115234375
 20
702.581787109375
 11
491.6973876953124
 21
709.8737182617187
 72
     1
 10
491.6973876953124
 20
709.8737182617187
 11
488.5152587890624
 21
717.490966796875
 72
     1
 10
488.5152587890624
 20
717.490966796875
 11
486.8417358398438
 21
722.089599609375
 72
     1
 10
486.8417358398438
 20
722.089599609375
 11
421.3558959960937
 21
722.089599609375
 72
     1
 10
421.3558959960937
 20
722.089599609375
 11
421.3558959960937
 21
317.2879028320313
 97
        1
330
85
 75
     2
 76
     1
 98
        1
 10
0.0
 20
0.0
450
        0
451
        0
460
0.0
461
0.0
452
        0
462
0.0
453
        0
470

  0
SPLINE
  5
87
330
79
100
AcDbEntity
  8
Layer 1
 62
    18
420
        0
370
    35
100
AcDbSpline
210
0.0
220
0.0
230
1.0
 70
    11
 71
     3
 72
   200
 73
   196
 74
     0
 42
0.0000000001
 43
0.0000000001
 40
0.0
 40
0.0
 40
0.0
 40
0.0
 40
1.0
 40
1.0
 40
1.0
 40
2.0
 40
2.0
 40
2.0
 40
3.0
 40
3.0
 40
3.0
 40
4.0
 40
4.0
 40
4.0
 40
5.0
 40
5.0
 40
5.0
 40
6.0
 40
6.0
 40
6.0
 40
7.0
 40
7.0
 40
7.0
 40
8.0
 40
8.0
 40
8.0
 40
9.0
 40
9.0
 40
9.0
 40
10.0
 40
10.0
 40
10.0
 40
11.0
 40
11.0
 40
11.0
 40
12.0
 40
12.0
 40
12.0
 40
13.0
 40
13.0
 40
13.0
 40
14.0
 40
14.0
 40
14.0
 40
15.0
 40
15.0
 40
15.0
 40
16.0
 40
16.0
 40
16.0
 40
17.0
 40
17.0
 40
17.0
 40
18.0
 40
18.0
 40
18.0
 40
19.0
 40
19.0
 40
19.0
 40
20.0
 40
20.0
 40
20.0
 40
21.0
 40
21.0
 40
21.0
 40
22.0
 40
22.0
 40
22.0
 40
23.0
 40
23.0
 40
23.0
 40
24.0
 40
24.0
 40
24.0
 40
25.0
 40
25.0
 40
25.0
 40
26.0
 40
26.0
 40
26.0
 40
27.0
 40
27.0
 40
27.0
 40
28.0
 40
28.0
 40
28.0
 40
29.0
 40
29.0
 40
29.0
 40
30.0
 40
30.0
 40
30.0
 40
31.0
 40
31.0
 40
31.0
 40
32.0
 40
32.0
 40
32.0
 40
33.0
 40
33.0
 40
33.0
 40
34.0
 40
34.0
 40
34.0
 40
35.0
 40
35.0
 40
35.0
 40
36.0
 40
36.0
 40
36.0
 40
37.0
 40
37.0
 40
37.0
 40
38.0
 40
38.0
 40
38.0
 40
39.0
 40
39.0
 40
39.0
 40
40.0
 40
40.0
 40
40.0
 40
41.0
 40
41.0
 40
41.0
 40
42.0
 40
42.0
 40
42.0
 40
43.0
 40
43.0
 40
43.0
 40
44.0
 40
44.0
 40
44.0
 40
45.0
 40
45.0
 40
45.0
 40
46.0
 40
46.0
 40
46.0
 40
47.0
 40
47.0
 40
47.0
 40
48.0
 40
48.0
 40
48.0
 40
49.0
 40
49.0
 40
49.0
 40
50.0
 40
50.0
 40
50.0
 40
51.0
 40
51.0
 40
51.0
 40
52.0
 40
52.0
 40
52.0
 40
53.0
 40
53.0
 40
53.0
 40
54.0
 40
54.0
 40
54.0
 40
55.0
 40
55.0
 40
55.0
 40
56.0
 40
56.0
 40
56.0
 40
57.0
 40
57.0
 40
57.0
 40
58.0
 40
58.0
 40
58.0
 40
59.0
 40
59.0
 40
59.0
 40
60.0
 40
60.0
 40
60.0
 40
61.0
 40
61.0
 40
61.0
 40
62.0
 40
62.0
 40
62.0
 40
63.0
 40
63.0
 40
63.0
 40
64.0
 40
64.0
 40
64.0
 40
65.0
 40
65.0
 40
65.0
 40
65.0
 10
421.3558959960937
 20
317.2879028320313
 30
0.0
 10
421.3558959960937
 20
317.2879028320313
 30
0.0
 10
560.7875366210937
 20
317.2879028320313
 30
0.0
 10
560.7875366210937
 20
317.2879028320313
 30
0.0
 10
560.7875366210937
 20
317.2879028320313
 30
0.0
 10
560.7875366210937
 20
473.436279296875
 30
0.0
 10
560.7875366210937
 20
473.436279296875
 30
0.0
 10
560.7875366210937
 20
473.436279296875
 30
0.0
 10
569.7832641601562
 20
473.4367065429687
 30
0.0
 10
569.7832641601562
 20
473.4367065429687
 30
0.0
 10
569.7832641601562
 20
473.4367065429687
 30
0.0
 10
569.7832641601562
 20
317.2879028320313
 30
0.0
 10
569.7832641601562
 20
317.2879028320313
 30
0.0
 10
569.7832641601562
 20
317.2879028320313
 30
0.0
 10
740.6995239257812
 20
317.2879028320313
 30
0.0
 10
740.6995239257812
 20
317.2879028320313
 30
0.0
 10
740.6995239257812
 20
317.2879028320313
 30
0.0
 10
740.6995239257812
 20
362.2657470703125
 30
0.0
 10
740.6995239257812
 20
362.2657470703125
 30
0.0
 10
740.6995239257812
 20
362.2657470703125
 30
0.0
 10
749.6951293945312
 20
362.2657470703125
 30
0.0
 10
749.6951293945312
 20
362.2657470703125
 30
0.0
 10
749.6951293945312
 20
362.2657470703125
 30
0.0
 10
749.6951293945312
 20
317.2879028320313
 30
0.0
 10
749.6951293945312
 20
317.2879028320313
 30
0.0
 10
749.6951293945312
 20
317.2879028320313
 30
0.0
 10
889.1268310546875
 20
317.2879028320313
 30
0.0
 10
889.1268310546875
 20
317.2879028320313
 30
0.0
 10
889.1268310546875
 20
317.2879028320313
 30
0.0
 10
889.1268310546875
 20
722.089599609375
 30
0.0
 10
889.1268310546875
 20
722.089599609375
 30
0.0
 10
889.1268310546875
 20
722.089599609375
 30
0.0
 10
820.8339233398437
 20
722.089599609375
 30
0.0
 10
820.8339233398437
 20
722.089599609375
 30
0.0
 10
820.8339233398437
 20
722.089599609375
 30
0.0
 10
820.5130004882812
 20
720.3963623046875
 30
0.0
 10
820.5130004882812
 20
720.3963623046875
 30
0.0
 10
820.5130004882812
 20
720.3963623046875
 30
0.0
 10
818.7393188476562
 20
713.7666015625
 30
0.0
 10
818.7393188476562
 20
713.7666015625
 30
0.0
 10
818.7393188476562
 20
713.7666015625
 30
0.0
 10
816.4671630859375
 20
707.23486328125
 30
0.0
 10
816.4671630859375
 20
707.23486328125
 30
0.0
 10
816.4671630859375
 20
707.23486328125
 30
0.0
 10
813.7052612304687
 20
700.8206787109375
 30
0.0
 10
813.7052612304687
 20
700.8206787109375
 30
0.0
 10
813.7052612304687
 20
700.8206787109375
 30
0.0
 10
810.4492797851563
 20
694.5379028320312
 30
0.0
 10
810.4492797851563
 20
694.5379028320312
 30
0.0
 10
810.4492797851563
 20
694.5379028320312
 30
0.0
 10
806.7073364257812
 20
688.4123535156249
 30
0.0
 10
806.7073364257812
 20
688.4123535156249
 30
0.0
 10
806.7073364257812
 20
688.4123535156249
 30
0.0
 10
802.4849243164062
 20
682.4820556640625
 30
0.0
 10
802.4849243164062
 20
682.4820556640625
 30
0.0
 10
802.4849243164062
 20
682.4820556640625
 30
0.0
 10
797.7882690429687
 20
676.784423828125
 30
0.0
 10
797.7882690429687
 20
676.784423828125
 30
0.0
 10
797.7882690429687
 20
676.784423828125
 30
0.0
 10
792.6268920898437
 20
671.3511962890625
 30
0.0
 10
792.6268920898437
 20
671.3511962890625
 30
0.0
 10
792.6268920898437
 20
671.3511962890625
 30
0.0
 10
787.0099487304687
 20
666.214111328125
 30
0.0
 10
787.0099487304687
 20
666.214111328125
 30
0.0
 10
787.0099487304687
 20
666.214111328125
 30
0.0
 10
780.9500122070312
 20
661.3961181640624
 30
0.0
 10
780.9500122070312
 20
661.3961181640624
 30
0.0
 10
780.9500122070312
 20
661.3961181640624
 30
0.0
 10
774.4448852539062
 20
656.9014892578125
 30
0.0
 10
774.4448852539062
 20
656.9014892578125
 30
0.0
 10
774.4448852539062
 20
656.9014892578125
 30
0.0
 10
767.5004882812499
 20
652.7472534179687
 30
0.0
 10
767.5004882812499
 20
652.7472534179687
 30
0.0
 10
767.5004882812499
 20
652.7472534179687
 30
0.0
 10
760.1325683593749
 20
648.9583740234374
 30
0.0
 10
760.1325683593749
 20
648.9583740234374
 30
0.0
 10
760.1325683593749
 20
648.9583740234374
 30
0.0
 10
752.3434448242187
 20
645.536865234375
 30
0.0
 10
752.3434448242187
 20
645.536865234375
 30
0.0
 10
752.3434448242187
 20
645.536865234375
 30
0.0
 10
744.1302490234375
 20
642.4713134765625
 30
0.0
 10
744.1302490234375
 20
642.4713134765625
 30
0.0
 10
744.1302490234375
 20
642.4713134765625
 30
0.0
 10
735.4869995117187
 20
639.7476806640625
 30
0.0
 10
735.4869995117187
 20
639.7476806640625
 30
0.0
 10
735.4869995117187
 20
639.7476806640625
 30
0.0
 10
726.416259765625
 20
637.3504028320312
 30
0.0
 10
726.416259765625
 20
637.3504028320312
 30
0.0
 10
726.416259765625
 20
637.3504028320312
 30
0.0
 10
716.9616088867187
 20
635.2735595703125
 30
0.0
 10
716.9616088867187
 20
635.2735595703125
 30
0.0
 10
716.9616088867187
 20
635.2735595703125
 30
0.0
 10
707.1777954101563
 20
633.5157470703125
 30
0.0
 10
707.1777954101563
 20
633.5157470703125
 30
0.0
 10
707.1777954101563
 20
633.5157470703125
 30
0.0
 10
697.1196899414062
 20
632.0770263671875
 30
0.0
 10
697.1196899414062
 20
632.0770263671875
 30
0.0
 10
697.1196899414062
 20
632.0770263671875
 30
0.0
 10
686.8421020507812
 20
630.9577636718749
 30
0.0
 10
686.8421020507812
 20
630.9577636718749
 30
0.0
 10
686.8421020507812
 20
630.9577636718749
 30
0.0
 10
676.3998413085937
 20
630.1582641601562
 30
0.0
 10
676.3998413085937
 20
630.1582641601562
 30
0.0
 10
676.3998413085937
 20
630.1582641601562
 30
0.0
 10
665.8480834960937
 20
629.678466796875
 30
0.0
 10
665.8480834960937
 20
629.678466796875
 30
0.0
 10
665.8480834960937
 20
629.678466796875
 30
0.0
 10
659.7391357421875
 20
629.5863037109374
 30
0.0
 10
659.7391357421875
 20
629.5863037109374
 30
0.0
 10
659.7391357421875
 20
629.5863037109374
 30
0.0
 10
659.7391357421875
 20
574.6375122070312
 30
0.0
 10
659.7391357421875
 20
574.6375122070312
 30
0.0
 10
659.7391357421875
 20
574.6375122070312
 30
0.0
 10
650.7435913085937
 20
574.6375122070312
 30
0.0
 10
650.7435913085937
 20
574.6375122070312
 30
0.0
 10
650.7435913085937
 20
574.6375122070312
 30
0.0
 10
650.7435302734375
 20
629.5863037109374
 30
0.0
 10
650.7435302734375
 20
629.5863037109374
 30
0.0
 10
650.7435302734375
 20
629.5863037109374
 30
0.0
 10
644.6346435546875
 20
629.678466796875
 30
0.0
 10
644.6346435546875
 20
629.678466796875
 30
0.0
 10
644.6346435546875
 20
629.678466796875
 30
0.0
 10
634.0828247070312
 20
630.1582641601562
 30
0.0
 10
634.0828247070312
 20
630.1582641601562
 30
0.0
 10
634.0828247070312
 20
630.1582641601562
 30
0.0
 10
623.6406249999999
 20
630.9577636718749
 30
0.0
 10
623.6406249999999
 20
630.9577636718749
 30
0.0
 10
623.6406249999999
 20
630.9577636718749
 30
0.0
 10
613.363037109375
 20
632.0770263671875
 30
0.0
 10
613.363037109375
 20
632.0770263671875
 30
0.0
 10
613.363037109375
 20
632.0770263671875
 30
0.0
 10
603.3049316406249
 20
633.5157470703125
 30
0.0
 10
603.3049316406249
 20
633.5157470703125
 30
0.0
 10
603.3049316406249
 20
633.5157470703125
 30
0.0
 10
593.5211181640625
 20
635.2735595703125
 30
0.0
 10
593.5211181640625
 20
635.2735595703125
 30
0.0
 10
593.5211181640625
 20
635.2735595703125
 30
0.0
 10
584.0665283203125
 20
637.3503417968749
 30
0.0
 10
584.0665283203125
 20
637.3503417968749
 30
0.0
 10
584.0665283203125
 20
637.3503417968749
 30
0.0
 10
574.9961547851562
 20
639.7457275390625
 30
0.0
 10
574.9961547851562
 20
639.7457275390625
 30
0.0
 10
574.9961547851562
 20
639.7457275390625
 30
0.0
 10
566.3555908203124
 20
642.4610595703125
 30
0.0
 10
566.3555908203124
 20
642.4610595703125
 30
0.0
 10
566.3555908203124
 20
642.4610595703125
 30
0.0
 10
558.1508178710937
 20
645.5053100585937
 30
0.0
 10
558.1508178710937
 20
645.5053100585937
 30
0.0
 10
558.1508178710937
 20
645.5053100585937
 30
0.0
 10
550.3788452148437
 20
648.8890991210937
 30
0.0
 10
550.3788452148437
 20
648.8890991210937
 30
0.0
 10
550.3788452148437
 20
648.8890991210937
 30
0.0
 10
543.0362548828124
 20
652.6235351562499
 30
0.0
 10
543.0362548828124
 20
652.6235351562499
 30
0.0
 10
543.0362548828124
 20
652.6235351562499
 30
0.0
 10
536.1190795898437
 20
656.7183837890625
 30
0.0
 10
536.1190795898437
 20
656.7183837890625
 30
0.0
 10
536.1190795898437
 20
656.7183837890625
 30
0.0
 10
529.6227416992187
 20
661.1829833984375
 30
0.0
 10
529.6227416992187
 20
661.1829833984375
 30
0.0
 10
529.6227416992187
 20
661.1829833984375
 30
0.0
 10
523.5420532226562
 20
666.0220336914062
 30
0.0
 10
523.5420532226562
 20
666.0220336914062
 30
0.0
 10
523.5420532226562
 20
666.0220336914062
 30
0.0
 10
517.869384765625
 20
671.2296142578125
 30
0.0
 10
517.869384765625
 20
671.2296142578125
 30
0.0
 10
517.869384765625
 20
671.2296142578125
 30
0.0
 10
512.5953979492187
 20
676.8027954101562
 30
0.0
 10
512.5953979492187
 20
676.8027954101562
 30
0.0
 10
512.5953979492187
 20
676.8027954101562
 30
0.0
 10
507.7048950195312
 20
682.7301025390625
 30
0.0
 10
507.7048950195312
 20
682.7301025390625
 30
0.0
 10
507.7048950195312
 20
682.7301025390625
 30
0.0
 10
503.1832885742187
 20
689.0054931640625
 30
0.0
 10
503.1832885742187
 20
689.0054931640625
 30
0.0
 10
503.1832885742187
 20
689.0054931640625
 30
0.0
 10
499.017333984375
 20
695.6243896484375
 30
0.0
 10
499.017333984375
 20
695.6243896484375
 30
0.0
 10
499.017333984375
 20
695.6243896484375
 30
0.0
 10
495.193115234375
 20
702.581787109375
 30
0.0
 10
495.193115234375
 20
702.581787109375
 30
0.0
 10
495.193115234375
 20
702.581787109375
 30
0.0
 10
491.6973876953124
 20
709.8737182617187
 30
0.0
 10
491.6973876953124
 20
709.8737182617187
 30
0.0
 10
491.6973876953124
 20
709.8737182617187
 30
0.0
 10
488.5152587890624
 20
717.490966796875
 30
0.0
 10
488.5152587890624
 20
717.490966796875
 30
0.0
 10
488.5152587890624
 20
717.490966796875
 30
0.0
 10
486.8417358398438
 20
722.089599609375
 30
0.0
 10
486.8417358398438
 20
722.089599609375
 30
0.0
 10
486.8417358398438
 20
722.089599609375
 30
0.0
 10
421.3558959960937
 20
722.089599609375
 30
0.0
 10
421.3558959960937
 20
722.089599609375
 30
0.0
 10
421.3558959960937
 20
722.089599609375
 30
0.0
 10
421.3558959960937
 20
317.2879028320313
 30
0.0
 10
421.3558959960937
 20
317.2879028320313
 30
0.0
  0
SPLINE
  5
88
330
79
100
AcDbEntity
  8
Layer 1
 62
    18
420
        0
370
    35
100
AcDbSpline
210
0.0
220
0.0
230
1.0
 70
    11
 71
     3
 72
   200
 73
   196
 74
     0
 42
0.0000000001
 43
0.0000000001
 40
0.0
 40
0.0
 40
0.0
 40
0.0
 40
1.0
 40
1.0
 40
1.0
 40
2.0
 40
2.0
 40
2.0
 40
3.0
 40
3.0
 40
3.0
 40
4.0
 40
4.0
 40
4.0
 40
5.0
 40
5.0
 40
5.0
 40
6.0
 40
6.0
 40
6.0
 40
7.0
 40
7.0
 40
7.0
 40
8.0
 40
8.0
 40
8.0
 40
9.0
 40
9.0
 40
9.0
 40
10.0
 40
10.0
 40
10.0
 40
11.0
 40
11.0
 40
11.0
 40
12.0
 40
12.0
 40
12.0
 40
13.0
 40
13.0
 40
13.0
 40
14.0
 40
14.0
 40
14.0
 40
15.0
 40
15.0
 40
15.0
 40
16.0
 40
16.0
 40
16.0
 40
17.0
 40
17.0
 40
17.0
 40
18.0
 40
18.0
 40
18.0
 40
19.0
 40
19.0
 40
19.0
 40
20.0
 40
20.0
 40
20.0
 40
21.0
 40
21.0
 40
21.0
 40
22.0
 40
22.0
 40
22.0
 40
23.0
 40
23.0
 40
23.0
 40
24.0
 40
24.0
 40
24.0
 40
25.0
 40
25.0
 40
25.0
 40
26.0
 40
26.0
 40
26.0
 40
27.0
 40
27.0
 40
27.0
 40
28.0
 40
28.0
 40
28.0
 40
29.0
 40
29.0
 40
29.0
 40
30.0
 40
30.0
 40
30.0
 40
31.0
 40
31.0
 40
31.0
 40
32.0
 40
32.0
 40
32.0
 40
33.0
 40
33.0
 40
33.0
 40
34.0
 40
34.0
 40
34.0
 40
35.0
 40
35.0
 40
35.0
 40
36.0
 40
36.0
 40
36.0
 40
37.0
 40
37.0
 40
37.0
 40
38.0
 40
38.0
 40
38.0
 40
39.0
 40
39.0
 40
39.0
 40
40.0
 40
40.0
 40
40.0
 40
41.0
 40
41.0
 40
41.0
 40
42.0
 40
42.0
 40
42.0
 40
43.0
 40
43.0
 40
43.0
 40
44.0
 40
44.0
 40
44.0
 40
45.0
 40
45.0
 40
45.0
 40
46.0
 40
46.0
 40
46.0
 40
47.0
 40
47.0
 40
47.0
 40
48.0
 40
48.0
 40
48.0
 40
49.0
 40
49.0
 40
49.0
 40
50.0
 40
50.0
 40
50.0
 40
51.0
 40
51.0
 40
51.0
 40
52.0
 40
52.0
 40
52.0
 40
53.0
 40
53.0
 40
53.0
 40
54.0
 40
54.0
 40
54.0
 40
55.0
 40
55.0
 40
55.0
 40
56.0
 40
56.0
 40
56.0
 40
57.0
 40
57.0
 40
57.0
 40
58.0
 40
58.0
 40
58.0
 40
59.0
 40
59.0
 40
59.0
 40
60.0
 40
60.0
 40
60.0
 40
61.0
 40
61.0
 40
61.0
 40
62.0
 40
62.0
 40
62.0
 40
63.0
 40
63.0
 40
63.0
 40
64.0
 40
64.0
 40
64.0
 40
65.0
 40
65.0
 40
65.0
 40
65.0
 10
-51.5
 20
722.5
 30
0.0
 10
-51.5
 20
722.5
 30
0.0
 10
16.79302978515625
 20
722.5
 30
0.0
 10
16.79302978515625
 20
722.5
 30
0.0
 10
16.79302978515625
 20
722.5
 30
0.0
 10
17.11383056640625
 20
720.8067016601562
 30
0.0
 10
17.11383056640625
 20
720.8067016601562
 30
0.0
 10
17.11383056640625
 20
720.8067016601562
 30
0.0
 10
18.88742065429687
 20
714.177001953125
 30
0.0
 10
18.88742065429687
 20
714.177001953125
 30
0.0
 10
18.88742065429687
 20
714.177001953125
 30
0.0
 10
21.15960693359375
 20
707.6452026367187
 30
0.0
 10
21.15960693359375
 20
707.6452026367187
 30
0.0
 10
21.15960693359375
 20
707.6452026367187
 30
0.0
 10
23.92153930664063
 20
701.2310791015624
 30
0.0
 10
23.92153930664063
 20
701.2310791015624
 30
0.0
 10
23.92153930664063
 20
701.2310791015624
 30
0.0
 10
27.1776123046875
 20
694.9482421875
 30
0.0
 10
27.1776123046875
 20
694.9482421875
 30
0.0
 10
27.1776123046875
 20
694.9482421875
 30
0.0
 10
30.91946411132813
 20
688.82275390625
 30
0.0
 10
30.91946411132813
 20
688.82275390625
 30
0.0
 10
30.91946411132813
 20
688.82275390625
 30
0.0
 10
35.1419677734375
 20
682.8923950195312
 30
0.0
 10
35.1419677734375
 20
682.8923950195312
 30
0.0
 10
35.1419677734375
 20
682.8923950195312
 30
0.0
 10
39.83856201171875
 20
677.1947021484375
 30
0.0
 10
39.83856201171875
 20
677.1947021484375
 30
0.0
 10
39.83856201171875
 20
677.1947021484375
 30
0.0
 10
44.99990844726562
 20
671.7615966796874
 30
0.0
 10
44.99990844726562
 20
671.7615966796874
 30
0.0
 10
44.99990844726562
 20
671.7615966796874
 30
0.0
 10
50.6168212890625
 20
666.62451171875
 30
0.0
 10
50.6168212890625
 20
666.62451171875
 30
0.0
 10
50.6168212890625
 20
666.62451171875
 30
0.0
 10
56.67681884765625
 20
661.8065185546875
 30
0.0
 10
56.67681884765625
 20
661.8065185546875
 30
0.0
 10
56.67681884765625
 20
661.8065185546875
 30
0.0
 10
63.18194580078125
 20
657.3118896484374
 30
0.0
 10
63.18194580078125
 20
657.3118896484374
 30
0.0
 10
63.18194580078125
 20
657.3118896484374
 30
0.0
 10
70.12631225585938
 20
653.1575927734374
 30
0.0
 10
70.12631225585938
 20
653.1575927734374
 30
0.0
 10
70.12631225585938
 20
653.1575927734374
 30
0.0
 10
77.4942626953125
 20
649.3687744140625
 30
0.0
 10
77.4942626953125
 20
649.3687744140625
 30
0.0
 10
77.4942626953125
 20
649.3687744140625
 30
0.0
 10
85.28338623046876
 20
645.947265625
 30
0.0
 10
85.28338623046876
 20
645.947265625
 30
0.0
 10
85.28338623046876
 20
645.947265625
 30
0.0
 10
93.49655151367187
 20
642.8817138671875
 30
0.0
 10
93.49655151367187
 20
642.8817138671875
 30
0.0
 10
93.49655151367187
 20
642.8817138671875
 30
0.0
 10
102.139892578125
 20
640.1580810546875
 30
0.0
 10
102.139892578125
 20
640.1580810546875
 30
0.0
 10
102.139892578125
 20
640.1580810546875
 30
0.0
 10
111.2106323242187
 20
637.7608032226562
 30
0.0
 10
111.2106323242187
 20
637.7608032226562
 30
0.0
 10
111.2106323242187
 20
637.7608032226562
 30
0.0
 10
120.6651916503906
 20
635.6839599609375
 30
0.0
 10
120.6651916503906
 20
635.6839599609375
 30
0.0
 10
120.6651916503906
 20
635.6839599609375
 30
0.0
 10
130.4490661621094
 20
633.926025390625
 30
0.0
 10
130.4490661621094
 20
633.926025390625
 30
0.0
 10
130.4490661621094
 20
633.926025390625
 30
0.0
 10
140.5072021484375
 20
632.4874267578125
 30
0.0
 10
140.5072021484375
 20
632.4874267578125
 30
0.0
 10
140.5072021484375
 20
632.4874267578125
 30
0.0
 10
150.7847900390625
 20
631.3682250976562
 30
0.0
 10
150.7847900390625
 20
631.3682250976562
 30
0.0
 10
150.7847900390625
 20
631.3682250976562
 30
0.0
 10
161.2269592285156
 20
630.568603515625
 30
0.0
 10
161.2269592285156
 20
630.568603515625
 30
0.0
 10
161.2269592285156
 20
630.568603515625
 30
0.0
 10
171.77880859375
 20
630.0888061523437
 30
0.0
 10
171.77880859375
 20
630.0888061523437
 30
0.0
 10
171.77880859375
 20
630.0888061523437
 30
0.0
 10
177.8876342773437
 20
629.9967041015625
 30
0.0
 10
177.8876342773437
 20
629.9967041015625
 30
0.0
 10
177.8876342773437
 20
629.9967041015625
 30
0.0
 10
177.8876342773437
 20
575.0478515624999
 30
0.0
 10
177.8876342773437
 20
575.0478515624999
 30
0.0
 10
177.8876342773437
 20
575.0478515624999
 30
0.0
 10
186.8832397460937
 20
575.0478515624999
 30
0.0
 10
186.8832397460937
 20
575.0478515624999
 30
0.0
 10
186.8832397460937
 20
575.0478515624999
 30
0.0
 10
186.8833312988281
 20
629.9967041015625
 30
0.0
 10
186.8833312988281
 20
629.9967041015625
 30
0.0
 10
186.8833312988281
 20
629.9967041015625
 30
0.0
 10
192.9921264648437
 20
630.0888061523437
 30
0.0
 10
192.9921264648437
 20
630.0888061523437
 30
0.0
 10
192.9921264648437
 20
630.0888061523437
 30
0.0
 10
203.5439758300781
 20
630.568603515625
 30
0.0
 10
203.5439758300781
 20
630.568603515625
 30
0.0
 10
203.5439758300781
 20
630.568603515625
 30
0.0
 10
213.9861450195312
 20
631.3682250976562
 30
0.0
 10
213.9861450195312
 20
631.3682250976562
 30
0.0
 10
213.9861450195312
 20
631.3682250976562
 30
0.0
 10
224.2637329101563
 20
632.4874267578125
 30
0.0
 10
224.2637329101563
 20
632.4874267578125
 30
0.0
 10
224.2637329101563
 20
632.4874267578125
 30
0.0
 10
234.3218994140625
 20
633.926025390625
 30
0.0
 10
234.3218994140625
 20
633.926025390625
 30
0.0
 10
234.3218994140625
 20
633.926025390625
 30
0.0
 10
244.105712890625
 20
635.6839599609375
 30
0.0
 10
244.105712890625
 20
635.6839599609375
 30
0.0
 10
244.105712890625
 20
635.6839599609375
 30
0.0
 10
253.5603332519531
 20
637.7608032226562
 30
0.0
 10
253.5603332519531
 20
637.7608032226562
 30
0.0
 10
253.5603332519531
 20
637.7608032226562
 30
0.0
 10
262.6305847167969
 20
640.1561279296875
 30
0.0
 10
262.6305847167969
 20
640.1561279296875
 30
0.0
 10
262.6305847167969
 20
640.1561279296875
 30
0.0
 10
271.2713012695313
 20
642.8714599609374
 30
0.0
 10
271.2713012695313
 20
642.8714599609374
 30
0.0
 10
271.2713012695313
 20
642.8714599609374
 30
0.0
 10
279.4759521484375
 20
645.9156494140625
 30
0.0
 10
279.4759521484375
 20
645.9156494140625
 30
0.0
 10
279.4759521484375
 20
645.9156494140625
 30
0.0
 10
287.2479553222656
 20
649.2994384765625
 30
0.0
 10
287.2479553222656
 20
649.2994384765625
 30
0.0
 10
287.2479553222656
 20
649.2994384765625
 30
0.0
 10
294.5905456542969
 20
653.033935546875
 30
0.0
 10
294.5905456542969
 20
653.033935546875
 30
0.0
 10
294.5905456542969
 20
653.033935546875
 30
0.0
 10
301.5077209472656
 20
657.1287841796874
 30
0.0
 10
301.5077209472656
 20
657.1287841796874
 30
0.0
 10
301.5077209472656
 20
657.1287841796874
 30
0.0
 10
308.0040588378906
 20
661.5933227539062
 30
0.0
 10
308.0040588378906
 20
661.5933227539062
 30
0.0
 10
308.0040588378906
 20
661.5933227539062
 30
0.0
 10
314.0848083496094
 20
666.4323730468749
 30
0.0
 10
314.0848083496094
 20
666.4323730468749
 30
0.0
 10
314.0848083496094
 20
666.4323730468749
 30
0.0
 10
319.7574157714844
 20
671.6400146484375
 30
0.0
 10
319.7574157714844
 20
671.6400146484375
 30
0.0
 10
319.7574157714844
 20
671.6400146484375
 30
0.0
 10
325.0314331054688
 20
677.213134765625
 30
0.0
 10
325.0314331054688
 20
677.213134765625
 30
0.0
 10
325.0314331054688
 20
677.213134765625
 30
0.0
 10
329.9219360351563
 20
683.1405029296875
 30
0.0
 10
329.9219360351563
 20
683.1405029296875
 30
0.0
 10
329.9219360351563
 20
683.1405029296875
 30
0.0
 10
334.4435424804688
 20
689.415771484375
 30
0.0
 10
334.4435424804688
 20
689.415771484375
 30
0.0
 10
334.4435424804688
 20
689.415771484375
 30
0.0
 10
338.6094970703125
 20
696.03466796875
 30
0.0
 10
338.6094970703125
 20
696.03466796875
 30
0.0
 10
338.6094970703125
 20
696.03466796875
 30
0.0
 10
342.4336547851563
 20
702.9920654296875
 30
0.0
 10
342.4336547851563
 20
702.9920654296875
 30
0.0
 10
342.4336547851563
 20
702.9920654296875
 30
0.0
 10
345.9293212890625
 20
710.2840576171875
 30
0.0
 10
345.9293212890625
 20
710.2840576171875
 30
0.0
 10
345.9293212890625
 20
710.2840576171875
 30
0.0
 10
349.1116333007813
 20
717.9013671875
 30
0.0
 10
349.1116333007813
 20
717.9013671875
 30
0.0
 10
349.1116333007813
 20
717.9013671875
 30
0.0
 10
350.7851257324219
 20
722.5
 30
0.0
 10
350.7851257324219
 20
722.5
 30
0.0
 10
350.7851257324219
 20
722.5
 30
0.0
 10
416.2709045410156
 20
722.5
 30
0.0
 10
416.2709045410156
 20
722.5
 30
0.0
 10
416.2709045410156
 20
722.5
 30
0.0
 10
416.2709045410156
 20
317.6981811523437
 30
0.0
 10
416.2709045410156
 20
317.6981811523437
 30
0.0
 10
416.2709045410156
 20
317.6981811523437
 30
0.0
 10
276.8391723632813
 20
317.6981811523437
 30
0.0
 10
276.8391723632813
 20
317.6981811523437
 30
0.0
 10
276.8391723632813
 20
317.6981811523437
 30
0.0
 10
276.8391723632813
 20
473.8466796875
 30
0.0
 10
276.8391723632813
 20
473.8466796875
 30
0.0
 10
276.8391723632813
 20
473.8466796875
 30
0.0
 10
267.8436889648438
 20
473.8470458984375
 30
0.0
 10
267.8436889648438
 20
473.8470458984375
 30
0.0
 10
267.8436889648438
 20
473.8470458984375
 30
0.0
 10
267.8436279296875
 20
317.6981811523437
 30
0.0
 10
267.8436279296875
 20
317.6981811523437
 30
0.0
 10
267.8436279296875
 20
317.6981811523437
 30
0.0
 10
96.92736816406251
 20
317.6981811523437
 30
0.0
 10
96.92736816406251
 20
317.6981811523437
 30
0.0
 10
96.92736816406251
 20
317.6981811523437
 30
0.0
 10
96.92736816406251
 20
362.6762084960938
 30
0.0
 10
96.92736816406251
 20
362.6762084960938
 30
0.0
 10
96.92736816406251
 20
362.6762084960938
 30
0.0
 10
87.93173217773437
 20
362.6762084960938
 30
0.0
 10
87.93173217773437
 20
362.6762084960938
 30
0.0
 10
87.93173217773437
 20
362.6762084960938
 30
0.0
 10
87.93173217773437
 20
317.6981811523437
 30
0.0
 10
87.93173217773437
 20
317.6981811523437
 30
0.0
 10
87.93173217773437
 20
317.6981811523437
 30
0.0
 10
-51.5
 20
317.6981811523437
 30
0.0
 10
-51.5
 20
317.6981811523437
 30
0.0
 10
-51.5
 20
317.6981811523437
 30
0.0
 10
-51.5
 20
722.5
 30
0.0
 10
-51.5
 20
722.5
 30
0.0
  0
SPLINE
  5
89
330
79
100
AcDbEntity
  8
Layer 1
 62
    18
420
        0
370
    35
100
AcDbSpline
210
0.0
220
0.0
230
1.0
 70
    11
 71
     3
 72
   194
 73
   190
 74
     0
 42
0.0000000001
 43
0.0000000001
 40
0.0
 40
0.0
 40
0.0
 40
0.0
 40
1.0
 40
1.0
 40
1.0
 40
2.0
 40
2.0
 40
2.0
 40
3.0
 40
3.0
 40
3.0
 40
4.0
 40
4.0
 40
4.0
 40
5.0
 40
5.0
 40
5.0
 40
6.0
 40
6.0
 40
6.0
 40
7.0
 40
7.0
 40
7.0
 40
8.0
 40
8.0
 40
8.0
 40
9.0
 40
9.0
 40
9.0
 40
10.0
 40
10.0
 40
10.0
 40
11.0
 40
11.0
 40
11.0
 40
12.0
 40
12.0
 40
12.0
 40
13.0
 40
13.0
 40
13.0
 40
14.0
 40
14.0
 40
14.0
 40
15.0
 40
15.0
 40
15.0
 40
16.0
 40
16.0
 40
16.0
 40
17.0
 40
17.0
 40
17.0
 40
18.0
 40
18.0
 40
18.0
 40
19.0
 40
19.0
 40
19.0
 40
20.0
 40
20.0
 40
20.0
 40
21.0
 40
21.0
 40
21.0
 40
22.0
 40
22.0
 40
22.0
 40
23.0
 40
23.0
 40
23.0
 40
24.0
 40
24.0
 40
24.0
 40
25.0
 40
25.0
 40
25.0
 40
26.0
 40
26.0
 40
26.0
 40
27.0
 40
27.0
 40
27.0
 40
28.0
 40
28.0
 40
28.0
 40
29.0
 40
29.0
 40
29.0
 40
30.0
 40
30.0
 40
30.0
 40
31.0
 40
31.0
 40
31.0
 40
32.0
 40
32.0
 40
32.0
 40
33.0
 40
33.0
 40
33.0
 40
34.0
 40
34.0
 40
34.0
 40
35.0
 40
35.0
 40
35.0
 40
36.0
 40
36.0
 40
36.0
 40
37.0
 40
37.0
 40
37.0
 40
38.0
 40
38.0
 40
38.0
 40
39.0
 40
39.0
 40
39.0
 40
40.0
 40
40.0
 40
40.0
 40
41.0
 40
41.0
 40
41.0
 40
42.0
 40
42.0
 40
42.0
 40
43.0
 40
43.0
 40
43.0
 40
44.0
 40
44.0
 40
44.0
 40
45.0
 40
45.0
 40
45.0
 40
46.0
 40
46.0
 40
46.0
 40
47.0
 40
47.0
 40
47.0
 40
48.0
 40
48.0
 40
48.0
 40
49.0
 40
49.0
 40
49.0
 40
50.0
 40
50.0
 40
50.0
 40
51.0
 40
51.0
 40
51.0
 40
52.0
 40
52.0
 40
52.0
 40
53.0
 40
53.0
 40
53.0
 40
54.0
 40
54.0
 40
54.0
 40
55.0
 40
55.0
 40
55.0
 40
56.0
 40
56.0
 40
56.0
 40
57.0
 40
57.0
 40
57.0
 40
58.0
 40
58.0
 40
58.0
 40
59.0
 40
59.0
 40
59.0
 40
60.0
 40
60.0
 40
60.0
 40
61.0
 40
61.0
 40
61.0
 40
62.0
 40
62.0
 40
62.0
 40
63.0
 40
63.0
 40
63.0
 40
63.0
 10
-47.58453369140625
 20
-128.0837097167968
 30
0.0
 10
-47.58453369140625
 20
-128.0837097167968
 30
0.0
 10
-47.58453369140625
 20
276.7179870605469
 30
0.0
 10
-47.58453369140625
 20
276.7179870605469
 30
0.0
 10
-47.58453369140625
 20
276.7179870605469
 30
0.0
 10
28.13211059570313
 20
276.7179870605469
 30
0.0
 10
28.13211059570313
 20
276.7179870605469
 30
0.0
 10
28.13211059570313
 20
276.7179870605469
 30
0.0
 10
28.58984375
 20
274.9830932617188
 30
0.0
 10
28.58984375
 20
274.9830932617188
 30
0.0
 10
28.58984375
 20
274.9830932617188
 30
0.0
 10
30.99154663085938
 20
267.393798828125
 30
0.0
 10
30.99154663085938
 20
267.393798828125
 30
0.0
 10
30.99154663085938
 20
267.393798828125
 30
0.0
 10
33.765625
 20
260.1589965820313
 30
0.0
 10
33.765625
 20
260.1589965820313
 30
0.0
 10
33.765625
 20
260.1589965820313
 30
0.0
 10
36.90469360351563
 20
253.3207092285156
 30
0.0
 10
36.90469360351563
 20
253.3207092285156
 30
0.0
 10
36.90469360351563
 20
253.3207092285156
 30
0.0
 10
40.41021728515625
 20
246.9033203125
 30
0.0
 10
40.41021728515625
 20
246.9033203125
 30
0.0
 10
40.41021728515625
 20
246.9033203125
 30
0.0
 10
44.29168701171875
 20
240.9186401367187
 30
0.0
 10
44.29168701171875
 20
240.9186401367187
 30
0.0
 10
44.29168701171875
 20
240.9186401367187
 30
0.0
 10
45.39263916015625
 20
239.4899291992187
 30
0.0
 10
45.39263916015625
 20
239.4899291992187
 30
0.0
 10
45.39263916015625
 20
239.4899291992187
 30
0.0
 10
48.57406616210937
 20
235.3696899414063
 30
0.0
 10
48.57406616210937
 20
235.3696899414063
 30
0.0
 10
48.57406616210937
 20
235.3696899414063
 30
0.0
 10
53.27349853515625
 20
230.2488098144531
 30
0.0
 10
53.27349853515625
 20
230.2488098144531
 30
0.0
 10
53.27349853515625
 20
230.2488098144531
 30
0.0
 10
58.405517578125
 20
225.5510864257812
 30
0.0
 10
58.405517578125
 20
225.5510864257812
 30
0.0
 10
58.405517578125
 20
225.5510864257812
 30
0.0
 10
62.87838745117188
 20
222.1058349609375
 30
0.0
 10
62.87838745117188
 20
222.1058349609375
 30
0.0
 10
62.87838745117188
 20
222.1058349609375
 30
0.0
 10
63.98541259765625
 20
221.2547607421875
 30
0.0
 10
63.98541259765625
 20
221.2547607421875
 30
0.0
 10
63.98541259765625
 20
221.2547607421875
 30
0.0
 10
70.02581787109375
 20
217.3440856933594
 30
0.0
 10
70.02581787109375
 20
217.3440856933594
 30
0.0
 10
70.02581787109375
 20
217.3440856933594
 30
0.0
 10
76.52963256835938
 20
213.7899780273437
 30
0.0
 10
76.52963256835938
 20
213.7899780273437
 30
0.0
 10
76.52963256835938
 20
213.7899780273437
 30
0.0
 10
83.50137329101562
 20
210.5700378417969
 30
0.0
 10
83.50137329101562
 20
210.5700378417969
 30
0.0
 10
83.50137329101562
 20
210.5700378417969
 30
0.0
 10
90.94369506835937
 20
207.6642150878906
 30
0.0
 10
90.94369506835937
 20
207.6642150878906
 30
0.0
 10
90.94369506835937
 20
207.6642150878906
 30
0.0
 10
98.85830688476563
 20
205.0545654296875
 30
0.0
 10
98.85830688476563
 20
205.0545654296875
 30
0.0
 10
98.85830688476563
 20
205.0545654296875
 30
0.0
 10
107.2460327148437
 20
202.7249450683594
 30
0.0
 10
107.2460327148437
 20
202.7249450683594
 30
0.0
 10
107.2460327148437
 20
202.7249450683594
 30
0.0
 10
116.09716796875
 20
200.6636352539063
 30
0.0
 10
116.09716796875
 20
200.6636352539063
 30
0.0
 10
116.09716796875
 20
200.6636352539063
 30
0.0
 10
125.3616027832031
 20
198.8707275390625
 30
0.0
 10
125.3616027832031
 20
198.8707275390625
 30
0.0
 10
125.3616027832031
 20
198.8707275390625
 30
0.0
 10
134.9795227050781
 20
197.349365234375
 30
0.0
 10
134.9795227050781
 20
197.349365234375
 30
0.0
 10
134.9795227050781
 20
197.349365234375
 30
0.0
 10
136.8251647949219
 20
197.1169738769531
 30
0.0
 10
136.8251647949219
 20
197.1169738769531
 30
0.0
 10
136.8251647949219
 20
197.1169738769531
 30
0.0
 10
136.8251647949219
 20
28.06494140625
 30
0.0
 10
136.8251647949219
 20
28.06494140625
 30
0.0
 10
136.8251647949219
 20
28.06494140625
 30
0.0
 10
145.8212585449218
 20
28.06494140625
 30
0.0
 10
145.8212585449218
 20
28.06494140625
 30
0.0
 10
145.8212585449218
 20
28.06494140625
 30
0.0
 10
145.8207092285156
 20
196.0124206542968
 30
0.0
 10
145.8207092285156
 20
196.0124206542968
 30
0.0
 10
145.8207092285156
 20
196.0124206542968
 30
0.0
 10
155.0386047363281
 20
195.1291198730469
 30
0.0
 10
155.0386047363281
 20
195.1291198730469
 30
0.0
 10
155.0386047363281
 20
195.1291198730469
 30
0.0
 10
165.3616943359375
 20
194.4335327148437
 30
0.0
 10
165.3616943359375
 20
194.4335327148437
 30
0.0
 10
165.3616943359375
 20
194.4335327148437
 30
0.0
 10
175.802001953125
 20
194.0157775878906
 30
0.0
 10
175.802001953125
 20
194.0157775878906
 30
0.0
 10
175.802001953125
 20
194.0157775878906
 30
0.0
 10
186.3009643554687
 20
193.8765258789062
 30
0.0
 10
186.3009643554687
 20
193.8765258789062
 30
0.0
 10
186.3009643554687
 20
193.8765258789062
 30
0.0
 10
196.7998657226562
 20
194.0157775878906
 30
0.0
 10
196.7998657226562
 20
194.0157775878906
 30
0.0
 10
196.7998657226562
 20
194.0157775878906
 30
0.0
 10
207.2384033203125
 20
194.4317932128906
 30
0.0
 10
207.2384033203125
 20
194.4317932128906
 30
0.0
 10
207.2384033203125
 20
194.4317932128906
 30
0.0
 10
217.5551452636719
 20
195.1204223632812
 30
0.0
 10
217.5551452636719
 20
195.1204223632812
 30
0.0
 10
217.5551452636719
 20
195.1204223632812
 30
0.0
 10
226.7810668945312
 20
195.9946899414062
 30
0.0
 10
226.7810668945312
 20
195.9946899414062
 30
0.0
 10
226.7810668945312
 20
195.9946899414062
 30
0.0
 10
226.7811279296875
 20
28.0660400390625
 30
0.0
 10
226.7811279296875
 20
28.0660400390625
 30
0.0
 10
226.7811279296875
 20
28.0660400390625
 30
0.0
 10
235.7766723632813
 20
28.06552124023438
 30
0.0
 10
235.7766723632813
 20
28.06552124023438
 30
0.0
 10
235.7766723632813
 20
28.06552124023438
 30
0.0
 10
235.7766723632813
 20
197.0860900878906
 30
0.0
 10
235.7766723632813
 20
197.0860900878906
 30
0.0
 10
235.7766723632813
 20
197.0860900878906
 30
0.0
 10
237.5880737304687
 20
197.3112182617187
 30
0.0
 10
237.5880737304687
 20
197.3112182617187
 30
0.0
 10
237.5880737304687
 20
197.3112182617187
 30
0.0
 10
247.1861572265625
 20
198.8084106445312
 30
0.0
 10
247.1861572265625
 20
198.8084106445312
 30
0.0
 10
247.1861572265625
 20
198.8084106445312
 30
0.0
 10
256.4266357421875
 20
200.5710754394531
 30
0.0
 10
256.4266357421875
 20
200.5710754394531
 30
0.0
 10
256.4266357421875
 20
200.5710754394531
 30
0.0
 10
265.2504577636719
 20
202.5968933105469
 30
0.0
 10
265.2504577636719
 20
202.5968933105469
 30
0.0
 10
265.2504577636719
 20
202.5968933105469
 30
0.0
 10
273.6078491210938
 20
204.8861999511719
 30
0.0
 10
273.6078491210938
 20
204.8861999511719
 30
0.0
 10
273.6078491210938
 20
204.8861999511719
 30
0.0
 10
281.4891357421875
 20
207.4507141113281
 30
0.0
 10
281.4891357421875
 20
207.4507141113281
 30
0.0
 10
281.4891357421875
 20
207.4507141113281
 30
0.0
 10
288.894775390625
 20
210.3057250976562
 30
0.0
 10
288.894775390625
 20
210.3057250976562
 30
0.0
 10
288.894775390625
 20
210.3057250976562
 30
0.0
 10
295.8257446289063
 20
213.467041015625
 30
0.0
 10
295.8257446289063
 20
213.467041015625
 30
0.0
 10
295.8257446289063
 20
213.467041015625
 30
0.0
 10
302.2839660644531
 20
216.949951171875
 30
0.0
 10
302.2839660644531
 20
216.949951171875
 30
0.0
 10
302.2839660644531
 20
216.949951171875
 30
0.0
 10
308.0699768066406
 20
220.643798828125
 30
0.0
 10
308.0699768066406
 20
220.643798828125
 30
0.0
 10
308.0699768066406
 20
220.643798828125
 30
0.0
 10
308.2725219726563
 20
220.7734069824219
 30
0.0
 10
308.2725219726563
 20
220.7734069824219
 30
0.0
 10
308.2725219726563
 20
220.7734069824219
 30
0.0
 10
313.79248046875
 20
224.9608764648438
 30
0.0
 10
313.79248046875
 20
224.9608764648438
 30
0.0
 10
313.79248046875
 20
224.9608764648438
 30
0.0
 10
318.8570556640625
 20
229.5241088867188
 30
0.0
 10
318.8570556640625
 20
229.5241088867188
 30
0.0
 10
318.8570556640625
 20
229.5241088867188
 30
0.0
 10
323.4807739257813
 20
234.4847717285156
 30
0.0
 10
323.4807739257813
 20
234.4847717285156
 30
0.0
 10
323.4807739257813
 20
234.4847717285156
 30
0.0
 10
327.1182861328125
 20
239.1246948242188
 30
0.0
 10
327.1182861328125
 20
239.1246948242188
 30
0.0
 10
327.1182861328125
 20
239.1246948242188
 30
0.0
 10
327.688232421875
 20
239.8533935546875
 30
0.0
 10
327.688232421875
 20
239.8533935546875
 30
0.0
 10
327.688232421875
 20
239.8533935546875
 30
0.0
 10
331.4954223632812
 20
245.6374816894531
 30
0.0
 10
331.4954223632812
 20
245.6374816894531
 30
0.0
 10
331.4954223632812
 20
245.6374816894531
 30
0.0
 10
334.9317321777344
 20
251.8339233398438
 30
0.0
 10
334.9317321777344
 20
251.8339233398438
 30
0.0
 10
334.9317321777344
 20
251.8339233398438
 30
0.0
 10
338.0187072753906
 20
258.4418640136719
 30
0.0
 10
338.0187072753906
 20
258.4418640136719
 30
0.0
 10
338.0187072753906
 20
258.4418640136719
 30
0.0
 10
340.7746887207031
 20
265.4569702148438
 30
0.0
 10
340.7746887207031
 20
265.4569702148438
 30
0.0
 10
340.7746887207031
 20
265.4569702148438
 30
0.0
 10
343.2158813476562
 20
272.8649291992188
 30
0.0
 10
343.2158813476562
 20
272.8649291992188
 30
0.0
 10
343.2158813476562
 20
272.8649291992188
 30
0.0
 10
344.291259765625
 20
276.7179870605469
 30
0.0
 10
344.291259765625
 20
276.7179870605469
 30
0.0
 10
344.291259765625
 20
276.7179870605469
 30
0.0
 10
420.1863403320303
 20
276.7179870605469
 30
0.0
 10
420.1863403320303
 20
276.7179870605469
 30
0.0
 10
420.1863403320303
 20
276.7179870605469
 30
0.0
 10
420.1863403320303
 20
-128.0837097167968
 30
0.0
 10
420.1863403320303
 20
-128.0837097167968
 30
0.0
 10
420.1863403320303
 20
-128.0837097167968
 30
0.0
 10
-47.58453369140625
 20
-128.0837097167968
 30
0.0
 10
-47.58453369140625
 20
-128.0837097167968
 30
0.0
  0
SPLINE
  5
8A
330
79
100
AcDbEntity
  8
Layer 1
 62
    18
420
        0
370
    35
100
AcDbSpline
210
0.0
220
0.0
230
1.0
 70
    11
 71
     3
 72
    41
 73
    37
 74
     0
 42
0.0000000001
 43
0.0000000001
 40
0.0
 40
0.0
 40
0.0
 40
0.0
 40
1.0
 40
1.0
 40
1.0
 40
2.0
 40
2.0
 40
2.0
 40
3.0
 40
3.0
 40
3.0
 40
4.0
 40
4.0
 40
4.0
 40
5.0
 40
5.0
 40
5.0
 40
6.0
 40
6.0
 40
6.0
 40
7.0
 40
7.0
 40
7.0
 40
8.0
 40
8.0
 40
8.0
 40
9.0
 40
9.0
 40
9.0
 40
10.0
 40
10.0
 40
10.0
 40
11.0
 40
11.0
 40
11.0
 40
12.0
 40
12.0
 40
12.0
 40
12.0
 10
87.15975952148438
 20
218.6355895996094
 30
0.0
 10
87.15975952148438
 20
218.6355895996094
 30
0.0
 10
87.15975952148438
 20
308.5914916992188
 30
0.0
 10
87.15975952148438
 20
308.5914916992188
 30
0.0
 10
87.15975952148438
 20
308.5914916992188
 30
0.0
 10
136.635498046875
 20
308.5914916992188
 30
0.0
 10
136.635498046875
 20
308.5914916992188
 30
0.0
 10
136.635498046875
 20
308.5914916992188
 30
0.0
 10
136.635498046875
 20
263.613525390625
 30
0.0
 10
136.635498046875
 20
263.613525390625
 30
0.0
 10
136.635498046875
 20
263.613525390625
 30
0.0
 10
145.6310424804687
 20
263.613525390625
 30
0.0
 10
145.6310424804687
 20
263.613525390625
 30
0.0
 10
145.6310424804687
 20
263.613525390625
 30
0.0
 10
145.6310424804687
 20
308.5914916992188
 30
0.0
 10
145.6310424804687
 20
308.5914916992188
 30
0.0
 10
145.6310424804687
 20
308.5914916992188
 30
0.0
 10
226.5914306640625
 20
308.5914916992188
 30
0.0
 10
226.5914306640625
 20
308.5914916992188
 30
0.0
 10
226.5914306640625
 20
308.5914916992188
 30
0.0
 10
226.59130859375
 20
263.613525390625
 30
0.0
 10
226.59130859375
 20
263.613525390625
 30
0.0
 10
226.59130859375
 20
263.613525390625
 30
0.0
 10
235.5869750976562
 20
263.613525390625
 30
0.0
 10
235.5869750976562
 20
263.613525390625
 30
0.0
 10
235.5869750976562
 20
263.613525390625
 30
0.0
 10
235.5869750976562
 20
308.5914916992188
 30
0.0
 10
235.5869750976562
 20
308.5914916992188
 30
0.0
 10
235.5869750976562
 20
308.5914916992188
 30
0.0
 10
285.062744140625
 20
308.5914916992188
 30
0.0
 10
285.062744140625
 20
308.5914916992188
 30
0.0
 10
285.062744140625
 20
308.5914916992188
 30
0.0
 10
285.062744140625
 20
218.6355895996094
 30
0.0
 10
285.062744140625
 20
218.6355895996094
 30
0.0
 10
285.062744140625
 20
218.6355895996094
 30
0.0
 10
87.15975952148438
 20
218.6355895996094
 30
0.0
 10
87.15975952148438
 20
218.6355895996094
 30
0.0
  0
SPLINE
  5
8B
330
79
100
AcDbEntity
  8
Layer 1
 62
    18
420
        0
370
    35
100
AcDbSpline
210
0.0
220
0.0
230
1.0
 70
    11
 71
     3
 72
   188
 73
   184
 74
     0
 42
0.0000000001
 43
0.0000000001
 40
0.0
 40
0.0
 40
0.0
 40
0.0
 40
1.0
 40
1.0
 40
1.0
 40
2.0
 40
2.0
 40
2.0
 40
3.0
 40
3.0
 40
3.0
 40
4.0
 40
4.0
 40
4.0
 40
5.0
 40
5.0
 40
5.0
 40
6.0
 40
6.0
 40
6.0
 40
7.0
 40
7.0
 40
7.0
 40
8.0
 40
8.0
 40
8.0
 40
9.0
 40
9.0
 40
9.0
 40
10.0
 40
10.0
 40
10.0
 40
11.0
 40
11.0
 40
11.0
 40
12.0
 40
12.0
 40
12.0
 40
13.0
 40
13.0
 40
13.0
 40
14.0
 40
14.0
 40
14.0
 40
15.0
 40
15.0
 40
15.0
 40
16.0
 40
16.0
 40
16.0
 40
17.0
 40
17.0
 40
17.0
 40
18.0
 40
18.0
 40
18.0
 40
19.0
 40
19.0
 40
19.0
 40
20.0
 40
20.0
 40
20.0
 40
21.0
 40
21.0
 40
21.0
 40
22.0
 40
22.0
 40
22.0
 40
23.0
 40
23.0
 40
23.0
 40
24.0
 40
24.0
 40
24.0
 40
25.0
 40
25.0
 40
25.0
 40
26.0
 40
26.0
 40
26.0
 40
27.0
 40
27.0
 40
27.0
 40
28.0
 40
28.0
 40
28.0
 40
29.0
 40
29.0
 40
29.0
 40
30.0
 40
30.0
 40
30.0
 40
31.0
 40
31.0
 40
31.0
 40
32.0
 40
32.0
 40
32.0
 40
33.0
 40
33.0
 40
33.0
 40
34.0
 40
34.0
 40
34.0
 40
35.0
 40
35.0
 40
35.0
 40
36.0
 40
36.0
 40
36.0
 40
37.0
 40
37.0
 40
37.0
 40
38.0
 40
38.0
 40
38.0
 40
39.0
 40
39.0
 40
39.0
 40
40.0
 40
40.0
 40
40.0
 40
41.0
 40
41.0
 40
41.0
 40
42.0
 40
42.0
 40
42.0
 40
43.0
 40
43.0
 40
43.0
 40
44.0
 40
44.0
 40
44.0
 40
45.0
 40
45.0
 40
45.0
 40
46.0
 40
46.0
 40
46.0
 40
47.0
 40
47.0
 40
47.0
 40
48.0
 40
48.0
 40
48.0
 40
49.0
 40
49.0
 40
49.0
 40
50.0
 40
50.0
 40
50.0
 40
51.0
 40
51.0
 40
51.0
 40
52.0
 40
52.0
 40
52.0
 40
53.0
 40
53.0
 40
53.0
 40
54.0
 40
54.0
 40
54.0
 40
55.0
 40
55.0
 40
55.0
 40
56.0
 40
56.0
 40
56.0
 40
57.0
 40
57.0
 40
57.0
 40
58.0
 40
58.0
 40
58.0
 40
59.0
 40
59.0
 40
59.0
 40
60.0
 40
60.0
 40
60.0
 40
61.0
 40
61.0
 40
61.0
 40
61.0
 10
707.5670776367187
 20
-72.88400268554688
 30
0.0
 10
707.5670776367187
 20
-72.88400268554688
 30
0.0
 10
698.5715942382812
 20
-73.52206420898437
 30
0.0
 10
698.5715942382812
 20
-73.52206420898437
 30
0.0
 10
698.5715942382812
 20
-73.52206420898437
 30
0.0
 10
698.5715942382812
 20
-128.4708251953125
 30
0.0
 10
698.5715942382812
 20
-128.4708251953125
 30
0.0
 10
698.5715942382812
 20
-128.4708251953125
 30
0.0
 10
617.6111450195312
 20
-128.4708251953125
 30
0.0
 10
617.6111450195312
 20
-128.4708251953125
 30
0.0
 10
617.6111450195312
 20
-128.4708251953125
 30
0.0
 10
617.6111450195312
 20
-73.52206420898437
 30
0.0
 10
617.6111450195312
 20
-73.52206420898437
 30
0.0
 10
617.6111450195312
 20
-73.52206420898437
 30
0.0
 10
608.6155395507812
 20
-72.88400268554688
 30
0.0
 10
608.6155395507812
 20
-72.88400268554688
 30
0.0
 10
608.6155395507812
 20
-72.88400268554688
 30
0.0
 10
608.6155395507812
 20
-128.4708251953125
 30
0.0
 10
608.6155395507812
 20
-128.4708251953125
 30
0.0
 10
608.6155395507812
 20
-128.4708251953125
 30
0.0
 10
424.2058715820312
 20
-128.4708251953125
 30
0.0
 10
424.2058715820312
 20
-128.4708251953125
 30
0.0
 10
424.2058715820312
 20
-128.4708251953125
 30
0.0
 10
424.2058715820312
 20
73.92999267578125
 30
0.0
 10
424.2058715820312
 20
73.92999267578125
 30
0.0
 10
424.2058715820312
 20
73.92999267578125
 30
0.0
 10
488.7669677734375
 20
73.92999267578125
 30
0.0
 10
488.7669677734375
 20
73.92999267578125
 30
0.0
 10
488.7669677734375
 20
73.92999267578125
 30
0.0
 10
490.658203125
 20
67.941162109375
 30
0.0
 10
490.658203125
 20
67.941162109375
 30
0.0
 10
490.658203125
 20
67.941162109375
 30
0.0
 10
493.4923706054687
 20
60.54498291015625
 30
0.0
 10
493.4923706054687
 20
60.54498291015625
 30
0.0
 10
493.4923706054687
 20
60.54498291015625
 30
0.0
 10
496.7510986328124
 20
53.39620971679687
 30
0.0
 10
496.7510986328124
 20
53.39620971679687
 30
0.0
 10
496.7510986328124
 20
53.39620971679687
 30
0.0
 10
500.434814453125
 20
46.51022338867187
 30
0.0
 10
500.434814453125
 20
46.51022338867187
 30
0.0
 10
500.434814453125
 20
46.51022338867187
 30
0.0
 10
504.5421142578125
 20
39.90545654296875
 30
0.0
 10
504.5421142578125
 20
39.90545654296875
 30
0.0
 10
504.5421142578125
 20
39.90545654296875
 30
0.0
 10
509.0761108398437
 20
33.59902954101563
 30
0.0
 10
509.0761108398437
 20
33.59902954101563
 30
0.0
 10
509.0761108398437
 20
33.59902954101563
 30
0.0
 10
514.0371704101562
 20
27.60745239257813
 30
0.0
 10
514.0371704101562
 20
27.60745239257813
 30
0.0
 10
514.0371704101562
 20
27.60745239257813
 30
0.0
 10
519.4251098632812
 20
21.95083618164062
 30
0.0
 10
519.4251098632812
 20
21.95083618164062
 30
0.0
 10
519.4251098632812
 20
21.95083618164062
 30
0.0
 10
525.23681640625
 20
16.645751953125
 30
0.0
 10
525.23681640625
 20
16.645751953125
 30
0.0
 10
525.23681640625
 20
16.645751953125
 30
0.0
 10
531.4621582031249
 20
11.70840454101562
 30
0.0
 10
531.4621582031249
 20
11.70840454101562
 30
0.0
 10
531.4621582031249
 20
11.70840454101562
 30
0.0
 10
538.099609375
 20
7.137725830078125
 30
0.0
 10
538.099609375
 20
7.137725830078125
 30
0.0
 10
538.099609375
 20
7.137725830078125
 30
0.0
 10
545.1513671875
 20
2.9268798828125
 30
0.0
 10
545.1513671875
 20
2.9268798828125
 30
0.0
 10
545.1513671875
 20
2.9268798828125
 30
0.0
 10
552.6195678710937
 20
-0.93084716796875
 30
0.0
 10
552.6195678710937
 20
-0.93084716796875
 30
0.0
 10
552.6195678710937
 20
-0.93084716796875
 30
0.0
 10
560.5062255859374
 20
-4.4422607421875
 30
0.0
 10
560.5062255859374
 20
-4.4422607421875
 30
0.0
 10
560.5062255859374
 20
-4.4422607421875
 30
0.0
 10
568.8118286132812
 20
-7.612030029296875
 30
0.0
 10
568.8118286132812
 20
-7.612030029296875
 30
0.0
 10
568.8118286132812
 20
-7.612030029296875
 30
0.0
 10
577.5368652343749
 20
-10.44003295898437
 30
0.0
 10
577.5368652343749
 20
-10.44003295898437
 30
0.0
 10
577.5368652343749
 20
-10.44003295898437
 30
0.0
 10
586.6736450195312
 20
-12.93133544921875
 30
0.0
 10
586.6736450195312
 20
-12.93133544921875
 30
0.0
 10
586.6736450195312
 20
-12.93133544921875
 30
0.0
 10
596.1787719726562
 20
-15.0877685546875
 30
0.0
 10
596.1787719726562
 20
-15.0877685546875
 30
0.0
 10
596.1787719726562
 20
-15.0877685546875
 30
0.0
 10
606.0032348632812
 20
-16.9111328125
 30
0.0
 10
606.0032348632812
 20
-16.9111328125
 30
0.0
 10
606.0032348632812
 20
-16.9111328125
 30
0.0
 10
616.0970458984374
 20
-18.40286254882812
 30
0.0
 10
616.0970458984374
 20
-18.40286254882812
 30
0.0
 10
616.0970458984374
 20
-18.40286254882812
 30
0.0
 10
626.4067382812499
 20
-19.56320190429687
 30
0.0
 10
626.4067382812499
 20
-19.56320190429687
 30
0.0
 10
626.4067382812499
 20
-19.56320190429687
 30
0.0
 10
636.8783569335938
 20
-20.39190673828125
 30
0.0
 10
636.8783569335938
 20
-20.39190673828125
 30
0.0
 10
636.8783569335938
 20
-20.39190673828125
 30
0.0
 10
647.4578857421875
 20
-20.88916015625
 30
0.0
 10
647.4578857421875
 20
-20.88916015625
 30
0.0
 10
647.4578857421875
 20
-20.88916015625
 30
0.0
 10
658.0914306640624
 20
-21.05487060546875
 30
0.0
 10
658.0914306640624
 20
-21.05487060546875
 30
0.0
 10
658.0914306640624
 20
-21.05487060546875
 30
0.0
 10
668.724853515625
 20
-20.88916015625
 30
0.0
 10
668.724853515625
 20
-20.88916015625
 30
0.0
 10
668.724853515625
 20
-20.88916015625
 30
0.0
 10
679.3042602539062
 20
-20.39190673828125
 30
0.0
 10
679.3042602539062
 20
-20.39190673828125
 30
0.0
 10
679.3042602539062
 20
-20.39190673828125
 30
0.0
 10
689.7759399414062
 20
-19.56320190429687
 30
0.0
 10
689.7759399414062
 20
-19.56320190429687
 30
0.0
 10
689.7759399414062
 20
-19.56320190429687
 30
0.0
 10
700.0856323242187
 20
-18.40286254882812
 30
0.0
 10
700.0856323242187
 20
-18.40286254882812
 30
0.0
 10
700.0856323242187
 20
-18.40286254882812
 30
0.0
 10
710.1795043945312
 20
-16.9111328125
 30
0.0
 10
710.1795043945312
 20
-16.9111328125
 30
0.0
 10
710.1795043945312
 20
-16.9111328125
 30
0.0
 10
720.0037231445312
 20
-15.08782958984375
 30
0.0
 10
720.0037231445312
 20
-15.08782958984375
 30
0.0
 10
720.0037231445312
 20
-15.08782958984375
 30
0.0
 10
729.5042114257812
 20
-12.93310546875
 30
0.0
 10
729.5042114257812
 20
-12.93310546875
 30
0.0
 10
729.5042114257812
 20
-12.93310546875
 30
0.0
 10
738.6268920898437
 20
-10.44683837890625
 30
0.0
 10
738.6268920898437
 20
-10.44683837890625
 30
0.0
 10
738.6268920898437
 20
-10.44683837890625
 30
0.0
 10
747.3275756835938
 20
-7.627593994140625
 30
0.0
 10
747.3275756835938
 20
-7.627593994140625
 30
0.0
 10
747.3275756835938
 20
-7.627593994140625
 30
0.0
 10
755.6005249023437
 20
-4.468231201171875
 30
0.0
 10
755.6005249023437
 20
-4.468231201171875
 30
0.0
 10
755.6005249023437
 20
-4.468231201171875
 30
0.0
 10
763.4492797851562
 20
-0.959991455078125
 30
0.0
 10
763.4492797851562
 20
-0.959991455078125
 30
0.0
 10
763.4492797851562
 20
-0.959991455078125
 30
0.0
 10
770.8776245117187
 20
2.906036376953125
 30
0.0
 10
770.8776245117187
 20
2.906036376953125
 30
0.0
 10
770.8776245117187
 20
2.906036376953125
 30
0.0
 10
777.8895874023437
 20
7.1385498046875
 30
0.0
 10
777.8895874023437
 20
7.1385498046875
 30
0.0
 10
777.8895874023437
 20
7.1385498046875
 30
0.0
 10
784.4887084960937
 20
11.74624633789062
 30
0.0
 10
784.4887084960937
 20
11.74624633789062
 30
0.0
 10
784.4887084960937
 20
11.74624633789062
 30
0.0
 10
790.6787719726562
 20
16.73779296875
 30
0.0
 10
790.6787719726562
 20
16.73779296875
 30
0.0
 10
790.6787719726562
 20
16.73779296875
 30
0.0
 10
796.4628295898437
 20
22.12057495117187
 30
0.0
 10
796.4628295898437
 20
22.12057495117187
 30
0.0
 10
796.4628295898437
 20
22.12057495117187
 30
0.0
 10
801.8356323242187
 20
27.88613891601563
 30
0.0
 10
801.8356323242187
 20
27.88613891601563
 30
0.0
 10
801.8356323242187
 20
27.88613891601563
 30
0.0
 10
806.7993774414063
 20
34.02984619140625
 30
0.0
 10
806.7993774414063
 20
34.02984619140625
 30
0.0
 10
806.7993774414063
 20
34.02984619140625
 30
0.0
 10
811.3594360351562
 20
40.55133056640625
 30
0.0
 10
811.3594360351562
 20
40.55133056640625
 30
0.0
 10
811.3594360351562
 20
40.55133056640625
 30
0.0
 10
815.5127563476563
 20
47.4368896484375
 30
0.0
 10
815.5127563476563
 20
47.4368896484375
 30
0.0
 10
815.5127563476563
 20
47.4368896484375
 30
0.0
 10
819.2510375976562
 20
54.66207885742187
 30
0.0
 10
819.2510375976562
 20
54.66207885742187
 30
0.0
 10
819.2510375976562
 20
54.66207885742187
 30
0.0
 10
822.5718383789063
 20
62.21237182617187
 30
0.0
 10
822.5718383789063
 20
62.21237182617187
 30
0.0
 10
822.5718383789063
 20
62.21237182617187
 30
0.0
 10
825.4647827148437
 20
70.0504150390625
 30
0.0
 10
825.4647827148437
 20
70.0504150390625
 30
0.0
 10
825.4647827148437
 20
70.0504150390625
 30
0.0
 10
826.6371459960938
 20
73.92999267578125
 30
0.0
 10
826.6371459960938
 20
73.92999267578125
 30
0.0
 10
826.6371459960938
 20
73.92999267578125
 30
0.0
 10
891.9769287109375
 20
73.92999267578125
 30
0.0
 10
891.9769287109375
 20
73.92999267578125
 30
0.0
 10
891.9769287109375
 20
73.92999267578125
 30
0.0
 10
891.9769287109375
 20
-128.4708251953125
 30
0.0
 10
891.9769287109375
 20
-128.4708251953125
 30
0.0
 10
891.9769287109375
 20
-128.4708251953125
 30
0.0
 10
707.5670776367187
 20
-128.4708251953125
 30
0.0
 10
707.5670776367187
 20
-128.4708251953125
 30
0.0
 10
707.5670776367187
 20
-128.4708251953125
 30
0.0
 10
707.5670776367187
 20
-72.88400268554688
 30
0.0
 10
707.5670776367187
 20
-72.88400268554688
 30
0.0
  0
ENDBLK
  5
7C
330
79
100
AcDbEntity
  8
0
100
AcDbBlockEnd
  0
ENDSEC
  0
SECTION
  2
ENTITIES
  0
INSERT
  5
7A
330
70
100
AcDbEntity
  8
Layer 1
100
AcDbBlockReference
  2
Block_0
 10
0.0
 20
0.0
 30
0.0
  0
ENDSEC
  0
SECTION
  2
OBJECTS
  0
DICTIONARY
  5
C
330
0
100
AcDbDictionary
281
     1
  3
ACAD_COLOR
350
63
  3
ACAD_DETAILVIEWSTYLE
350
6A
  3
ACAD_GROUP
350
D
  3
ACAD_LAYOUT
350
62
  3
ACAD_MATERIAL
350
10
  3
ACAD_MLEADERSTYLE
350
66
  3
ACAD_MLINESTYLE
350
5F
  3
ACAD_PLOTSETTINGS
350
61
  3
ACAD_PLOTSTYLENAME
350
E
  3
ACAD_SCALELIST
350
42
  3
ACAD_SECTIONVIEWSTYLE
350
68
  3
ACAD_TABLESTYLE
350
64
  3
ACAD_VISUALSTYLE
350
29
  3
ACDB_RECOMPOSE_DATA
350
94
  3
AcDbVariableDictionary
350
8C
  0
DICTIONARY
  5
63
102
{ACAD_REACTORS
330
C
102
}
330
C
100
AcDbDictionary
281
     1
  0
DICTIONARY
  5
6A
102
{ACAD_REACTORS
330
C
102
}
330
C
100
AcDbDictionary
281
     1
  3
Imperial24
350
6B
  0
DICTIONARY
  5
D
102
{ACAD_REACTORS
330
C
102
}
330
C
100
AcDbDictionary
281
     1
  0
DICTIONARY
  5
62
102
{ACAD_REACTORS
330
C
102
}
330
C
100
AcDbDictionary
281
     1
  3
Layout1
350
6F
  3
Layout2
350
77
  3
Model
350
73
  0
DICTIONARY
  5
10
102
{ACAD_REACTORS
330
C
102
}
330
C
100
AcDbDictionary
281
     1
  3
ByBlock
350
19
  3
ByLayer
350
11
  3
Global
350
21
  0
DICTIONARY
  5
66
102
{ACAD_REACTORS
330
C
102
}
330
C
100
AcDbDictionary
281
     1
  3
Standard
350
67
  0
DICTIONARY
  5
5F
102
{ACAD_REACTORS
330
C
102
}
330
C
100
AcDbDictionary
281
     1
  3
Standard
350
60
  0
DICTIONARY
  5
61
102
{ACAD_REACTORS
330
C
102
}
330
C
100
AcDbDictionary
281
     1
  0
ACDBDICTIONARYWDFLT
  5
E
102
{ACAD_REACTORS
330
C
102
}
330
C
100
AcDbDictionary
281
     1
  3
Normal
350
F
100
AcDbDictionaryWithDefault
340
F
  0
DICTIONARY
  5
42
102
{ACAD_REACTORS
330
C
102
}
330
C
100
AcDbDictionary
281
     1
  3
A0
350
43
  3
A1
350
44
  3
A2
350
45
  3
A3
350
46
  3
A4
350
47
  3
A5
350
48
  3
A6
350
49
  3
A7
350
4A
  3
A8
350
4B
  3
A9
350
4C
  3
B0
350
4D
  3
B1
350
4E
  3
B2
350
4F
  3
B3
350
50
  3
B4
350
51
  3
B5
350
52
  3
B6
350
53
  0
DICTIONARY
  5
68
102
{ACAD_REACTORS
330
C
102
}
330
C
100
AcDbDictionary
281
     1
  3
Imperial24
350
69
  0
DICTIONARY
  5
64
102
{ACAD_REACTORS
330
C
102
}
330
C
100
AcDbDictionary
281
     1
  3
Standard
350
65
  0
DICTIONARY
  5
29
102
{ACAD_REACTORS
330
C
102
}
330
C
100
AcDbDictionary
281
     1
  3
2dWireframe
350
2F
  3
Basic
350
2E
  3
Brighten
350
35
  3
ColorChange
350
39
  3
Conceptual
350
32
  3
Dim
350
34
  3
EdgeColorOff
350
41
  3
Facepattern
350
38
  3
Flat
350
2A
  3
FlatWithEdges
350
2B
  3
Gouraud
350
2C
  3
GouraudWithEdges
350
2D
  3
Hidden
350
31
  3
JitterOff
350
3F
  3
Linepattern
350
37
  3
OverhangOff
350
40
  3
Realistic
350
33
  3
Shaded
350
3E
  3
Shaded with edges
350
3D
  3
Shades of Gray
350
3A
  3
Sketchy
350
3B
  3
Thicken
350
36
  3
Wireframe
350
30
  3
X-Ray
350
3C
  0
XRECORD
  5
94
102
{ACAD_REACTORS
330
C
102
}
330
C
100
AcDbXrecord
280
     1
 90
        1
330
65
  0
DICTIONARY
  5
8C
102
{ACAD_REACTORS
330
C
102
}
330
C
100
AcDbDictionary
281
     1
  3
CANNOSCALE
350
91
  3
CMLEADERSTYLE
350
8E
  3
CTABLESTYLE
350
8D
  3
CVIEWDETAILSTYLE
350
8F
  3
CVIEWSECTIONSTYLE
350
90
  0
ACDBDETAILVIEWSTYLE
  5
6B
102
{ACAD_REACTORS
330
6A
102
}
330
6A
100
AcDbModelDocViewStyle
 70
     0
  3
Imperial24
290
     1
300
Imperial24
 90
        0
100
AcDbDetailViewStyle
 70
     0
 71
     0
 90
        3
 71
     1
340
55
 62
   256
 40
0.24
340
0
 62
   256
 40
0.24
300

 40
0.36
280
     3
 71
     2
340
5D
 90
       25
 62
   256
 71
     3
340
55
 62
   256
 40
0.24
 90
        1
 40
0.75
 90
        1
300
%<\AcVar ViewType \f "%tc1">% %<\AcVar ViewDetailId>%\PSCALE %<\AcVar ViewScale \f "%sn">%
 71
     4
340
5D
 90
       25
 62
   256
340
5D
 90
       25
 62
   256
280
     0
  0
LAYOUT
  5
6F
102
{ACAD_REACTORS
330
62
102
}
330
62
100
AcDbPlotSettings
  1

  2

  4

  6

 40
0.0
 41
0.0
 42
0.0
 43
0.0
 44
0.0
 45
0.0
 46
0.0
 47
0.0
 48
0.0
 49
0.0
140
0.0
141
0.0
142
1.0
143
1.0
 70
   688
 72
     0
 73
     0
 74
     5
  7

 75
    16
147
1.0
 76
     0
 77
     2
 78
   300
148
0.0
149
0.0
100
AcDbLayout
  1
Layout1
 70
     1
 71
     1
 10
0.0
 20
0.0
 11
12.0
 21
9.0
 12
0.0
 22
0.0
 32
0.0
 14
0.0
 24
0.0
 34
0.0
 15
0.0
 25
0.0
 35
0.0
146
0.0
 13
0.0
 23
0.0
 33
0.0
 16
1.0
 26
0.0
 36
0.0
 17
0.0
 27
1.0
 37
0.0
 76
     0
330
6C
  0
LAYOUT
  5
77
102
{ACAD_REACTORS
330
62
102
}
330
62
100
AcDbPlotSettings
  1

  2

  4

  6

 40
0.0
 41
0.0
 42
0.0
 43
0.0
 44
0.0
 45
0.0
 46
0.0
 47
0.0
 48
0.0
 49
0.0
140
0.0
141
0.0
142
1.0
143
1.0
 70
   688
 72
     0
 73
     0
 74
     5
  7

 75
    16
147
1.0
 76
     0
 77
     2
 78
   300
148
0.0
149
0.0
100
AcDbLayout
  1
Layout2
 70
     1
 71
     2
 10
0.0
 20
0.0
 11
12.0
 21
9.0
 12
0.0
 22
0.0
 32
0.0
 14
0.0
 24
0.0
 34
0.0
 15
0.0
 25
0.0
 35
0.0
146
0.0
 13
0.0
 23
0.0
 33
0.0
 16
1.0
 26
0.0
 36
0.0
 17
0.0
 27
1.0
 37
0.0
 76
     0
330
74
  0
LAYOUT
  5
73
102
{ACAD_REACTORS
330
62
102
}
330
62
100
AcDbPlotSettings
  1

  2

  4

  6

 40
0.0
 41
0.0
 42
0.0
 43
0.0
 44
0.0
 45
0.0
 46
0.0
 47
0.0
 48
0.0
 49
0.0
140
0.0
141
0.0
142
1.0
143
1.0
 70
  1712
 72
     0
 73
     0
 74
     0
  7

 75
     0
147
1.0
 76
     0
 77
     2
 78
   300
148
0.0
149
0.0
100
AcDbLayout
  1
Model
 70
     1
 71
     0
 10
0.0
 20
0.0
 11
12.0
 21
9.0
 12
0.0
 22
0.0
 32
0.0
 14
0.0
 24
0.0
 34
0.0
 15
0.0
 25
0.0
 35
0.0
146
0.0
 13
0.0
 23
0.0
 33
0.0
 16
1.0
 26
0.0
 36
0.0
 17
0.0
 27
1.0
 37
0.0
 76
     0
330
70
  0
MATERIAL
  5
19
102
{ACAD_XDICTIONARY
360
1A
102
}
102
{ACAD_REACTORS
330
10
102
}
330
10
100
AcDbMaterial
  1
ByBlock
 72
     0
 43
0.0208333333333333
 43
0.0
 43
0.0
 43
0.0
 43
0.0
 43
0.0208333333333333
 43
0.0
 43
0.0
 43
0.0
 43
0.0
 43
1.0
 43
0.0
 43
0.0
 43
0.0
 43
0.0
 43
1.0
 77
     0
 47
0.0208333333333333
 47
0.0
 47
0.0
 47
0.0
 47
0.0
 47
0.0208333333333333
 47
0.0
 47
0.0
 47
0.0
 47
0.0
 47
1.0
 47
0.0
 47
0.0
 47
0.0
 47
0.0
 47
1.0
171
     0
 49
0.0208333333333333
 49
0.0
 49
0.0
 49
0.0
 49
0.0
 49
0.0208333333333333
 49
0.0
 49
0.0
 49
0.0
 49
0.0
 49
1.0
 49
0.0
 49
0.0
 49
0.0
 49
0.0
 49
1.0
175
     0
142
0.0208333333333333
142
0.0
142
0.0
142
0.0
142
0.0
142
0.0208333333333333
142
0.0
142
0.0
142
0.0
142
0.0
142
1.0
142
0.0
142
0.0
142
0.0
142
0.0
142
1.0
179
     0
144
0.0208333333333333
144
0.0
144
0.0
144
0.0
144
0.0
144
0.0208333333333333
144
0.0
144
0.0
144
0.0
144
0.0
144
1.0
144
0.0
144
0.0
144
0.0
144
0.0
144
1.0
147
0.0208333333333333
147
0.0
147
0.0
147
0.0
147
0.0
147
0.0208333333333333
147
0.0
147
0.0
147
0.0
147
0.0
147
1.0
147
0.0
147
0.0
147
0.0
147
0.0
147
1.0
  0
MATERIAL
  5
11
102
{ACAD_XDICTIONARY
360
12
102
}
102
{ACAD_REACTORS
330
10
102
}
330
10
100
AcDbMaterial
  1
ByLayer
 72
     0
 43
0.0208333333333333
 43
0.0
 43
0.0
 43
0.0
 43
0.0
 43
0.0208333333333333
 43
0.0
 43
0.0
 43
0.0
 43
0.0
 43
1.0
 43
0.0
 43
0.0
 43
0.0
 43
0.0
 43
1.0
 77
     0
 47
0.0208333333333333
 47
0.0
 47
0.0
 47
0.0
 47
0.0
 47
0.0208333333333333
 47
0.0
 47
0.0
 47
0.0
 47
0.0
 47
1.0
 47
0.0
 47
0.0
 47
0.0
 47
0.0
 47
1.0
171
     0
 49
0.0208333333333333
 49
0.0
 49
0.0
 49
0.0
 49
0.0
 49
0.0208333333333333
 49
0.0
 49
0.0
 49
0.0
 49
0.0
 49
1.0
 49
0.0
 49
0.0
 49
0.0
 49
0.0
 49
1.0
175
     0
142
0.0208333333333333
142
0.0
142
0.0
142
0.0
142
0.0
142
0.0208333333333333
142
0.0
142
0.0
142
0.0
142
0.0
142
1.0
142
0.0
142
0.0
142
0.0
142
0.0
142
1.0
179
     0
144
0.0208333333333333
144
0.0
144
0.0
144
0.0
144
0.0
144
0.0208333333333333
144
0.0
144
0.0
144
0.0
144
0.0
144
1.0
144
0.0
144
0.0
144
0.0
144
0.0
144
1.0
147
0.0208333333333333
147
0.0
147
0.0
147
0.0
147
0.0
147
0.0208333333333333
147
0.0
147
0.0
147
0.0
147
0.0
147
1.0
147
0.0
147
0.0
147
0.0
147
0.0
147
1.0
  0
MATERIAL
  5
21
102
{ACAD_XDICTIONARY
360
22
102
}
102
{ACAD_REACTORS
330
10
102
}
330
10
100
AcDbMaterial
  1
Global
 72
     0
 43
0.0208333333333333
 43
0.0
 43
0.0
 43
0.0
 43
0.0
 43
0.0208333333333333
 43
0.0
 43
0.0
 43
0.0
 43
0.0
 43
1.0
 43
0.0
 43
0.0
 43
0.0
 43
0.0
 43
1.0
 77
     0
 47
0.0208333333333333
 47
0.0
 47
0.0
 47
0.0
 47
0.0
 47
0.0208333333333333
 47
0.0
 47
0.0
 47
0.0
 47
0.0
 47
1.0
 47
0.0
 47
0.0
 47
0.0
 47
0.0
 47
1.0
171
     0
 49
0.0208333333333333
 49
0.0
 49
0.0
 49
0.0
 49
0.0
 49
0.0208333333333333
 49
0.0
 49
0.0
 49
0.0
 49
0.0
 49
1.0
 49
0.0
 49
0.0
 49
0.0
 49
0.0
 49
1.0
175
     0
142
0.0208333333333333
142
0.0
142
0.0
142
0.0
142
0.0
142
0.0208333333333333
142
0.0
142
0.0
142
0.0
142
0.0
142
1.0
142
0.0
142
0.0
142
0.0
142
0.0
142
1.0
179
     0
144
0.0208333333333333
144
0.0
144
0.0
144
0.0
144
0.0
144
0.0208333333333333
144
0.0
144
0.0
144
0.0
144
0.0
144
1.0
144
0.0
144
0.0
144
0.0
144
0.0
144
1.0
147
0.0208333333333333
147
0.0
147
0.0
147
0.0
147
0.0
147
0.0208333333333333
147
0.0
147
0.0
147
0.0
147
0.0
147
1.0
147
0.0
147
0.0
147
0.0
147
0.0
147
1.0
  0
MLEADERSTYLE
  5
67
102
{ACAD_REACTORS
330
66
102
}
330
66
100
AcDbMLeaderStyle
179
     2
170
     2
171
     1
172
     0
 90
        2
 40
0.0
 41
0.0
173
     1
 91
-1056964608
340
5B
 92
       -2
290
     1
 42
0.09
291
     1
 43
0.36
  3
Standard
 44
0.18
300

342
55
174
     1
178
     6
175
     1
176
     0
 93
-1056964608
 45
0.18
292
     0
297
     0
 46
0.18
 94
-1056964608
 47
1.0
 49
1.0
140
1.0
293
     1
141
0.0
294
     1
177
     0
142
1.0
295
     1
296
     0
143
0.125
271
     0
272
     9
273
     9
298
     1
  0
MLINESTYLE
  5
60
102
{ACAD_REACTORS
330
5F
102
}
330
5F
100
AcDbMlineStyle
  2
STANDARD
 70
     0
  3

 62
   256
 51
90.0
 52
90.0
 71
     2
 49
0.5
 62
   256
  6
BYLAYER
 49
-0.5
 62
   256
  6
BYLAYER
  0
ACDBPLACEHOLDER
  5
F
102
{ACAD_REACTORS
330
E
102
}
330
E
  0
SCALE
  5
43
102
{ACAD_REACTORS
330
42
102
}
330
42
100
AcDbScale
 70
     0
300
1:1
140
1.0
141
1.0
290
     1
  0
SCALE
  5
44
102
{ACAD_REACTORS
330
42
102
}
330
42
100
AcDbScale
 70
     0
300
1/128" = 1'-0"
140
0.0078125
141
12.0
290
     0
  0
SCALE
  5
45
102
{ACAD_REACTORS
330
42
102
}
330
42
100
AcDbScale
 70
     0
300
1/64" = 1'-0"
140
0.015625
141
12.0
290
     0
  0
SCALE
  5
46
102
{ACAD_REACTORS
330
42
102
}
330
42
100
AcDbScale
 70
     0
300
1/32" = 1'-0"
140
0.03125
141
12.0
290
     0
  0
SCALE
  5
47
102
{ACAD_REACTORS
330
42
102
}
330
42
100
AcDbScale
 70
     0
300
1/16" = 1'-0"
140
0.0625
141
12.0
290
     0
  0
SCALE
  5
48
102
{ACAD_REACTORS
330
42
102
}
330
42
100
AcDbScale
 70
     0
300
3/32" = 1'-0"
140
0.09375
141
12.0
290
     0
  0
SCALE
  5
49
102
{ACAD_REACTORS
330
42
102
}
330
42
100
AcDbScale
 70
     0
300
1/8" = 1'-0"
140
0.125
141
12.0
290
     0
  0
SCALE
  5
4A
102
{ACAD_REACTORS
330
42
102
}
330
42
100
AcDbScale
 70
     0
300
3/16" = 1'-0"
140
0.1875
141
12.0
290
     0
  0
SCALE
  5
4B
102
{ACAD_REACTORS
330
42
102
}
330
42
100
AcDbScale
 70
     0
300
1/4" = 1'-0"
140
0.25
141
12.0
290
     0
  0
SCALE
  5
4C
102
{ACAD_REACTORS
330
42
102
}
330
42
100
AcDbScale
 70
     0
300
3/8" = 1'-0"
140
0.375
141
12.0
290
     0
  0
SCALE
  5
4D
102
{ACAD_REACTORS
330
42
102
}
330
42
100
AcDbScale
 70
     0
300
1/2" = 1'-0"
140
0.5
141
12.0
290
     0
  0
SCALE
  5
4E
102
{ACAD_REACTORS
330
42
102
}
330
42
100
AcDbScale
 70
     0
300
3/4" = 1'-0"
140
0.75
141
12.0
290
     0
  0
SCALE
  5
4F
102
{ACAD_REACTORS
330
42
102
}
330
42
100
AcDbScale
 70
     0
300
1" = 1'-0"
140
1.0
141
12.0
290
     0
  0
SCALE
  5
50
102
{ACAD_REACTORS
330
42
102
}
330
42
100
AcDbScale
 70
     0
300
1-1/2" = 1'-0"
140
1.5
141
12.0
290
     0
  0
SCALE
  5
51
102
{ACAD_REACTORS
330
42
102
}
330
42
100
AcDbScale
 70
     0
300
3" = 1'-0"
140
3.0
141
12.0
290
     0
  0
SCALE
  5
52
102
{ACAD_REACTORS
330
42
102
}
330
42
100
AcDbScale
 70
     0
300
6" = 1'-0"
140
6.0
141
12.0
290
     0
  0
SCALE
  5
53
102
{ACAD_REACTORS
330
42
102
}
330
42
100
AcDbScale
 70
     0
300
1'-0" = 1'-0"
140
12.0
141
12.0
290
     0
  0
ACDBSECTIONVIEWSTYLE
  5
69
102
{ACAD_REACTORS
330
68
102
}
330
68
100
AcDbModelDocViewStyle
 70
     0
  3
Imperial24
290
     1
300
Imperial24
 90
        0
100
AcDbSectionViewStyle
 70
     0
 71
     0
 90
       78
 71
     1
340
55
 62
   256
 40
0.24
340
0
340
0
 62
   256
 40
0.24
300
I, O, Q, S, X, Z
 40
0.48
 90
        3
 40
0.18
 90
        1
 71
     2
340
5D
 90
       25
 62
   256
340
5D
 90
       50
 62
   256
 40
0.24
 40
0.0
 40
0.24
 71
     3
340
55
 62
   256
 40
0.24
 90
        1
 40
0.75
 90
        1
300
%<\AcVar ViewType \f "%tc1">% %<\AcVar ViewSectionStartId>%-%<\AcVar ViewSectionEndId>%\PSCALE %<\AcVar ViewScale \f "%sn">%
 71
     4
 62
   256
 62
   257
300
ANSI31
 40
1.0
 90
        0
290
     0
290
     0
 90
        6
 40
0.0
 40
1.570796326794896
 40
0.2617993877991494
 40
1.308996938995747
 40
-0.2617993877991494
 40
1.832595714594046
  0
TABLESTYLE
  5
65
102
{ACAD_XDICTIONARY
360
92
102
}
102
{ACAD_REACTORS
330
64
102
}
330
64
100
AcDbTableStyle
280
     0
  3
Standard
 70
     0
 71
     0
 40
0.06
 41
0.06
280
     0
281
     0
  7
Standard
140
0.18
170
     2
 62
     0
 63
     7
283
     0
 90
      512
 91
        0
  1

274
    -2
284
     1
 64
     0
275
    -2
285
     1
 65
     0
276
    -2
286
     1
 66
     0
277
    -2
287
     1
 67
     0
278
    -2
288
     1
 68
     0
279
    -2
289
     1
 69
     0
  7
Standard
140
0.25
170
     5
 62
     0
 63
     7
283
     0
 90
      512
 91
        0
  1

274
    -2
284
     1
 64
     0
275
    -2
285
     1
 65
     0
276
    -2
286
     1
 66
     0
277
    -2
287
     1
 67
     0
278
    -2
288
     1
 68
     0
279
    -2
289
     1
 69
     0
  7
Standard
140
0.18
170
     5
 62
     0
 63
     7
283
     0
 90
      512
 91
        0
  1

274
    -2
284
     1
 64
     0
275
    -2
285
     1
 65
     0
276
    -2
286
     1
 66
     0
277
    -2
287
     1
 67
     0
278
    -2
288
     1
 68
     0
279
    -2
289
     1
 69
     0
  0
VISUALSTYLE
  5
2F
102
{ACAD_REACTORS
330
29
102
}
330
29
100
AcDbVisualStyle
  2
2dWireframe
 70
     4
177
     3
291
     0
 70
    58
 90
        0
176
     1
 90
        2
176
     1
 90
        0
176
     1
 90
        0
176
     1
 40
0.6
176
     1
 40
30.0
176
     1
 62
     7
420
 16777215
176
     1
 90
        1
176
     1
 90
        4
176
     1
 62
     7
176
     1
 62
   257
176
     1
 90
        1
176
     1
 90
        1
176
     1
 40
1.0
176
     1
 90
        0
176
     1
 62
   257
176
     1
 40
1.0
176
     1
 90
        1
176
     1
 90
        6
176
     1
 90
        2
176
     1
 62
     7
176
     1
 90
        5
176
     1
 90
        0
176
     1
 90
        0
176
     1
290
     0
176
     1
 90
        1
176
     1
 40
0.0
176
     1
 90
        0
176
     1
290
     1
176
     1
290
     1
176
     1
290
     0
176
     1
290
     0
176
     1
290
     0
176
     1
290
     0
176
     1
290
     0
176
     1
290
     0
176
     1
290
     0
176
     1
 90
       50
176
     1
 40
0.0
176
     1
 40
1.0
176
     1
 90
        0
176
     1
 62
    18
420
        0
176
     1
 90
       50
176
     1
 90
        3
176
     1
 62
     5
420
      255
176
     1
290
     0
176
     1
 90
       50
176
     1
 90
       50
176
     1
 90
       50
176
     1
290
     0
176
     1
 90
       50
176
     1
 62
   256
176
     0
 40
1.0
176
     0
 90
        2
176
     1
  1
strokes_ogs.tif
176
     1
290
     0
176
     1
 40
1.0
176
     1
 40
1.0
176
     1
  0
VISUALSTYLE
  5
2E
102
{ACAD_REACTORS
330
29
102
}
330
29
100
AcDbVisualStyle
  2
Basic
 70
     7
177
     3
291
     1
 70
    58
 90
        1
176
     1
 90
        0
176
     1
 90
        1
176
     1
 90
        0
176
     1
 40
0.6
176
     1
 40
30.0
176
     1
 62
     7
420
 16777215
176
     1
 90
        0
176
     1
 90
        4
176
     1
 62
     7
176
     1
 62
   257
176
     1
 90
        1
176
     1
 90
        1
176
     1
 40
1.0
176
     1
 90
        8
176
     1
 62
     7
176
     1
 40
1.0
176
     1
 90
        1
176
     1
 90
        6
176
     1
 90
        2
176
     1
 62
     7
176
     1
 90
        5
176
     1
 90
        0
176
     1
 90
        0
176
     1
290
     0
176
     1
 90
        1
176
     1
 40
0.0
176
     1
 90
        0
176
     1
290
     0
176
     1
290
     1
176
     1
290
     1
176
     1
290
     0
176
     1
290
     0
176
     1
290
     0
176
     1
290
     0
176
     1
290
     0
176
     1
290
     0
176
     1
 90
       50
176
     1
 40
0.0
176
     1
 40
1.0
176
     1
 90
        0
176
     1
 62
    18
420
        0
176
     1
 90
       50
176
     1
 90
        3
176
     1
 62
     5
420
      255
176
     1
290
     0
176
     1
 90
       50
176
     1
 90
       50
176
     1
 90
       50
176
     1
290
     0
176
     1
 90
       50
176
     1
 62
   256
176
     0
 40
1.0
176
     0
 90
        2
176
     1
  1
strokes_ogs.tif
176
     1
290
     0
176
     1
 40
1.0
176
     1
 40
1.0
176
     1
  0
VISUALSTYLE
  5
35
102
{ACAD_REACTORS
330
29
102
}
330
29
100
AcDbVisualStyle
  2
Brighten
 70
    12
177
     3
291
     1
 70
    58
 90
        2
176
     1
 90
        2
176
     1
 90
        0
176
     1
 90
        0
176
     1
 40
0.6
176
     1
 40
30.0
176
     1
 62
     7
420
 16777215
176
     1
 90
        1
176
     1
 90
        4
176
     1
 62
     7
176
     1
 62
   257
176
     1
 90
        1
176
     1
 90
        1
176
     1
 40
1.0
176
     1
 90
        8
176
     1
 62
     7
176
     1
 40
1.0
176
     1
 90
        1
176
     1
 90
        6
176
     1
 90
        2
176
     1
 62
     7
176
     1
 90
        5
176
     1
 90
        0
176
     1
 90
        0
176
     1
290
     0
176
     1
 90
        1
176
     1
 40
50.0
176
     1
 90
        0
176
     1
290
     0
176
     1
290
     1
176
     1
290
     1
176
     1
290
     0
176
     1
290
     0
176
     1
290
     0
176
     1
290
     0
176
     1
290
     0
176
     1
290
     0
176
     1
 90
       50
176
     1
 40
0.0
176
     1
 40
1.0
176
     1
 90
        0
176
     1
 62
    18
420
        0
176
     1
 90
       50
176
     1
 90
        3
176
     1
 62
     5
420
      255
176
     1
290
     0
176
     1
 90
       50
176
     1
 90
       50
176
     1
 90
       50
176
     1
290
     0
176
     1
 90
       50
176
     1
 62
   256
176
     0
 40
1.0
176
     0
 90
        2
176
     1
  1
strokes_ogs.tif
176
     1
290
     0
176
     1
 40
1.0
176
     1
 40
1.0
176
     1
  0
VISUALSTYLE
  5
39
102
{ACAD_REACTORS
330
29
102
}
330
29
100
AcDbVisualStyle
  2
ColorChange
 70
    16
177
     3
291
     1
 70
    58
 90
        2
176
     1
 90
        2
176
     1
 90
        3
176
     1
 90
        0
176
     1
 40
0.6
176
     1
 40
30.0
176
     1
 62
     8
420
  8421504
176
     1
 90
        1
176
     1
 90
        4
176
     1
 62
     7
176
     1
 62
   257
176
     1
 90
        1
176
     1
 90
        1
176
     1
 40
1.0
176
     1
 90
        8
176
     1
 62
     8
420
  8421504
176
     1
 40
1.0
176
     1
 90
        1
176
     1
 90
        6
176
     1
 90
        2
176
     1
 62
     7
176
     1
 90
        5
176
     1
 90
        0
176
     1
 90
        0
176
     1
290
     0
176
     1
 90
        1
176
     1
 40
0.0
176
     1
 90
        0
176
     1
290
     0
176
     1
290
     1
176
     1
290
     1
176
     1
290
     0
176
     1
290
     0
176
     1
290
     0
176
     1
290
     0
176
     1
290
     0
176
     1
290
     0
176
     1
 90
       50
176
     1
 40
0.0
176
     1
 40
1.0
176
     1
 90
        0
176
     1
 62
    18
420
        0
176
     1
 90
       50
176
     1
 90
        3
176
     1
 62
     5
420
      255
176
     1
290
     0
176
     1
 90
       50
176
     1
 90
       50
176
     1
 90
       50
176
     1
290
     0
176
     1
 90
       50
176
     1
 62
   256
176
     0
 40
1.0
176
     0
 90
        2
176
     1
  1
strokes_ogs.tif
176
     1
290
     0
176
     1
 40
1.0
176
     1
 40
1.0
176
     1
  0
VISUALSTYLE
  5
32
102
{ACAD_REACTORS
330
29
102
}
330
29
100
AcDbVisualStyle
  2
Conceptual
 70
     9
177
     3
291
     0
 70
    58
 90
        3
176
     1
 90
        2
176
     1
 90
        0
176
     1
 90
        0
176
     1
 40
0.6
176
     1
 40
30.0
176
     1
 62
     7
420
 16777215
176
     1
 90
        2
176
     1
 90
        2
176
     1
 62
     7
176
     1
 62
   257
176
     1
 90
        1
176
     1
 90
        1
176
     1
 40
179.0
176
     1
 90
        8
176
     1
 62
     7
176
     1
 40
1.0
176
     1
 90
        1
176
     1
 90
        6
176
     1
 90
        2
176
     1
 62
     7
176
     1
 90
        3
176
     1
 90
        0
176
     1
 90
        0
176
     1
290
     0
176
     1
 90
        1
176
     1
 40
0.0
176
     1
 90
        0
176
     1
290
     0
176
     1
290
     1
176
     1
290
     1
176
     1
290
     0
176
     1
290
     0
176
     1
290
     0
176
     1
290
     0
176
     1
290
     0
176
     1
290
     0
176
     1
 90
       50
176
     1
 40
0.0
176
     1
 40
1.0
176
     1
 90
        0
176
     1
 62
    18
420
        0
176
     1
 90
       50
176
     1
 90
        3
176
     1
 62
     5
420
      255
176
     1
290
     0
176
     1
 90
       50
176
     1
 90
       50
176
     1
 90
       50
176
     1
290
     0
176
     1
 90
       50
176
     1
 62
   256
176
     0
 40
1.0
176
     0
 90
        2
176
     1
  1
strokes_ogs.tif
176
     1
290
     0
176
     1
 40
1.0
176
     1
 40
1.0
176
     1
  0
VISUALSTYLE
  5
34
102
{ACAD_REACTORS
330
29
102
}
330
29
100
AcDbVisualStyle
  2
Dim
 70
    11
177
     3
291
     1
 70
    58
 90
        2
176
     1
 90
        2
176
     1
 90
        0
176
     1
 90
        0
176
     1
 40
0.6
176
     1
 40
30.0
176
     1
 62
     7
420
 16777215
176
     1
 90
        1
176
     1
 90
        4
176
     1
 62
     7
176
     1
 62
   257
176
     1
 90
        1
176
     1
 90
        1
176
     1
 40
1.0
176
     1
 90
        8
176
     1
 62
     7
176
     1
 40
1.0
176
     1
 90
        1
176
     1
 90
        6
176
     1
 90
        2
176
     1
 62
     7
176
     1
 90
        5
176
     1
 90
        0
176
     1
 90
        0
176
     1
290
     0
176
     1
 90
        1
176
     1
 40
-50.0
176
     1
 90
        0
176
     1
290
     0
176
     1
290
     1
176
     1
290
     1
176
     1
290
     0
176
     1
290
     0
176
     1
290
     0
176
     1
290
     0
176
     1
290
     0
176
     1
290
     0
176
     1
 90
       50
176
     1
 40
0.0
176
     1
 40
1.0
176
     1
 90
        0
176
     1
 62
    18
420
        0
176
     1
 90
       50
176
     1
 90
        3
176
     1
 62
     5
420
      255
176
     1
290
     0
176
     1
 90
       50
176
     1
 90
       50
176
     1
 90
       50
176
     1
290
     0
176
     1
 90
       50
176
     1
 62
   256
176
     0
 40
1.0
176
     0
 90
        2
176
     1
  1
strokes_ogs.tif
176
     1
290
     0
176
     1
 40
1.0
176
     1
 40
1.0
176
     1
  0
VISUALSTYLE
  5
41
102
{ACAD_REACTORS
330
29
102
}
330
29
100
AcDbVisualStyle
  2
EdgeColorOff
 70
    22
177
     3
291
     1
 70
    58
 90
        2
176
     0
 90
        2
176
     0
 90
        0
176
     0
 90
        0
176
     0
 40
0.6
176
     0
 40
30.0
176
     0
 62
     7
420
 16777215
176
     0
 90
        1
176
     0
 90
        4
176
     0
 62
     7
176
     0
 62
   257
176
     0
 90
        1
176
     0
 90
        1
176
     0
 40
1.0
176
     0
 90
        8
176
     2
 62
     7
176
     0
 40
1.0
176
     0
 90
        1
176
     0
 90
        6
176
     0
 90
        2
176
     0
 62
     7
176
     0
 90
        5
176
     0
 90
        0
176
     0
 90
        0
176
     0
290
     0
176
     0
 90
        1
176
     0
 40
0.0
176
     0
 90
        0
176
     0
290
     0
176
     0
290
     1
176
     0
290
     1
176
     0
290
     0
176
     0
290
     0
176
     0
290
     0
176
     0
290
     0
176
     0
290
     0
176
     0
290
     0
176
     0
 90
       50
176
     0
 40
0.0
176
     0
 40
1.0
176
     0
 90
        0
176
     0
 62
    18
420
        0
176
     0
 90
       50
176
     0
 90
        3
176
     0
 62
     5
420
      255
176
     0
290
     0
176
     0
 90
       50
176
     0
 90
       50
176
     0
 90
       50
176
     0
290
     0
176
     0
 90
       50
176
     0
 62
   256
176
     0
 40
1.0
176
     0
 90
        2
176
     0
  1
strokes_ogs.tif
176
     0
290
     0
176
     0
 40
1.0
176
     0
 40
1.0
176
     0
  0
VISUALSTYLE
  5
38
102
{ACAD_REACTORS
330
29
102
}
330
29
100
AcDbVisualStyle
  2
Facepattern
 70
    15
177
     3
291
     1
 70
    58
 90
        2
176
     1
 90
        2
176
     1
 90
        0
176
     1
 90
        0
176
     1
 40
0.6
176
     1
 40
30.0
176
     1
 62
     7
420
 16777215
176
     1
 90
        1
176
     1
 90
        4
176
     1
 62
     7
176
     1
 62
   257
176
     1
 90
        1
176
     1
 90
        1
176
     1
 40
1.0
176
     1
 90
        8
176
     1
 62
     7
176
     1
 40
1.0
176
     1
 90
        1
176
     1
 90
        6
176
     1
 90
        2
176
     1
 62
     7
176
     1
 90
        5
176
     1
 90
        0
176
     1
 90
        0
176
     1
290
     0
176
     1
 90
        1
176
     1
 40
0.0
176
     1
 90
        0
176
     1
290
     0
176
     1
290
     1
176
     1
290
     1
176
     1
290
     0
176
     1
290
     0
176
     1
290
     0
176
     1
290
     0
176
     1
290
     0
176
     1
290
     0
176
     1
 90
       50
176
     1
 40
0.0
176
     1
 40
1.0
176
     1
 90
        0
176
     1
 62
    18
420
        0
176
     1
 90
       50
176
     1
 90
        3
176
     1
 62
     5
420
      255
176
     1
290
     0
176
     1
 90
       50
176
     1
 90
       50
176
     1
 90
       50
176
     1
290
     0
176
     1
 90
       50
176
     1
 62
   256
176
     0
 40
1.0
176
     0
 90
        2
176
     1
  1
strokes_ogs.tif
176
     1
290
     0
176
     1
 40
1.0
176
     1
 40
1.0
176
     1
  0
VISUALSTYLE
  5
2A
102
{ACAD_REACTORS
330
29
102
}
330
29
100
AcDbVisualStyle
  2
Flat
 70
     0
177
     3
291
     1
 70
    58
 90
        2
176
     1
 90
        1
176
     1
 90
        1
176
     1
 90
        2
176
     1
 40
0.6
176
     1
 40
30.0
176
     1
 62
     7
420
 16777215
176
     1
 90
        0
176
     1
 90
        0
176
     1
 62
     7
176
     1
 62
   257
176
     1
 90
        1
176
     1
 90
        1
176
     1
 40
1.0
176
     1
 90
        8
176
     1
 62
     7
176
     1
 40
1.0
176
     1
 90
        1
176
     1
 90
        6
176
     1
 90
        2
176
     1
 62
     7
176
     1
 90
        5
176
     1
 90
        0
176
     1
 90
        0
176
     1
290
     0
176
     1
 90
       13
176
     1
 40
0.0
176
     1
 90
        0
176
     1
290
     0
176
     1
290
     1
176
     1
290
     1
176
     1
290
     0
176
     1
290
     0
176
     1
290
     0
176
     1
290
     0
176
     1
290
     0
176
     1
290
     0
176
     1
 90
       50
176
     1
 40
0.0
176
     1
 40
1.0
176
     1
 90
        0
176
     1
 62
    18
420
        0
176
     1
 90
       50
176
     1
 90
        3
176
     1
 62
     5
420
      255
176
     1
290
     0
176
     1
 90
       50
176
     1
 90
       50
176
     1
 90
       50
176
     1
290
     0
176
     1
 90
       50
176
     1
 62
   256
176
     0
 40
1.0
176
     0
 90
        2
176
     1
  1
strokes_ogs.tif
176
     1
290
     0
176
     1
 40
1.0
176
     1
 40
1.0
176
     1
  0
VISUALSTYLE
  5
2B
102
{ACAD_REACTORS
330
29
102
}
330
29
100
AcDbVisualStyle
  2
FlatWithEdges
 70
     1
177
     3
291
     1
 70
    58
 90
        2
176
     1
 90
        1
176
     1
 90
        1
176
     1
 90
        2
176
     1
 40
0.6
176
     1
 40
30.0
176
     1
 62
     7
420
 16777215
176
     1
 90
        1
176
     1
 90
        0
176
     1
 62
     7
176
     1
 62
   257
176
     1
 90
        1
176
     1
 90
        1
176
     1
 40
1.0
176
     1
 90
        0
176
     1
 62
   257
176
     1
 40
1.0
176
     1
 90
        1
176
     1
 90
        6
176
     1
 90
        2
176
     1
 62
     7
176
     1
 90
        5
176
     1
 90
        0
176
     1
 90
        0
176
     1
290
     0
176
     1
 90
       13
176
     1
 40
0.0
176
     1
 90
        0
176
     1
290
     0
176
     1
290
     1
176
     1
290
     1
176
     1
290
     0
176
     1
290
     0
176
     1
290
     0
176
     1
290
     0
176
     1
290
     0
176
     1
290
     0
176
     1
 90
       50
176
     1
 40
0.0
176
     1
 40
1.0
176
     1
 90
        0
176
     1
 62
    18
420
        0
176
     1
 90
       50
176
     1
 90
        3
176
     1
 62
     5
420
      255
176
     1
290
     0
176
     1
 90
       50
176
     1
 90
       50
176
     1
 90
       50
176
     1
290
     0
176
     1
 90
       50
176
     1
 62
   256
176
     0
 40
1.0
176
     0
 90
        2
176
     1
  1
strokes_ogs.tif
176
     1
290
     0
176
     1
 40
1.0
176
     1
 40
1.0
176
     1
  0
VISUALSTYLE
  5
2C
102
{ACAD_REACTORS
330
29
102
}
330
29
100
AcDbVisualStyle
  2
Gouraud
 70
     2
177
     3
291
     1
 70
    58
 90
        2
176
     1
 90
        2
176
     1
 90
        1
176
     1
 90
        2
176
     1
 40
0.6
176
     1
 40
30.0
176
     1
 62
     7
420
 16777215
176
     1
 90
        0
176
     1
 90
        0
176
     1
 62
     7
176
     1
 62
   257
176
     1
 90
        1
176
     1
 90
        1
176
     1
 40
1.0
176
     1
 90
        0
176
     1
 62
     7
176
     1
 40
1.0
176
     1
 90
        1
176
     1
 90
        6
176
     1
 90
        2
176
     1
 62
     7
176
     1
 90
        5
176
     1
 90
        0
176
     1
 90
        0
176
     1
290
     0
176
     1
 90
       13
176
     1
 40
0.0
176
     1
 90
        0
176
     1
290
     0
176
     1
290
     1
176
     1
290
     1
176
     1
290
     0
176
     1
290
     0
176
     1
290
     0
176
     1
290
     0
176
     1
290
     0
176
     1
290
     0
176
     1
 90
       50
176
     1
 40
0.0
176
     1
 40
1.0
176
     1
 90
        0
176
     1
 62
    18
420
        0
176
     1
 90
       50
176
     1
 90
        3
176
     1
 62
     5
420
      255
176
     1
290
     0
176
     1
 90
       50
176
     1
 90
       50
176
     1
 90
       50
176
     1
290
     0
176
     1
 90
       50
176
     1
 62
   256
176
     0
 40
1.0
176
     0
 90
        2
176
     1
  1
strokes_ogs.tif
176
     1
290
     0
176
     1
 40
1.0
176
     1
 40
1.0
176
     1
  0
VISUALSTYLE
  5
2D
102
{ACAD_REACTORS
330
29
102
}
330
29
100
AcDbVisualStyle
  2
GouraudWithEdges
 70
     3
177
     3
291
     1
 70
    58
 90
        2
176
     1
 90
        2
176
     1
 90
        1
176
     1
 90
        2
176
     1
 40
0.6
176
     1
 40
30.0
176
     1
 62
     7
420
 16777215
176
     1
 90
        1
176
     1
 90
        0
176
     1
 62
     7
176
     1
 62
   257
176
     1
 90
        1
176
     1
 90
        1
176
     1
 40
1.0
176
     1
 90
        0
176
     1
 62
   257
176
     1
 40
1.0
176
     1
 90
        1
176
     1
 90
        6
176
     1
 90
        2
176
     1
 62
     7
176
     1
 90
        5
176
     1
 90
        0
176
     1
 90
        0
176
     1
290
     0
176
     1
 90
       13
176
     1
 40
0.0
176
     1
 90
        0
176
     1
290
     0
176
     1
290
     1
176
     1
290
     1
176
     1
290
     0
176
     1
290
     0
176
     1
290
     0
176
     1
290
     0
176
     1
290
     0
176
     1
290
     0
176
     1
 90
       50
176
     1
 40
0.0
176
     1
 40
1.0
176
     1
 90
        0
176
     1
 62
    18
420
        0
176
     1
 90
       50
176
     1
 90
        3
176
     1
 62
     5
420
      255
176
     1
290
     0
176
     1
 90
       50
176
     1
 90
       50
176
     1
 90
       50
176
     1
290
     0
176
     1
 90
       50
176
     1
 62
   256
176
     0
 40
1.0
176
     0
 90
        2
176
     1
  1
strokes_ogs.tif
176
     1
290
     0
176
     1
 40
1.0
176
     1
 40
1.0
176
     1
  0
VISUALSTYLE
  5
31
102
{ACAD_REACTORS
330
29
102
}
330
29
100
AcDbVisualStyle
  2
Hidden
 70
     6
177
     3
291
     0
 70
    58
 90
        1
176
     1
 90
        2
176
     1
 90
        2
176
     1
 90
        0
176
     1
 40
0.6
176
     1
 40
30.0
176
     1
 62
     7
420
 16777215
176
     1
 90
        2
176
     1
 90
        2
176
     1
 62
     7
176
     1
 62
   257
176
     1
 90
        2
176
     1
 90
        1
176
     1
 40
40.0
176
     1
 90
        0
176
     1
 62
   257
176
     1
 40
1.0
176
     1
 90
        1
176
     1
 90
        6
176
     1
 90
        2
176
     1
 62
     7
176
     1
 90
        3
176
     1
 90
        0
176
     1
 90
        0
176
     1
290
     0
176
     1
 90
        1
176
     1
 40
0.0
176
     1
 90
        0
176
     1
290
     0
176
     1
290
     1
176
     1
290
     1
176
     1
290
     0
176
     1
290
     0
176
     1
290
     0
176
     1
290
     0
176
     1
290
     0
176
     1
290
     0
176
     1
 90
       50
176
     1
 40
0.0
176
     1
 40
1.0
176
     1
 90
        0
176
     1
 62
    18
420
        0
176
     1
 90
       50
176
     1
 90
        3
176
     1
 62
     5
420
      255
176
     1
290
     0
176
     1
 90
       50
176
     1
 90
       50
176
     1
 90
       50
176
     1
290
     0
176
     1
 90
       50
176
     1
 62
   256
176
     0
 40
1.0
176
     0
 90
        2
176
     1
  1
strokes_ogs.tif
176
     1
290
     0
176
     1
 40
1.0
176
     1
 40
1.0
176
     1
  0
VISUALSTYLE
  5
3F
102
{ACAD_REACTORS
330
29
102
}
330
29
100
AcDbVisualStyle
  2
JitterOff
 70
    20
177
     3
291
     1
 70
    58
 90
        2
176
     0
 90
        2
176
     0
 90
        0
176
     0
 90
        0
176
     0
 40
0.6
176
     0
 40
30.0
176
     0
 62
     7
420
 16777215
176
     0
 90
        1
176
     0
 90
        4
176
     0
 62
     7
176
     0
 62
   257
176
     0
 90
        1
176
     0
 90
        1
176
     0
 40
1.0
176
     0
 90
       10
176
     2
 62
     7
176
     0
 40
1.0
176
     0
 90
        1
176
     0
 90
        6
176
     0
 90
        2
176
     0
 62
     7
176
     0
 90
        5
176
     0
 90
        0
176
     0
 90
        0
176
     0
290
     0
176
     0
 90
        1
176
     0
 40
0.0
176
     0
 90
        0
176
     0
290
     0
176
     0
290
     1
176
     0
290
     1
176
     0
290
     0
176
     0
290
     0
176
     0
290
     0
176
     0
290
     0
176
     0
290
     0
176
     0
290
     0
176
     0
 90
       50
176
     0
 40
0.0
176
     0
 40
1.0
176
     0
 90
        0
176
     0
 62
    18
420
        0
176
     0
 90
       50
176
     0
 90
        3
176
     0
 62
     5
420
      255
176
     0
290
     0
176
     0
 90
       50
176
     0
 90
       50
176
     0
 90
       50
176
     0
290
     0
176
     0
 90
       50
176
     0
 62
   256
176
     0
 40
1.0
176
     0
 90
        2
176
     0
  1
strokes_ogs.tif
176
     0
290
     0
176
     0
 40
1.0
176
     0
 40
1.0
176
     0
  0
VISUALSTYLE
  5
37
102
{ACAD_REACTORS
330
29
102
}
330
29
100
AcDbVisualStyle
  2
Linepattern
 70
    14
177
     3
291
     1
 70
    58
 90
        2
176
     1
 90
        2
176
     1
 90
        0
176
     1
 90
        0
176
     1
 40
0.6
176
     1
 40
30.0
176
     1
 62
     7
420
 16777215
176
     1
 90
        1
176
     1
 90
        4
176
     1
 62
     7
176
     1
 62
   257
176
     1
 90
        7
176
     1
 90
        7
176
     1
 40
1.0
176
     1
 90
        8
176
     1
 62
     7
176
     1
 40
1.0
176
     1
 90
        1
176
     1
 90
        6
176
     1
 90
        2
176
     1
 62
     7
176
     1
 90
        5
176
     1
 90
        0
176
     1
 90
        0
176
     1
290
     0
176
     1
 90
        1
176
     1
 40
0.0
176
     1
 90
        0
176
     1
290
     0
176
     1
290
     1
176
     1
290
     1
176
     1
290
     0
176
     1
290
     0
176
     1
290
     0
176
     1
290
     0
176
     1
290
     0
176
     1
290
     0
176
     1
 90
       50
176
     1
 40
0.0
176
     1
 40
1.0
176
     1
 90
        0
176
     1
 62
    18
420
        0
176
     1
 90
       50
176
     1
 90
        3
176
     1
 62
     5
420
      255
176
     1
290
     0
176
     1
 90
       50
176
     1
 90
       50
176
     1
 90
       50
176
     1
290
     0
176
     1
 90
       50
176
     1
 62
   256
176
     0
 40
1.0
176
     0
 90
        2
176
     1
  1
strokes_ogs.tif
176
     1
290
     0
176
     1
 40
1.0
176
     1
 40
1.0
176
     1
  0
VISUALSTYLE
  5
40
102
{ACAD_REACTORS
330
29
102
}
330
29
100
AcDbVisualStyle
  2
OverhangOff
 70
    21
177
     3
291
     1
 70
    58
 90
        2
176
     0
 90
        2
176
     0
 90
        0
176
     0
 90
        0
176
     0
 40
0.6
176
     0
 40
30.0
176
     0
 62
     7
420
 16777215
176
     0
 90
        1
176
     0
 90
        4
176
     0
 62
     7
176
     0
 62
   257
176
     0
 90
        1
176
     0
 90
        1
176
     0
 40
1.0
176
     0
 90
        9
176
     2
 62
     7
176
     0
 40
1.0
176
     0
 90
        1
176
     0
 90
        6
176
     0
 90
        2
176
     0
 62
     7
176
     0
 90
        5
176
     0
 90
        0
176
     0
 90
        0
176
     0
290
     0
176
     0
 90
        1
176
     0
 40
0.0
176
     0
 90
        0
176
     0
290
     0
176
     0
290
     1
176
     0
290
     1
176
     0
290
     0
176
     0
290
     0
176
     0
290
     0
176
     0
290
     0
176
     0
290
     0
176
     0
290
     0
176
     0
 90
       50
176
     0
 40
0.0
176
     0
 40
1.0
176
     0
 90
        0
176
     0
 62
    18
420
        0
176
     0
 90
       50
176
     0
 90
        3
176
     0
 62
     5
420
      255
176
     0
290
     0
176
     0
 90
       50
176
     0
 90
       50
176
     0
 90
       50
176
     0
290
     0
176
     0
 90
       50
176
     0
 62
   256
176
     0
 40
1.0
176
     0
 90
        2
176
     0
  1
strokes_ogs.tif
176
     0
290
     0
176
     0
 40
1.0
176
     0
 40
1.0
176
     0
  0
VISUALSTYLE
  5
33
102
{ACAD_REACTORS
330
29
102
}
330
29
100
AcDbVisualStyle
  2
Realistic
 70
     8
177
     3
291
     0
 70
    58
 90
        2
176
     1
 90
        3
176
     1
 90
        0
176
     1
 90
        2
176
     1
 40
0.6
176
     1
 40
30.0
176
     1
 62
     7
420
 16777215
176
     1
 90
        0
176
     1
 90
        0
176
     1
 62
     7
176
     1
 62
   257
176
     1
 90
        1
176
     1
 90
        1
176
     1
 40
1.0
176
     1
 90
        8
176
     1
 62
   257
176
     1
 40
1.0
176
     1
 90
        1
176
     1
 90
        6
176
     1
 90
        2
176
     1
 62
     7
176
     1
 90
        3
176
     1
 90
        0
176
     1
 90
        0
176
     1
290
     0
176
     1
 90
       13
176
     1
 40
0.0
176
     1
 90
        0
176
     1
290
     0
176
     1
290
     1
176
     1
290
     1
176
     1
290
     0
176
     1
290
     0
176
     1
290
     0
176
     1
290
     0
176
     1
290
     0
176
     1
290
     0
176
     1
 90
       50
176
     1
 40
0.0
176
     1
 40
1.0
176
     1
 90
        0
176
     1
 62
    18
420
        0
176
     1
 90
       50
176
     1
 90
        3
176
     1
 62
     5
420
      255
176
     1
290
     0
176
     1
 90
       50
176
     1
 90
       50
176
     1
 90
       50
176
     1
290
     0
176
     1
 90
       50
176
     1
 62
   256
176
     0
 40
1.0
176
     0
 90
        2
176
     1
  1
strokes_ogs.tif
176
     1
290
     0
176
     1
 40
1.0
176
     1
 40
1.0
176
     1
  0
VISUALSTYLE
  5
3E
102
{ACAD_REACTORS
330
29
102
}
330
29
100
AcDbVisualStyle
  2
Shaded
 70
    27
177
     3
291
     0
 70
    58
 90
        2
176
     1
 90
        2
176
     1
 90
        1
176
     1
 90
        2
176
     1
 40
0.6
176
     1
 40
30.0
176
     1
 62
     7
420
 16777215
176
     1
 90
        0
176
     1
 90
        4
176
     1
 62
     7
176
     1
 62
   257
176
     1
 90
        1
176
     1
 90
        1
176
     1
 40
1.0
176
     1
 90
        8
176
     1
 62
   257
176
     1
 40
1.0
176
     1
 90
        1
176
     1
 90
        6
176
     1
 90
        2
176
     1
 62
     8
420
  7895160
176
     1
 90
        3
176
     1
 90
        0
176
     1
 90
        0
176
     1
290
     0
176
     1
 90
        5
176
     1
 40
0.0
176
     1
 90
        0
176
     1
290
     0
176
     1
290
     1
176
     1
290
     1
176
     1
290
     0
176
     1
290
     0
176
     1
290
     0
176
     1
290
     0
176
     1
290
     0
176
     1
290
     0
176
     1
 90
       50
176
     1
 40
0.0
176
     1
 40
1.0
176
     1
 90
        0
176
     1
 62
    18
420
        0
176
     1
 90
       50
176
     1
 90
        3
176
     1
 62
     5
420
      255
176
     1
290
     0
176
     1
 90
       50
176
     1
 90
       50
176
     1
 90
       50
176
     1
290
     0
176
     1
 90
       50
176
     1
 62
   256
176
     0
 40
1.0
176
     0
 90
        2
176
     1
  1
strokes_ogs.tif
176
     1
290
     0
176
     1
 40
1.0
176
     1
 40
1.0
176
     1
  0
VISUALSTYLE
  5
3D
102
{ACAD_REACTORS
330
29
102
}
330
29
100
AcDbVisualStyle
  2
Shaded with edges
 70
    26
177
     3
291
     0
 70
    58
 90
        2
176
     1
 90
        2
176
     1
 90
        1
176
     1
 90
        2
176
     1
 40
0.6
176
     1
 40
30.0
176
     1
 62
     7
420
 16777215
176
     1
 90
        1
176
     1
 90
        2
176
     1
 62
     7
176
     1
 62
   257
176
     1
 90
        2
176
     1
 90
        1
176
     1
 40
1.0
176
     1
 90
        8
176
     1
 62
   257
176
     1
 40
1.0
176
     1
 90
        1
176
     1
 90
        6
176
     1
 90
        2
176
     1
 62
     7
176
     1
 90
        3
176
     1
 90
        0
176
     1
 90
        0
176
     1
290
     0
176
     1
 90
        5
176
     1
 40
0.0
176
     1
 90
        0
176
     1
290
     0
176
     1
290
     1
176
     1
290
     1
176
     1
290
     0
176
     1
290
     0
176
     1
290
     0
176
     1
290
     0
176
     1
290
     0
176
     1
290
     0
176
     1
 90
       50
176
     1
 40
0.0
176
     1
 40
1.0
176
     1
 90
        0
176
     1
 62
    18
420
        0
176
     1
 90
       50
176
     1
 90
        3
176
     1
 62
     5
420
      255
176
     1
290
     0
176
     1
 90
       50
176
     1
 90
       50
176
     1
 90
       50
176
     1
290
     0
176
     1
 90
       50
176
     1
 62
   256
176
     0
 40
1.0
176
     0
 90
        2
176
     1
  1
strokes_ogs.tif
176
     1
290
     0
176
     1
 40
1.0
176
     1
 40
1.0
176
     1
  0
VISUALSTYLE
  5
3A
102
{ACAD_REACTORS
330
29
102
}
330
29
100
AcDbVisualStyle
  2
Shades of Gray
 70
    23
177
     3
291
     0
 70
    58
 90
        2
176
     1
 90
        2
176
     1
 90
        3
176
     1
 90
        0
176
     1
 40
0.6
176
     1
 40
30.0
176
     1
 62
     7
420
 16777215
176
     1
 90
        2
176
     1
 90
        2
176
     1
 62
     7
176
     1
 62
     7
176
     1
 90
        1
176
     1
 90
        1
176
     1
 40
40.0
176
     1
 90
        8
176
     1
 62
     7
176
     1
 40
1.0
176
     1
 90
        1
176
     1
 90
        6
176
     1
 90
        2
176
     1
 62
     7
176
     1
 90
        3
176
     1
 90
        0
176
     1
 90
        0
176
     1
290
     0
176
     1
 90
        1
176
     1
 40
0.0
176
     1
 90
        0
176
     1
290
     0
176
     1
290
     1
176
     1
290
     1
176
     1
290
     0
176
     1
290
     0
176
     1
290
     0
176
     1
290
     0
176
     1
290
     0
176
     1
290
     0
176
     1
 90
       50
176
     1
 40
0.0
176
     1
 40
1.0
176
     1
 90
        0
176
     1
 62
    18
420
        0
176
     1
 90
       50
176
     1
 90
        3
176
     1
 62
     5
420
      255
176
     1
290
     0
176
     1
 90
       50
176
     1
 90
       50
176
     1
 90
       50
176
     1
290
     0
176
     1
 90
       50
176
     1
 62
   256
176
     0
 40
1.0
176
     0
 90
        2
176
     1
  1
strokes_ogs.tif
176
     1
290
     0
176
     1
 40
1.0
176
     1
 40
1.0
176
     1
  0
VISUALSTYLE
  5
3B
102
{ACAD_REACTORS
330
29
102
}
330
29
100
AcDbVisualStyle
  2
Sketchy
 70
    24
177
     3
291
     0
 70
    58
 90
        1
176
     1
 90
        2
176
     1
 90
        2
176
     1
 90
        0
176
     1
 40
0.6
176
     1
 40
30.0
176
     1
 62
     7
420
 16777215
176
     1
 90
        2
176
     1
 90
        2
176
     1
 62
     7
176
     1
 62
     7
176
     1
 90
        1
176
     1
 90
        1
176
     1
 40
40.0
176
     1
 90
       11
176
     1
 62
     7
176
     1
 40
1.0
176
     1
 90
        1
176
     1
 90
        6
176
     1
 90
        2
176
     1
 62
     7
176
     1
 90
        6
176
     1
 90
        0
176
     1
 90
        0
176
     1
290
     0
176
     1
 90
        1
176
     1
 40
0.0
176
     1
 90
        0
176
     1
290
     0
176
     1
290
     1
176
     1
290
     1
176
     1
290
     0
176
     1
290
     0
176
     1
290
     0
176
     1
290
     0
176
     1
290
     0
176
     1
290
     0
176
     1
 90
       50
176
     1
 40
0.0
176
     1
 40
1.0
176
     1
 90
        0
176
     1
 62
    18
420
        0
176
     1
 90
       50
176
     1
 90
        3
176
     1
 62
     5
420
      255
176
     1
290
     0
176
     1
 90
       50
176
     1
 90
       50
176
     1
 90
       50
176
     1
290
     0
176
     1
 90
       50
176
     1
 62
   256
176
     0
 40
1.0
176
     0
 90
        2
176
     1
  1
strokes_ogs.tif
176
     1
290
     0
176
     1
 40
1.0
176
     1
 40
1.0
176
     1
  0
VISUALSTYLE
  5
36
102
{ACAD_REACTORS
330
29
102
}
330
29
100
AcDbVisualStyle
  2
Thicken
 70
    13
177
     3
291
     1
 70
    58
 90
        2
176
     1
 90
        2
176
     1
 90
        0
176
     1
 90
        0
176
     1
 40
0.6
176
     1
 40
30.0
176
     1
 62
     7
420
 16777215
176
     1
 90
        1
176
     1
 90
        4
176
     1
 62
     7
176
     1
 62
   257
176
     1
 90
        1
176
     1
 90
        1
176
     1
 40
1.0
176
     1
 90
       12
176
     1
 62
     7
176
     1
 40
1.0
176
     1
 90
        1
176
     1
 90
        6
176
     1
 90
        2
176
     1
 62
     7
176
     1
 90
        5
176
     1
 90
        0
176
     1
 90
        0
176
     1
290
     0
176
     1
 90
        1
176
     1
 40
0.0
176
     1
 90
        0
176
     1
290
     0
176
     1
290
     1
176
     1
290
     1
176
     1
290
     0
176
     1
290
     0
176
     1
290
     0
176
     1
290
     0
176
     1
290
     0
176
     1
290
     0
176
     1
 90
       50
176
     1
 40
0.0
176
     1
 40
1.0
176
     1
 90
        0
176
     1
 62
    18
420
        0
176
     1
 90
       50
176
     1
 90
        3
176
     1
 62
     5
420
      255
176
     1
290
     0
176
     1
 90
       50
176
     1
 90
       50
176
     1
 90
       50
176
     1
290
     0
176
     1
 90
       50
176
     1
 62
   256
176
     0
 40
1.0
176
     0
 90
        2
176
     1
  1
strokes_ogs.tif
176
     1
290
     0
176
     1
 40
1.0
176
     1
 40
1.0
176
     1
  0
VISUALSTYLE
  5
30
102
{ACAD_REACTORS
330
29
102
}
330
29
100
AcDbVisualStyle
  2
Wireframe
 70
     5
177
     3
291
     0
 70
    58
 90
        0
176
     1
 90
        2
176
     1
 90
        0
176
     1
 90
        0
176
     1
 40
0.6
176
     1
 40
30.0
176
     1
 62
     7
420
 16777215
176
     1
 90
        1
176
     1
 90
        4
176
     1
 62
     7
176
     1
 62
   257
176
     1
 90
        1
176
     1
 90
        1
176
     1
 40
1.0
176
     1
 90
        0
176
     1
 62
   257
176
     1
 40
1.0
176
     1
 90
        1
176
     1
 90
        6
176
     1
 90
        2
176
     1
 62
     7
176
     1
 90
        3
176
     1
 90
        0
176
     1
 90
        0
176
     1
290
     0
176
     1
 90
        1
176
     1
 40
0.0
176
     1
 90
        0
176
     1
290
     0
176
     1
290
     1
176
     1
290
     1
176
     1
290
     0
176
     1
290
     0
176
     1
290
     0
176
     1
290
     0
176
     1
290
     0
176
     1
290
     0
176
     1
 90
       50
176
     1
 40
0.0
176
     1
 40
1.0
176
     1
 90
        0
176
     1
 62
    18
420
        0
176
     1
 90
       50
176
     1
 90
        3
176
     1
 62
     5
420
      255
176
     1
290
     0
176
     1
 90
       50
176
     1
 90
       50
176
     1
 90
       50
176
     1
290
     0
176
     1
 90
       50
176
     1
 62
   256
176
     0
 40
1.0
176
     0
 90
        2
176
     1
  1
strokes_ogs.tif
176
     1
290
     0
176
     1
 40
1.0
176
     1
 40
1.0
176
     1
  0
VISUALSTYLE
  5
3C
102
{ACAD_REACTORS
330
29
102
}
330
29
100
AcDbVisualStyle
  2
X-Ray
 70
    25
177
     3
291
     0
 70
    58
 90
        2
176
     1
 90
        2
176
     1
 90
        1
176
     1
 90
        1
176
     1
 40
0.5
176
     1
 40
30.0
176
     1
 62
     7
420
 16777215
176
     1
 90
        1
176
     1
 90
        0
176
     1
 62
     7
176
     1
 62
   257
176
     1
 90
        1
176
     1
 90
        1
176
     1
 40
1.0
176
     1
 90
        8
176
     1
 62
     7
176
     1
 40
1.0
176
     1
 90
        1
176
     1
 90
        6
176
     1
 90
        2
176
     1
 62
     7
176
     1
 90
        3
176
     1
 90
        0
176
     1
 90
        0
176
     1
290
     0
176
     1
 90
       13
176
     1
 40
0.0
176
     1
 90
        0
176
     1
290
     0
176
     1
290
     1
176
     1
290
     1
176
     1
290
     0
176
     1
290
     0
176
     1
290
     0
176
     1
290
     0
176
     1
290
     0
176
     1
290
     0
176
     1
 90
       50
176
     1
 40
0.0
176
     1
 40
1.0
176
     1
 90
        0
176
     1
 62
    18
420
        0
176
     1
 90
       50
176
     1
 90
        3
176
     1
 62
     5
420
      255
176
     1
290
     0
176
     1
 90
       50
176
     1
 90
       50
176
     1
 90
       50
176
     1
290
     0
176
     1
 90
       50
176
     1
 62
   256
176
     0
 40
1.0
176
     0
 90
        2
176
     1
  1
strokes_ogs.tif
176
     1
290
     0
176
     1
 40
1.0
176
     1
 40
1.0
176
     1
  0
DICTIONARYVAR
  5
91
102
{ACAD_REACTORS
330
8C
102
}
330
8C
100
DictionaryVariables
280
     0
  1
1:1
  0
DICTIONARYVAR
  5
8E
102
{ACAD_REACTORS
330
8C
102
}
330
8C
100
DictionaryVariables
280
     0
  1
STANDARD
  0
DICTIONARYVAR
  5
8D
102
{ACAD_REACTORS
330
8C
102
}
330
8C
100
DictionaryVariables
280
     0
  1
STANDARD
  0
DICTIONARYVAR
  5
8F
102
{ACAD_REACTORS
330
8C
102
}
330
8C
100
DictionaryVariables
280
     0
  1
Imperial24
  0
DICTIONARYVAR
  5
90
102
{ACAD_REACTORS
330
8C
102
}
330
8C
100
DictionaryVariables
280
     0
  1
Imperial24
  0
DICTIONARY
  5
1A
330
19
100
AcDbDictionary
280
     1
281
     1
  3
BUMPTILE
360
1C
  3
DIFFUSETILE
360
1B
  3
OPACITYTILE
360
1F
  3
REFLECTIONTILE
360
1E
  3
REFRACTIONTILE
360
20
  3
SPECULARTILE
360
1D
  0
DICTIONARY
  5
12
330
11
100
AcDbDictionary
280
     1
281
     1
  3
BUMPTILE
360
14
  3
DIFFUSETILE
360
13
  3
OPACITYTILE
360
17
  3
REFLECTIONTILE
360
16
  3
REFRACTIONTILE
360
18
  3
SPECULARTILE
360
15
  0
DICTIONARY
  5
22
330
21
100
AcDbDictionary
280
     1
281
     1
  3
BUMPTILE
360
24
  3
DIFFUSETILE
360
23
  3
OPACITYTILE
360
27
  3
REFLECTIONTILE
360
26
  3
REFRACTIONTILE
360
28
  3
SPECULARTILE
360
25
  0
DICTIONARY
  5
92
330
65
100
AcDbDictionary
280
     1
281
     1
  3
ACAD_ROUNDTRIP_2008_TABLESTYLE_CELLSTYLEMAP
360
93
  0
XRECORD
  5
1C
102
{ACAD_REACTORS
330
1A
102
}
330
1A
100
AcDbXrecord
280
     1
270
     1
271
     1
  0
XRECORD
  5
1B
102
{ACAD_REACTORS
330
1A
102
}
330
1A
100
AcDbXrecord
280
     1
270
     1
271
     1
  0
XRECORD
  5
1F
102
{ACAD_REACTORS
330
1A
102
}
330
1A
100
AcDbXrecord
280
     1
270
     1
271
     1
  0
XRECORD
  5
1E
102
{ACAD_REACTORS
330
1A
102
}
330
1A
100
AcDbXrecord
280
     1
270
     1
271
     1
  0
XRECORD
  5
20
102
{ACAD_REACTORS
330
1A
102
}
330
1A
100
AcDbXrecord
280
     1
270
     1
271
     1
  0
XRECORD
  5
1D
102
{ACAD_REACTORS
330
1A
102
}
330
1A
100
AcDbXrecord
280
     1
270
     1
271
     1
  0
XRECORD
  5
14
102
{ACAD_REACTORS
330
12
102
}
330
12
100
AcDbXrecord
280
     1
270
     1
271
     1
  0
XRECORD
  5
13
102
{ACAD_REACTORS
330
12
102
}
330
12
100
AcDbXrecord
280
     1
270
     1
271
     1
  0
XRECORD
  5
17
102
{ACAD_REACTORS
330
12
102
}
330
12
100
AcDbXrecord
280
     1
270
     1
271
     1
  0
XRECORD
  5
16
102
{ACAD_REACTORS
330
12
102
}
330
12
100
AcDbXrecord
280
     1
270
     1
271
     1
  0
XRECORD
  5
18
102
{ACAD_REACTORS
330
12
102
}
330
12
100
AcDbXrecord
280
     1
270
     1
271
     1
  0
XRECORD
  5
15
102
{ACAD_REACTORS
330
12
102
}
330
12
100
AcDbXrecord
280
     1
270
     1
271
     1
  0
XRECORD
  5
24
102
{ACAD_REACTORS
330
22
102
}
330
22
100
AcDbXrecord
280
     1
270
     1
271
     1
  0
XRECORD
  5
23
102
{ACAD_REACTORS
330
22
102
}
330
22
100
AcDbXrecord
280
     1
270
     1
271
     1
  0
XRECORD
  5
27
102
{ACAD_REACTORS
330
22
102
}
330
22
100
AcDbXrecord
280
     1
270
     1
271
     1
  0
XRECORD
  5
26
102
{ACAD_REACTORS
330
22
102
}
330
22
100
AcDbXrecord
280
     1
270
     1
271
     1
  0
XRECORD
  5
28
102
{ACAD_REACTORS
330
22
102
}
330
22
100
AcDbXrecord
280
     1
270
     1
271
     1
  0
XRECORD
  5
25
102
{ACAD_REACTORS
330
22
102
}
330
22
100
AcDbXrecord
280
     1
270
     1
271
     1
  0
CELLSTYLEMAP
  5
93
102
{ACAD_REACTORS
330
92
102
}
330
92
100
AcDbCellStyleMap
 90
        3
300
CELLSTYLE
  1
TABLEFORMAT_BEGIN
 90
        5
170
     1
 91
        0
 92
    32768
 62
   257
 93
        1
300
CONTENTFORMAT
  1
CONTENTFORMAT_BEGIN
 90
        0
 91
        0
 92
      512
 93
        0
300

 40
0.0
140
1.0
 94
        5
 62
     0
340
55
144
0.25
309
CONTENTFORMAT_END
171
     0
 94
        0
309
TABLEFORMAT_END
  1
CELLSTYLE_BEGIN
 90
        1
 91
        1
300
_TITLE
309
CELLSTYLE_END
300
CELLSTYLE
  1
TABLEFORMAT_BEGIN
 90
        5
170
     1
 91
        0
 92
        0
 62
   257
 93
        1
300
CONTENTFORMAT
  1
CONTENTFORMAT_BEGIN
 90
        0
 91
        0
 92
      512
 93
        0
300

 40
0.0
140
1.0
 94
        5
 62
     0
340
55
144
0.18
309
CONTENTFORMAT_END
171
     0
 94
        0
309
TABLEFORMAT_END
  1
CELLSTYLE_BEGIN
 90
        2
 91
        1
300
_HEADER
309
CELLSTYLE_END
300
CELLSTYLE
  1
TABLEFORMAT_BEGIN
 90
        5
170
     1
 91
        0
 92
        0
 62
   257
 93
        1
300
CONTENTFORMAT
  1
CONTENTFORMAT_BEGIN
 90
        0
 91
        0
 92
      512
 93
        0
300

 40
0.0
140
1.0
 94
        2
 62
     0
340
55
144
0.18
309
CONTENTFORMAT_END
171
     0
 94
        0
309
TABLEFORMAT_END
  1
CELLSTYLE_BEGIN
 90
        3
 91
        2
300
_DATA
309
CELLSTYLE_END
  0
ENDSEC
  0
EOF
