  0
SECTION
  2
HEADER
  9
$ACADVER
  1
AC1021
  9
$ACADMAINTVER
 70
    25
  9
$DWGCODEPAGE
  3
ANSI_1252
  9
$LASTSAVEDBY
  1
lolamentosanto
  9
$INSBASE
 10
0.0
 20
0.0
 30
0.0
  9
$EXTMIN
 10
387.3646779107747
 20
-1394.611662036013
 30
0.0
  9
$EXTMAX
 10
639.4964588197689
 20
-1097.825957646946
 30
0.0
  9
$LIMMIN
 10
0.0
 20
0.0
  9
$LIMMAX
 10
12.0
 20
9.0
  9
$ORTHOMODE
 70
     0
  9
$REGENMODE
 70
     1
  9
$FILLMODE
 70
     1
  9
$QTEXTMODE
 70
     0
  9
$MIRRTEXT
 70
     1
  9
$LTSCALE
 40
1.0
  9
$ATTMODE
 70
     1
  9
$TEXTSIZE
 40
0.2
  9
$TRACEWID
 40
0.05
  9
$TEXTSTYLE
  7
Standard
  9
$CLAYER
  8
Default
  9
$CELTYPE
  6
ByLayer
  9
$CECOLOR
 62
   256
  9
$CELTSCALE
 40
1.0
  9
$DISPSILH
 70
     0
  9
$DIMSCALE
 40
1.0
  9
$DIMASZ
 40
0.18
  9
$DIMEXO
 40
0.0625
  9
$DIMDLI
 40
0.38
  9
$DIMRND
 40
0.0
  9
$DIMDLE
 40
0.0
  9
$DIMEXE
 40
0.18
  9
$DIMTP
 40
0.0
  9
$DIMTM
 40
0.0
  9
$DIMTXT
 40
0.18
  9
$DIMCEN
 40
0.09
  9
$DIMTSZ
 40
0.0
  9
$DIMTOL
 70
     0
  9
$DIMLIM
 70
     0
  9
$DIMTIH
 70
     1
  9
$DIMTOH
 70
     1
  9
$DIMSE1
 70
     0
  9
$DIMSE2
 70
     0
  9
$DIMTAD
 70
     0
  9
$DIMZIN
 70
     0
  9
$DIMBLK
  1

  9
$DIMASO
 70
     1
  9
$DIMSHO
 70
     1
  9
$DIMPOST
  1

  9
$DIMAPOST
  1

  9
$DIMALT
 70
     0
  9
$DIMALTD
 70
     2
  9
$DIMALTF
 40
25.4
  9
$DIMLFAC
 40
1.0
  9
$DIMTOFL
 70
     0
  9
$DIMTVP
 40
0.0
  9
$DIMTIX
 70
     0
  9
$DIMSOXD
 70
     0
  9
$DIMSAH
 70
     0
  9
$DIMBLK1
  1

  9
$DIMBLK2
  1

  9
$DIMSTYLE
  2
STANDARD_ACAD
  9
$DIMCLRD
 70
     0
  9
$DIMCLRE
 70
     0
  9
$DIMCLRT
 70
     0
  9
$DIMTFAC
 40
1.0
  9
$DIMGAP
 40
0.09
  9
$DIMJUST
 70
     0
  9
$DIMSD1
 70
     0
  9
$DIMSD2
 70
     0
  9
$DIMTOLJ
 70
     1
  9
$DIMTZIN
 70
     0
  9
$DIMALTZ
 70
     0
  9
$DIMALTTZ
 70
     0
  9
$DIMUPT
 70
     0
  9
$DIMDEC
 70
     4
  9
$DIMTDEC
 70
     4
  9
$DIMALTU
 70
     2
  9
$DIMALTTD
 70
     2
  9
$DIMTXSTY
  7
Standard
  9
$DIMAUNIT
 70
     0
  9
$DIMADEC
 70
     0
  9
$DIMALTRND
 40
0.0
  9
$DIMAZIN
 70
     0
  9
$DIMDSEP
 70
    46
  9
$DIMATFIT
 70
     3
  9
$DIMFRAC
 70
     0
  9
$DIMLDRBLK
  1

  9
$DIMLUNIT
 70
     2
  9
$DIMLWD
 70
    -2
  9
$DIMLWE
 70
    -2
  9
$DIMTMOVE
 70
     2
  9
$DIMFXL
 40
1.0
  9
$DIMFXLON
 70
     0
  9
$DIMJOGANG
 40
0.7853981633974483
  9
$DIMTFILL
 70
     0
  9
$DIMTFILLCLR
 70
     0
  9
$DIMARCSYM
 70
     0
  9
$DIMLTYPE
  6

  9
$DIMLTEX1
  6

  9
$DIMLTEX2
  6

  9
$LUNITS
 70
     2
  9
$LUPREC
 70
     3
  9
$SKETCHINC
 40
0.1
  9
$FILLETRAD
 40
0.0
  9
$AUNITS
 70
     0
  9
$AUPREC
 70
     0
  9
$MENU
  1
.
  9
$ELEVATION
 40
0.0
  9
$PELEVATION
 40
0.0
  9
$THICKNESS
 40
0.0
  9
$LIMCHECK
 70
     0
  9
$CHAMFERA
 40
0.0
  9
$CHAMFERB
 40
0.0
  9
$CHAMFERC
 40
0.0
  9
$CHAMFERD
 40
0.0
  9
$SKPOLY
 70
     0
  9
$TDCREATE
 40
2459898.719222188
  9
$TDUCREATE
 40
2459898.677555521
  9
$TDUPDATE
 40
2459898.719245243
  9
$TDUUPDATE
 40
2459898.677578576
  9
$TDINDWG
 40
0.0000000116
  9
$TDUSRTIMER
 40
0.0000000116
  9
$USRTIMER
 70
     1
  9
$ANGBASE
 50
0.0
  9
$ANGDIR
 70
     0
  9
$PDMODE
 70
     0
  9
$PDSIZE
 40
0.0
  9
$PLINEWID
 40
0.0
  9
$SPLFRAME
 70
     0
  9
$SPLINETYPE
 70
     6
  9
$SPLINESEGS
 70
     8
  9
$HANDSEED
  5
232
  9
$SURFTAB1
 70
     6
  9
$SURFTAB2
 70
     6
  9
$SURFTYPE
 70
     6
  9
$SURFU
 70
     6
  9
$SURFV
 70
     6
  9
$UCSBASE
  2

  9
$UCSNAME
  2

  9
$UCSORG
 10
0.0
 20
0.0
 30
0.0
  9
$UCSXDIR
 10
1.0
 20
0.0
 30
0.0
  9
$UCSYDIR
 10
0.0
 20
1.0
 30
0.0
  9
$UCSORTHOREF
  2

  9
$UCSORTHOVIEW
 70
     0
  9
$UCSORGTOP
 10
0.0
 20
0.0
 30
0.0
  9
$UCSORGBOTTOM
 10
0.0
 20
0.0
 30
0.0
  9
$UCSORGLEFT
 10
0.0
 20
0.0
 30
0.0
  9
$UCSORGRIGHT
 10
0.0
 20
0.0
 30
0.0
  9
$UCSORGFRONT
 10
0.0
 20
0.0
 30
0.0
  9
$UCSORGBACK
 10
0.0
 20
0.0
 30
0.0
  9
$PUCSBASE
  2

  9
$PUCSNAME
  2

  9
$PUCSORG
 10
0.0
 20
0.0
 30
0.0
  9
$PUCSXDIR
 10
1.0
 20
0.0
 30
0.0
  9
$PUCSYDIR
 10
0.0
 20
1.0
 30
0.0
  9
$PUCSORTHOREF
  2

  9
$PUCSORTHOVIEW
 70
     0
  9
$PUCSORGTOP
 10
0.0
 20
0.0
 30
0.0
  9
$PUCSORGBOTTOM
 10
0.0
 20
0.0
 30
0.0
  9
$PUCSORGLEFT
 10
0.0
 20
0.0
 30
0.0
  9
$PUCSORGRIGHT
 10
0.0
 20
0.0
 30
0.0
  9
$PUCSORGFRONT
 10
0.0
 20
0.0
 30
0.0
  9
$PUCSORGBACK
 10
0.0
 20
0.0
 30
0.0
  9
$USERI1
 70
     0
  9
$USERI2
 70
     0
  9
$USERI3
 70
     0
  9
$USERI4
 70
     0
  9
$USERI5
 70
     0
  9
$USERR1
 40
0.0
  9
$USERR2
 40
0.0
  9
$USERR3
 40
0.0
  9
$USERR4
 40
0.0
  9
$USERR5
 40
0.0
  9
$WORLDVIEW
 70
     1
  9
$SHADEDGE
 70
     3
  9
$SHADEDIF
 70
    70
  9
$TILEMODE
 70
     1
  9
$MAXACTVP
 70
    64
  9
$PINSBASE
 10
0.0
 20
0.0
 30
0.0
  9
$PLIMCHECK
 70
     0
  9
$PEXTMIN
 10
1.000000000000000E+20
 20
1.000000000000000E+20
 30
1.000000000000000E+20
  9
$PEXTMAX
 10
-1.000000000000000E+20
 20
-1.000000000000000E+20
 30
-1.000000000000000E+20
  9
$PLIMMIN
 10
0.0
 20
0.0
  9
$PLIMMAX
 10
12.0
 20
9.0
  9
$UNITMODE
 70
     0
  9
$VISRETAIN
 70
     1
  9
$PLINEGEN
 70
     0
  9
$PSLTSCALE
 70
     1
  9
$TREEDEPTH
 70
  3020
  9
$CMLSTYLE
  2
Standard
  9
$CMLJUST
 70
     0
  9
$CMLSCALE
 40
1.0
  9
$PROXYGRAPHICS
 70
     1
  9
$MEASUREMENT
 70
     1
  9
$CELWEIGHT
370
    -1
  9
$ENDCAPS
280
     0
  9
$JOINSTYLE
280
     0
  9
$LWDISPLAY
290
     0
  9
$INSUNITS
 70
     4
  9
$HYPERLINKBASE
  1

  9
$STYLESHEET
  1

  9
$XEDIT
290
     1
  9
$CEPSNTYPE
380
     0
  9
$PSTYLEMODE
290
     1
  9
$FINGERPRINTGUID
  2
{1ee1849b-5264-684c-96fd-79120db300c4}
  9
$VERSIONGUID
  2
{FAEB1C32-E019-11D5-929B-00C0DF256EC4}
  9
$EXTNAMES
290
     1
  9
$PSVPSCALE
 40
0.0
  9
$OLESTARTUP
290
     0
  9
$SORTENTS
280
   127
  9
$INDEXCTL
280
     0
  9
$HIDETEXT
280
     1
  9
$XCLIPFRAME
290
     0
  9
$HALOGAP
280
     0
  9
$OBSCOLOR
 70
   257
  9
$OBSLTYPE
280
     0
  9
$INTERSECTIONDISPLAY
280
     0
  9
$INTERSECTIONCOLOR
 70
   257
  9
$DIMASSOC
280
     2
  9
$PROJECTNAME
  1

  9
$CAMERADISPLAY
290
     0
  9
$LENSLENGTH
 40
50.0
  9
$CAMERAHEIGHT
 40
0.0
  9
$STEPSPERSEC
 40
2.0
  9
$STEPSIZE
 40
6.0
  9
$3DDWFPREC
 40
2.0
  9
$PSOLWIDTH
 40
0.25
  9
$PSOLHEIGHT
 40
4.0
  9
$LOFTANG1
 40
1.570796326794897
  9
$LOFTANG2
 40
1.570796326794897
  9
$LOFTMAG1
 40
0.0
  9
$LOFTMAG2
 40
0.0
  9
$LOFTPARAM
 70
     7
  9
$LOFTNORMALS
280
     1
  9
$LATITUDE
 40
37.795
  9
$LONGITUDE
 40
-122.394
  9
$NORTHDIRECTION
 40
0.0
  9
$TIMEZONE
 70
 -8000
  9
$LIGHTGLYPHDISPLAY
280
     1
  9
$TILEMODELIGHTSYNCH
280
     1
  9
$CMATERIAL
347
44
  9
$SOLIDHIST
280
     0
  9
$SHOWHIST
280
     1
  9
$DWFFRAME
280
     2
  9
$DGNFRAME
280
     2
  9
$REALWORLDSCALE
290
     1
  9
$INTERFERECOLOR
 62
   256
  9
$CSHADOW
280
     0
  9
$SHADOWPLANELOCATION
 40
0.0
  0
ENDSEC
  0
SECTION
  2
CLASSES
  0
CLASS
  1
ACDBDICTIONARYWDFLT
  2
AcDbDictionaryWithDefault
  3
ObjectDBX Classes
 90
        0
 91
        3
280
     0
281
     0
  0
CLASS
  1
VISUALSTYLE
  2
AcDbVisualStyle
  3
ObjectDBX Classes
 90
     4095
 91
        3
280
     0
281
     0
  0
CLASS
  1
MATERIAL
  2
AcDbMaterial
  3
ObjectDBX Classes
 90
     1153
 91
        3
280
     0
281
     0
  0
CLASS
  1
SCALE
  2
AcDbScale
  3
ObjectDBX Classes
 90
     1153
 91
        3
280
     0
281
     0
  0
CLASS
  1
TABLESTYLE
  2
AcDbTableStyle
  3
ObjectDBX Classes
 90
     4095
 91
        3
280
     0
281
     0
  0
CLASS
  1
MLEADERSTYLE
  2
AcDbMLeaderStyle
  3
ACDB_MLEADERSTYLE_CLASS
 90
     4095
 91
        3
280
     0
281
     0
  0
CLASS
  1
SUN
  2
AcDbSun
  3
SCENEOE
 90
     1153
 91
        3
280
     0
281
     0
  0
CLASS
  1
DICTIONARYVAR
  2
AcDbDictionaryVar
  3
ObjectDBX Classes
 90
        0
 91
        3
280
     0
281
     0
  0
CLASS
  1
CELLSTYLEMAP
  2
AcDbCellStyleMap
  3
ObjectDBX Classes
 90
     1152
 91
        3
280
     0
281
     0
  0
ENDSEC
  0
SECTION
  2
TABLES
  0
TABLE
  2
VPORT
  5
8
330
0
100
AcDbSymbolTable
 70
     1
  0
VPORT
  5
29
330
8
100
AcDbSymbolTableRecord
100
AcDbViewportTableRecord
  2
*Active
 70
     0
 10
0.0
 20
0.0
 11
1.0
 21
1.0
 12
10.42990654205607
 22
4.5
 13
0.0
 23
0.0
 14
0.5
 24
0.5
 15
0.5
 25
0.5
 16
0.0
 26
0.0
 36
1.0
 17
0.0
 27
0.0
 37
0.0
 40
9.0
 41
1.972972972850329
 42
50.0
 43
0.0
 44
0.0
 50
0.0
 51
0.0
 71
     0
 72
   100
 73
     1
 74
     3
 75
     0
 76
     0
 77
     0
 78
     0
281
     0
 65
     1
110
0.0
120
0.0
130
0.0
111
1.0
121
0.0
131
0.0
112
0.0
122
1.0
132
0.0
 79
     0
146
0.0
348
2F
 60
     3
 61
     5
292
     1
282
     1
141
0.0
142
0.0
 63
   250
361
5D
  0
ENDTAB
  0
TABLE
  2
LTYPE
  5
5
330
0
100
AcDbSymbolTable
 70
     1
  0
LTYPE
  5
14
330
5
100
AcDbSymbolTableRecord
100
AcDbLinetypeTableRecord
  2
ByBlock
 70
     0
  3

 72
    65
 73
     0
 40
0.0
  0
LTYPE
  5
15
330
5
100
AcDbSymbolTableRecord
100
AcDbLinetypeTableRecord
  2
ByLayer
 70
     0
  3

 72
    65
 73
     0
 40
0.0
  0
LTYPE
  5
16
330
5
100
AcDbSymbolTableRecord
100
AcDbLinetypeTableRecord
  2
Continuous
 70
     0
  3
Solid line
 72
    65
 73
     0
 40
0.0
  0
ENDTAB
  0
TABLE
  2
LAYER
  5
2
330
0
100
AcDbSymbolTable
 70
     2
  0
LAYER
  5
10
330
2
100
AcDbSymbolTableRecord
100
AcDbLayerTableRecord
  2
0
 70
     0
 62
     7
  6
Continuous
370
    -3
390
F
347
46
  0
LAYER
  5
5F
330
2
100
AcDbSymbolTableRecord
100
AcDbLayerTableRecord
  2
Default
 70
     0
 62
    18
420
        0
  6
Continuous
370
    -3
390
F
347
46
  0
ENDTAB
  0
TABLE
  2
STYLE
  5
3
330
0
100
AcDbSymbolTable
 70
     1
  0
STYLE
  5
11
330
3
100
AcDbSymbolTableRecord
100
AcDbTextStyleTableRecord
  2
Standard
 70
     0
 40
0.0
 41
1.0
 50
0.0
 71
     0
 42
0.2
  3
txt
  4

  0
ENDTAB
  0
TABLE
  2
VIEW
  5
6
330
0
100
AcDbSymbolTable
 70
     0
  0
ENDTAB
  0
TABLE
  2
UCS
  5
7
330
0
100
AcDbSymbolTable
 70
     0
  0
ENDTAB
  0
TABLE
  2
APPID
  5
9
330
0
100
AcDbSymbolTable
 70
     3
  0
APPID
  5
12
330
9
100
AcDbSymbolTableRecord
100
AcDbRegAppTableRecord
  2
ACAD
 70
     0
  0
APPID
  5
5E
330
9
100
AcDbSymbolTableRecord
100
AcDbRegAppTableRecord
  2
Rhino
 70
     0
  0
APPID
  5
22A
330
9
100
AcDbSymbolTableRecord
100
AcDbRegAppTableRecord
  2
ACAD_MLEADERVER
 70
     0
  0
ENDTAB
  0
TABLE
  2
DIMSTYLE
  5
A
330
0
100
AcDbSymbolTable
 70
     1
100
AcDbDimStyleTable
  0
DIMSTYLE
105
27
330
A
100
AcDbSymbolTableRecord
100
AcDbDimStyleTableRecord
  2
STANDARD_ACAD
 70
     0
178
     0
340
11
  0
ENDTAB
  0
TABLE
  2
BLOCK_RECORD
  5
1
330
0
100
AcDbSymbolTable
 70
     1
  0
BLOCK_RECORD
  5
1F
330
1
100
AcDbSymbolTableRecord
100
AcDbBlockTableRecord
  2
*Model_Space
340
22
 70
     0
280
     1
281
     0
  0
BLOCK_RECORD
  5
1B
330
1
100
AcDbSymbolTableRecord
100
AcDbBlockTableRecord
  2
*Paper_Space
340
1E
 70
     0
280
     1
281
     0
  0
BLOCK_RECORD
  5
23
330
1
100
AcDbSymbolTableRecord
100
AcDbBlockTableRecord
  2
*Paper_Space0
340
26
 70
     0
280
     1
281
     0
  0
ENDTAB
  0
ENDSEC
  0
SECTION
  2
BLOCKS
  0
BLOCK
  5
20
330
1F
100
AcDbEntity
  8
0
100
AcDbBlockBegin
  2
*Model_Space
 70
     0
 10
0.0
 20
0.0
 30
0.0
  3
*Model_Space
  1

  0
ENDBLK
  5
21
330
1F
100
AcDbEntity
  8
0
100
AcDbBlockEnd
  0
BLOCK
  5
1C
330
1B
100
AcDbEntity
 67
     1
  8
0
100
AcDbBlockBegin
  2
*Paper_Space
 70
     0
 10
0.0
 20
0.0
 30
0.0
  3
*Paper_Space
  1

  0
ENDBLK
  5
1D
330
1B
100
AcDbEntity
 67
     1
  8
0
100
AcDbBlockEnd
  0
BLOCK
  5
24
330
23
100
AcDbEntity
  8
0
100
AcDbBlockBegin
  2
*Paper_Space0
 70
     0
 10
0.0
 20
0.0
 30
0.0
  3
*Paper_Space0
  1

  0
ENDBLK
  5
25
330
23
100
AcDbEntity
  8
0
100
AcDbBlockEnd
  0
ENDSEC
  0
SECTION
  2
ENTITIES
  0
POLYLINE
  5
60
330
1F
100
AcDbEntity
  8
Default
100
AcDb2dPolyline
 66
     1
 10
0.0
 20
0.0
 30
0.0
  0
VERTEX
  5
61
330
60
100
AcDbEntity
  8
Default
100
AcDbVertex
100
AcDb2dVertex
 10
617.5809790549735
 20
-1098.193199391209
 30
0.0
  0
VERTEX
  5
62
330
60
100
AcDbEntity
  8
Default
100
AcDbVertex
100
AcDb2dVertex
 10
617.5809790549735
 20
-1394.611662036013
 30
0.0
  0
SEQEND
  5
63
330
60
100
AcDbEntity
  8
Default
  0
POLYLINE
  5
64
330
1F
100
AcDbEntity
  8
Default
100
AcDb2dPolyline
 66
     1
 10
0.0
 20
0.0
 30
0.0
  0
VERTEX
  5
65
330
64
100
AcDbEntity
  8
Default
100
AcDbVertex
100
AcDb2dVertex
 10
633.7989048545384
 20
-1097.868840289365
 30
0.0
  0
VERTEX
  5
66
330
64
100
AcDbEntity
  8
Default
100
AcDbVertex
100
AcDb2dVertex
 10
633.7989048545384
 20
-1394.552605389919
 30
0.0
  0
SEQEND
  5
67
330
64
100
AcDbEntity
  8
Default
  0
POLYLINE
  5
68
330
1F
100
AcDbEntity
  8
Default
100
AcDb2dPolyline
 66
     1
 10
0.0
 20
0.0
 30
0.0
  0
VERTEX
  5
69
330
68
100
AcDbEntity
  8
Default
100
AcDbVertex
100
AcDb2dVertex
 10
622.9501230890982
 20
-1097.868840289365
 30
0.0
  0
VERTEX
  5
6A
330
68
100
AcDbEntity
  8
Default
100
AcDbVertex
100
AcDb2dVertex
 10
622.9501230890982
 20
-1394.552605389919
 30
0.0
  0
SEQEND
  5
6B
330
68
100
AcDbEntity
  8
Default
  0
POLYLINE
  5
6C
330
1F
100
AcDbEntity
  8
Default
100
AcDb2dPolyline
 66
     1
 10
0.0
 20
0.0
 30
0.0
  0
VERTEX
  5
6D
330
6C
100
AcDbEntity
  8
Default
100
AcDbVertex
100
AcDb2dVertex
 10
595.8446628667904
 20
-1097.825957646946
 30
0.0
  0
VERTEX
  5
6E
330
6C
100
AcDbEntity
  8
Default
100
AcDbVertex
100
AcDb2dVertex
 10
595.8446628667904
 20
-1394.221437838172
 30
0.0
  0
SEQEND
  5
6F
330
6C
100
AcDbEntity
  8
Default
  0
POLYLINE
  5
70
330
1F
100
AcDbEntity
  8
Default
100
AcDb2dPolyline
 66
     1
 10
0.0
 20
0.0
 30
0.0
  0
VERTEX
  5
71
330
70
100
AcDbEntity
  8
Default
100
AcDbVertex
100
AcDb2dVertex
 10
606.7451524634002
 20
-1097.864704712449
 30
0.0
  0
VERTEX
  5
72
330
70
100
AcDbEntity
  8
Default
100
AcDbVertex
100
AcDb2dVertex
 10
606.7451524634002
 20
-1394.260184903675
 30
0.0
  0
SEQEND
  5
73
330
70
100
AcDbEntity
  8
Default
  0
POLYLINE
  5
74
330
1F
100
AcDbEntity
  8
Default
100
AcDb2dPolyline
 66
     1
 10
0.0
 20
0.0
 30
0.0
  0
VERTEX
  5
75
330
74
100
AcDbEntity
  8
Default
100
AcDbVertex
100
AcDb2dVertex
 10
601.338163576193
 20
-1097.864704712449
 30
0.0
  0
VERTEX
  5
76
330
74
100
AcDbEntity
  8
Default
100
AcDbVertex
100
AcDb2dVertex
 10
601.338163576193
 20
-1394.260184903675
 30
0.0
  0
SEQEND
  5
77
330
74
100
AcDbEntity
  8
Default
  0
POLYLINE
  5
78
330
1F
100
AcDbEntity
  8
Default
100
AcDb2dPolyline
 66
     1
 10
0.0
 20
0.0
 30
0.0
  0
VERTEX
  5
79
330
78
100
AcDbEntity
  8
Default
100
AcDbVertex
100
AcDb2dVertex
 10
628.3707419138924
 20
-1097.868840289365
 30
0.0
  0
VERTEX
  5
7A
330
78
100
AcDbEntity
  8
Default
100
AcDbVertex
100
AcDb2dVertex
 10
628.3707419138924
 20
-1394.552605389919
 30
0.0
  0
SEQEND
  5
7B
330
78
100
AcDbEntity
  8
Default
  0
POLYLINE
  5
7C
330
1F
100
AcDbEntity
  8
Default
100
AcDb2dPolyline
 66
     1
 10
0.0
 20
0.0
 30
0.0
  0
VERTEX
  5
7D
330
7C
100
AcDbEntity
  8
Default
100
AcDbVertex
100
AcDb2dVertex
 10
612.1088854395099
 20
-1097.868840289365
 30
0.0
  0
VERTEX
  5
7E
330
7C
100
AcDbEntity
  8
Default
100
AcDbVertex
100
AcDb2dVertex
 10
612.1088854395099
 20
-1394.552605389919
 30
0.0
  0
SEQEND
  5
7F
330
7C
100
AcDbEntity
  8
Default
  0
POLYLINE
  5
80
330
1F
100
AcDbEntity
  8
Default
100
AcDb2dPolyline
 66
     1
 10
0.0
 20
0.0
 30
0.0
  0
VERTEX
  5
81
330
80
100
AcDbEntity
  8
Default
100
AcDbVertex
100
AcDb2dVertex
 10
639.4964588197689
 20
-1097.868840289365
 30
0.0
  0
VERTEX
  5
82
330
80
100
AcDbEntity
  8
Default
100
AcDbVertex
100
AcDb2dVertex
 10
639.4964588197689
 20
-1394.552605389919
 30
0.0
  0
SEQEND
  5
83
330
80
100
AcDbEntity
  8
Default
  0
SPLINE
  5
84
330
1F
100
AcDbEntity
  8
Default
100
AcDbSpline
210
0.0
220
0.0
230
1.0
 70
     8
 71
     3
 72
    62
 73
    58
 74
     0
 42
0.0000000001
 43
0.0000000001
 40
104.559634002411
 40
104.559634002411
 40
104.559634002411
 40
104.559634002411
 40
105.9641654116074
 40
108.0319764890309
 40
108.9830809764746
 40
110.4097164299762
 40
111.8812645747505
 40
113.5464769138404
 40
115.9268410743758
 40
117.0752194373976
 40
118.8879030768784
 40
123.5431013313495
 40
125.6757081455153
 40
127.6350354465436
 40
131.313311662338
 40
133.8361672348869
 40
139.5078452262195
 40
142.4664339314026
 40
147.9892689890779
 40
148.3221327615754
 40
149.7138931479102
 40
150.3697439044162
 40
154.5783285180553
 40
155.0268113414275
 40
158.3409538905429
 40
159.3124262751747
 40
160.6700928701752
 40
161.6338793107188
 40
164.5749946063549
 40
166.7085833459903
 40
171.7745702519871
 40
174.6281496707398
 40
178.7214379135032
 40
180.7679559595395
 40
182.7890407920454
 40
184.0970575151245
 40
185.8843433400446
 40
187.4419532594871
 40
188.8095110978926
 40
191.0227114607838
 40
197.5095868048824
 40
199.8022691530899
 40
205.3750712767297
 40
208.1276777645597
 40
209.0303447002275
 40
212.2650573035647
 40
214.5788270798269
 40
215.8475194909415
 40
217.7906829776044
 40
219.5500666908482
 40
221.1408248574461
 40
222.4417673944473
 40
224.7999020960772
 40
226.3972111655959
 40
230.5254573270716
 40
233.3121280080586
 40
234.5528981507081
 40
234.5528981507081
 40
234.5528981507081
 40
234.5528981507081
 10
588.529166001468
 20
-1225.949134158132
 30
0.0
 10
588.0489708436737
 20
-1225.756741942124
 30
0.0
 10
587.5037763814081
 20
-1225.292209769879
 30
0.0
 10
586.4594376609766
 20
-1224.943272143076
 30
0.0
 10
585.4288724858602
 20
-1224.57445701269
 30
0.0
 10
584.42652471059
 20
-1224.377576900212
 30
0.0
 10
583.3691795839015
 20
-1224.953747594798
 30
0.0
 10
582.3397490217665
 20
-1225.891225793083
 30
0.0
 10
581.716105392206
 20
-1227.069659922087
 30
0.0
 10
581.2443851377618
 20
-1228.330393934914
 30
0.0
 10
580.9985466419685
 20
-1230.241409825644
 30
0.0
 10
580.5795148835793
 20
-1232.362906103415
 30
0.0
 10
579.6570013160118
 20
-1234.412497953656
 30
0.0
 10
578.1540274365705
 20
-1235.707680419963
 30
0.0
 10
575.919394724009
 20
-1236.286499681527
 30
0.0
 10
573.2654662007628
 20
-1234.668630048628
 30
0.0
 10
571.448111053387
 20
-1232.485957017765
 30
0.0
 10
569.742362142021
 20
-1229.353637813608
 30
0.0
 10
568.5505441680727
 20
-1227.498484166374
 30
0.0
 10
567.6376951556954
 20
-1225.901672529464
 30
0.0
 10
567.021934337255
 20
-1225.659739169122
 30
0.0
 10
565.5058158663481
 20
-1225.305999881231
 30
0.0
 10
564.1242189534747
 20
-1225.439013097027
 30
0.0
 10
562.14131149636
 20
-1225.722056456153
 30
0.0
 10
560.9462494735585
 20
-1225.756497048451
 30
0.0
 10
559.5203806360643
 20
-1225.65669770671
 30
0.0
 10
558.748450531504
 20
-1225.329562071731
 30
0.0
 10
557.5156067461164
 20
-1224.853910089829
 30
0.0
 10
556.305161632757
 20
-1223.804889570227
 30
0.0
 10
555.1957425258688
 20
-1221.490348973248
 30
0.0
 10
554.4560937230797
 20
-1219.067769076063
 30
0.0
 10
553.3347099934801
 20
-1216.265025508004
 30
0.0
 10
552.6165730630177
 20
-1214.098880197246
 30
0.0
 10
551.5616336394678
 20
-1212.346572042346
 30
0.0
 10
550.4071304866076
 20
-1211.427751072953
 30
0.0
 10
549.0224417490973
 20
-1211.629784124547
 30
0.0
 10
548.239109836431
 20
-1212.626785431157
 30
0.0
 10
547.9339248347733
 20
-1213.774063417463
 30
0.0
 10
547.766324792739
 20
-1215.059000239715
 30
0.0
 10
547.7337927819517
 20
-1217.596560381535
 30
0.0
 10
548.2079758786691
 20
-1220.352071145883
 30
0.0
 10
549.2561555257744
 20
-1223.806036279972
 30
0.0
 10
550.086667327566
 20
-1226.344816610052
 30
0.0
 10
550.6280990133522
 20
-1228.609263833267
 30
0.0
 10
550.8235478484883
 20
-1230.332771489237
 30
0.0
 10
550.8843369439508
 20
-1231.95479334818
 30
0.0
 10
550.6462138039275
 20
-1233.68357396392
 30
0.0
 10
549.9939110801074
 20
-1234.928922685361
 30
0.0
 10
549.0292148577482
 20
-1235.798405489511
 30
0.0
 10
547.6834371954459
 20
-1236.139497110811
 30
0.0
 10
546.5136881981563
 20
-1235.866546438128
 30
0.0
 10
545.3555411745906
 20
-1235.208252576067
 30
0.0
 10
544.448604494878
 20
-1234.217821710568
 30
0.0
 10
543.2488337222726
 20
-1232.579358047303
 30
0.0
 10
542.1189052680542
 20
-1230.757747683842
 30
0.0
 10
540.4850545533795
 20
-1226.291846712393
 30
0.0
 10
539.8493595437783
 20
-1225.911607555516
 30
0.0
 10
539.6688282748528
 20
-1225.798282455467
 30
0.0
  0
SPLINE
  5
85
330
1F
100
AcDbEntity
  8
Default
100
AcDbSpline
210
0.0
220
0.0
230
1.0
 70
     8
 71
     3
 72
    38
 73
    34
 74
     0
 42
0.0000000001
 43
0.0000000001
 40
234.5528981507081
 40
234.5528981507081
 40
234.5528981507081
 40
234.5528981507081
 40
234.7972618379229
 40
236.5637718546786
 40
239.9846885705124
 40
242.8515710576322
 40
245.3989948188894
 40
249.4612397170974
 40
252.1261747559412
 40
255.142712452349
 40
257.3740733643606
 40
259.2624642514532
 40
260.8976813861297
 40
264.0046685486502
 40
266.473012358224
 40
270.2722932797388
 40
271.9572137211383
 40
272.8956216373486
 40
273.6566788595733
 40
275.3753659095063
 40
277.144462462346
 40
279.0952500581034
 40
280.0020309239692
 40
281.2348114627006
 40
285.1083666145846
 40
287.8274414483087
 40
293.1096520805371
 40
298.3965262310065
 40
301.0737373706463
 40
304.4063762100117
 40
306.7707382077989
 40
311.7585917698469
 40
319.6501323894055
 40
319.6501323894055
 40
319.6501323894055
 40
319.6501323894055
 10
539.6688282748528
 20
-1225.798282455467
 30
0.0
 10
539.6882118496948
 20
-1225.752451153469
 30
0.0
 10
539.657743780173
 20
-1225.080744022261
 30
0.0
 10
538.5259723964648
 20
-1224.31609908719
 30
0.0
 10
537.6908807971938
 20
-1222.349943008218
 30
0.0
 10
535.9061624014596
 20
-1220.946708571735
 30
0.0
 10
534.763670850582
 20
-1218.84169638921
 30
0.0
 10
534.3443789649633
 20
-1216.283603803601
 30
0.0
 10
536.0673992282784
 20
-1214.261352635235
 30
0.0
 10
538.0112426031725
 20
-1213.681973733671
 30
0.0
 10
539.5470803006865
 20
-1212.782780424995
 30
0.0
 10
540.658078575378
 20
-1211.69898068411
 30
0.0
 10
540.568374821599
 20
-1209.86643771785
 30
0.0
 10
539.0441508219002
 20
-1208.576895679008
 30
0.0
 10
536.8678326241112
 20
-1207.736682989457
 30
0.0
 10
535.1256901649328
 20
-1206.727277970919
 30
0.0
 10
533.902854512149
 20
-1205.603142284057
 30
0.0
 10
533.7863360930249
 20
-1204.629880090901
 30
0.0
 10
534.533213883406
 20
-1204.067642520923
 30
0.0
 10
535.5565300387516
 20
-1203.794673036037
 30
0.0
 10
536.9616153146926
 20
-1203.69403976819
 30
0.0
 10
538.0329881890343
 20
-1203.943129627543
 30
0.0
 10
539.2079636387282
 20
-1204.078916020626
 30
0.0
 10
539.6584817687896
 20
-1202.331143868326
 30
0.0
 10
540.5195638690113
 20
-1200.693446679721
 30
0.0
 10
540.0371487191392
 20
-1197.522782206908
 30
0.0
 10
537.7669538839338
 20
-1195.134663978205
 30
0.0
 10
535.2195452464866
 20
-1192.267010381694
 30
0.0
 10
536.1836325868895
 20
-1189.482105568164
 30
0.0
 10
536.6083426319944
 20
-1187.215270173838
 30
0.0
 10
539.369429371056
 20
-1186.205356719555
 30
0.0
 10
540.7808748189432
 20
-1182.386765967564
 30
0.0
 10
540.6866864099802
 20
-1178.423041827247
 30
0.0
 10
539.6389117444235
 20
-1176.989771602826
 30
0.0
  0
SPLINE
  5
86
330
1F
100
AcDbEntity
  8
Default
100
AcDbSpline
210
0.0
220
0.0
230
1.0
 70
     8
 71
     3
 72
    62
 73
    58
 74
     0
 42
0.0000000001
 43
0.0000000001
 40
319.6501323894055
 40
319.6501323894055
 40
319.6501323894055
 40
319.6501323894055
 40
321.054663798602
 40
323.1224748760254
 40
324.0735793634691
 40
325.5002148169707
 40
326.9717629617451
 40
328.6369753008349
 40
331.0173394613703
 40
332.1657178243922
 40
333.978401463873
 40
338.633599718344
 40
340.7662065325098
 40
342.7255338335381
 40
346.4038100493325
 40
348.9266656218815
 40
354.598343613214
 40
357.5569323183971
 40
363.0797673760724
 40
363.4126311485699
 40
364.8043915349047
 40
365.4602422914107
 40
369.6688269050497
 40
370.117309728422
 40
373.4314522775375
 40
374.4029246621692
 40
375.7605912571697
 40
376.7243776977134
 40
379.6654929933495
 40
381.7990817329848
 40
386.8650686389816
 40
389.7186480577343
 40
393.8119363004977
 40
395.858454346534
 40
397.87953917904
 40
399.187555902119
 40
400.9748417270391
 40
402.5324516464816
 40
403.9000094848871
 40
406.1132098477783
 40
412.6000851918769
 40
414.8927675400844
 40
420.4655696637242
 40
423.2181761515542
 40
424.120843087222
 40
427.3555556905592
 40
429.6693254668214
 40
430.938017877936
 40
432.8811813645989
 40
434.6405650778427
 40
436.2313232444405
 40
437.5322657814419
 40
439.8904004830717
 40
441.4877095525904
 40
445.6159557140661
 40
448.4026263950531
 40
449.6433965377026
 40
449.6433965377026
 40
449.6433965377026
 40
449.6433965377026
 10
539.6389117444235
 20
-1176.989771602826
 30
0.0
 10
539.0791109764141
 20
-1176.833014151351
 30
0.0
 10
538.5339165141484
 20
-1176.368481979106
 30
0.0
 10
537.4895777937166
 20
-1176.019544352303
 30
0.0
 10
536.4590126186006
 20
-1175.650729221917
 30
0.0
 10
535.4566648433304
 20
-1175.453849109439
 30
0.0
 10
534.3993197166417
 20
-1176.030019804025
 30
0.0
 10
533.3698891545068
 20
-1176.96749800231
 30
0.0
 10
532.7462455249466
 20
-1178.145932131314
 30
0.0
 10
532.2745252705018
 20
-1179.406666144141
 30
0.0
 10
532.0286867747091
 20
-1181.317682034871
 30
0.0
 10
531.6096550163198
 20
-1183.439178312641
 30
0.0
 10
530.6871414487523
 20
-1185.488770162883
 30
0.0
 10
529.1841675693108
 20
-1186.78395262919
 30
0.0
 10
526.9495348567496
 20
-1187.362771890754
 30
0.0
 10
524.2956063335037
 20
-1185.744902257855
 30
0.0
 10
522.4782511861281
 20
-1183.562229226992
 30
0.0
 10
520.7725022747612
 20
-1180.429910022835
 30
0.0
 10
519.5806843008129
 20
-1178.574756375601
 30
0.0
 10
518.667835288436
 20
-1176.977944738691
 30
0.0
 10
518.0520744699958
 20
-1176.73601137835
 30
0.0
 10
516.5359559990887
 20
-1176.382272090459
 30
0.0
 10
515.1543590862157
 20
-1176.515285306254
 30
0.0
 10
513.1714516291005
 20
-1176.79832866538
 30
0.0
 10
511.976389606299
 20
-1176.832769257679
 30
0.0
 10
510.5505207688047
 20
-1176.732969915937
 30
0.0
 10
509.7785906642444
 20
-1176.405834280958
 30
0.0
 10
508.545746878857
 20
-1175.930182299056
 30
0.0
 10
507.3353017654973
 20
-1174.881161779454
 30
0.0
 10
506.2258826586093
 20
-1172.566621182475
 30
0.0
 10
505.4862338558203
 20
-1170.14404128529
 30
0.0
 10
504.3648501262209
 20
-1167.341297717231
 30
0.0
 10
503.6467131957584
 20
-1165.175152406473
 30
0.0
 10
502.5917737722081
 20
-1163.422844251573
 30
0.0
 10
501.4372706193478
 20
-1162.50402328218
 30
0.0
 10
500.0525818818377
 20
-1162.706056333774
 30
0.0
 10
499.2692499691711
 20
-1163.703057640384
 30
0.0
 10
498.9640649675142
 20
-1164.85033562669
 30
0.0
 10
498.7964649254797
 20
-1166.135272448942
 30
0.0
 10
498.7639329146927
 20
-1168.672832590762
 30
0.0
 10
499.2381160114097
 20
-1171.42834335511
 30
0.0
 10
500.2862956585154
 20
-1174.882308489199
 30
0.0
 10
501.1168074603064
 20
-1177.421088819279
 30
0.0
 10
501.6582391460921
 20
-1179.685536042494
 30
0.0
 10
501.8536879812293
 20
-1181.409043698465
 30
0.0
 10
501.9144770766914
 20
-1183.031065557407
 30
0.0
 10
501.6763539366679
 20
-1184.759846173147
 30
0.0
 10
501.0240512128482
 20
-1186.005194894589
 30
0.0
 10
500.0593549904884
 20
-1186.874677698738
 30
0.0
 10
498.7135773281859
 20
-1187.215769320038
 30
0.0
 10
497.5438283308966
 20
-1186.942818647356
 30
0.0
 10
496.3856813073312
 20
-1186.284524785294
 30
0.0
 10
495.4787446276184
 20
-1185.294093919795
 30
0.0
 10
494.2789738550132
 20
-1183.65563025653
 30
0.0
 10
493.149045400795
 20
-1181.834019893069
 30
0.0
 10
491.5151946861203
 20
-1177.368118921621
 30
0.0
 10
490.9004537659013
 20
-1176.974514930919
 30
0.0
 10
490.7826208492984
 20
-1176.831524680471
 30
0.0
  0
SPLINE
  5
87
330
1F
100
AcDbEntity
  8
Default
100
AcDbSpline
210
0.0
220
0.0
230
1.0
 70
     8
 71
     3
 72
    38
 73
    34
 74
     0
 42
0.0000000001
 43
0.0000000001
 40
449.6433965377026
 40
449.6433965377026
 40
449.6433965377026
 40
449.6433965377026
 40
457.5349371572612
 40
462.5227907193092
 40
464.8871527170964
 40
468.2197915564618
 40
470.8970026961015
 40
476.183876846571
 40
481.4660874787993
 40
484.1851623125235
 40
488.0587174644074
 40
489.2914980031389
 40
490.1982788690046
 40
492.1490664647621
 40
493.9181630176017
 40
495.6368500675347
 40
496.3979072897594
 40
497.3363152059698
 40
499.0212356473693
 40
502.820516568884
 40
505.2888603784579
 40
508.3958475409783
 40
510.0310646756549
 40
511.9194555627474
 40
514.150816474759
 40
517.1673541711668
 40
519.8322892100107
 40
523.8945341082186
 40
526.4419578694758
 40
529.3088403565956
 40
532.7297570724294
 40
534.496267089185
 40
534.7406307763999
 40
534.7406307763999
 40
534.7406307763999
 40
534.7406307763999
 10
490.7826208492984
 20
-1176.831524680471
 30
0.0
 10
492.0064885003174
 20
-1178.236668857487
 30
0.0
 10
492.1006769092799
 20
-1182.200392997804
 30
0.0
 10
490.6892314613924
 20
-1186.018983749796
 30
0.0
 10
487.928144722331
 20
-1187.028897204078
 30
0.0
 10
487.503434677226
 20
-1189.295732598404
 30
0.0
 10
486.5393473368229
 20
-1192.080637411934
 30
0.0
 10
489.0867559742701
 20
-1194.948291008446
 30
0.0
 10
491.3569508094756
 20
-1197.336409237148
 30
0.0
 10
491.8393659593481
 20
-1200.507073709961
 30
0.0
 10
490.9782838591262
 20
-1202.144770898566
 30
0.0
 10
490.5277657290652
 20
-1203.892543050866
 30
0.0
 10
489.3527902793708
 20
-1203.756756657783
 30
0.0
 10
488.2814174050297
 20
-1203.50766679843
 30
0.0
 10
486.8763321290884
 20
-1203.608300066277
 30
0.0
 10
485.8530159737428
 20
-1203.881269551163
 30
0.0
 10
485.1061381833618
 20
-1204.443507121141
 30
0.0
 10
485.2226566024863
 20
-1205.416769314297
 30
0.0
 10
486.4454922552698
 20
-1206.540905001159
 30
0.0
 10
488.187634714448
 20
-1207.550310019698
 30
0.0
 10
490.3639529122365
 20
-1208.390522709248
 30
0.0
 10
491.8881769119359
 20
-1209.68006474809
 30
0.0
 10
491.9778806657152
 20
-1211.51260771435
 30
0.0
 10
490.8668823910232
 20
-1212.596407455235
 30
0.0
 10
489.3310446935097
 20
-1213.495600763911
 30
0.0
 10
487.3872013186157
 20
-1214.074979665475
 30
0.0
 10
485.6641810553002
 20
-1216.097230833841
 30
0.0
 10
486.0834729409187
 20
-1218.65532341945
 30
0.0
 10
487.2259644917958
 20
-1220.760335601975
 30
0.0
 10
489.0106828875305
 20
-1222.163570038458
 30
0.0
 10
489.845774486802
 20
-1224.129726117431
 30
0.0
 10
490.9775458705095
 20
-1224.894371052501
 30
0.0
 10
491.0080139400314
 20
-1225.566078183709
 30
0.0
 10
490.8784388103982
 20
-1225.618796457882
 30
0.0
  0
SPLINE
  5
88
330
1F
100
AcDbEntity
  8
Default
100
AcDbSpline
210
0.0
220
0.0
230
1.0
 70
     8
 71
     3
 72
    62
 73
    58
 74
     0
 42
0.0000000001
 43
0.0000000001
 40
534.7406307763999
 40
534.7406307763999
 40
534.7406307763999
 40
534.7406307763999
 40
536.1451621855964
 40
538.2129732630199
 40
539.1640777504635
 40
540.5907132039652
 40
542.0622613487395
 40
543.7274736878293
 40
546.1078378483649
 40
547.2562162113866
 40
549.0688998508674
 40
553.7240981053385
 40
555.8567049195043
 40
557.8160322205326
 40
561.494308436327
 40
564.017164008876
 40
569.6888420002085
 40
572.6474307053916
 40
578.1702657630669
 40
578.5031295355644
 40
579.8948899218992
 40
580.5507406784052
 40
584.7593252920442
 40
585.2078081154165
 40
588.5219506645319
 40
589.4934230491637
 40
590.8510896441642
 40
591.8148760847079
 40
594.755991380344
 40
596.8895801199793
 40
601.955567025976
 40
604.8091464447288
 40
608.9024346874922
 40
610.9489527335285
 40
612.9700375660344
 40
614.2780542891135
 40
616.0653401140336
 40
617.6229500334762
 40
618.9905078718816
 40
621.2037082347728
 40
627.6905835788714
 40
629.983265927079
 40
635.5560680507187
 40
638.3086745385488
 40
639.2113414742165
 40
642.4460540775536
 40
644.7598238538159
 40
646.0285162649305
 40
647.9716797515935
 40
649.7310634648372
 40
651.3218216314351
 40
652.6227641684363
 40
654.9808988700662
 40
656.5782079395849
 40
660.7064541010607
 40
663.4931247820476
 40
664.7338949246971
 40
664.7338949246971
 40
664.7338949246971
 40
664.7338949246971
 10
490.8784388103982
 20
-1225.618796457882
 30
0.0
 10
490.3982436526045
 20
-1225.426404241874
 30
0.0
 10
489.8530491903384
 20
-1224.96187206963
 30
0.0
 10
488.8087104699071
 20
-1224.612934442827
 30
0.0
 10
487.7781452947908
 20
-1224.24411931244
 30
0.0
 10
486.7757975195206
 20
-1224.047239199963
 30
0.0
 10
485.7184523928318
 20
-1224.623409894548
 30
0.0
 10
484.6890218306968
 20
-1225.560888092833
 30
0.0
 10
484.0653782011364
 20
-1226.739322221837
 30
0.0
 10
483.5936579466921
 20
-1228.000056234664
 30
0.0
 10
483.3478194508986
 20
-1229.911072125394
 30
0.0
 10
482.9287876925097
 20
-1232.032568403164
 30
0.0
 10
482.0062741249422
 20
-1234.082160253407
 30
0.0
 10
480.5033002455008
 20
-1235.377342719713
 30
0.0
 10
478.2686675329392
 20
-1235.956161981278
 30
0.0
 10
475.6147390096934
 20
-1234.338292348378
 30
0.0
 10
473.7973838623176
 20
-1232.155619317515
 30
0.0
 10
472.0916349509516
 20
-1229.023300113359
 30
0.0
 10
470.8998169770033
 20
-1227.168146466125
 30
0.0
 10
469.986967964626
 20
-1225.571334829214
 30
0.0
 10
469.3712071461858
 20
-1225.329401468873
 30
0.0
 10
467.8550886752784
 20
-1224.975662180982
 30
0.0
 10
466.4734917624054
 20
-1225.108675396777
 30
0.0
 10
464.4905843052901
 20
-1225.391718755903
 30
0.0
 10
463.2955222824891
 20
-1225.426159348202
 30
0.0
 10
461.8696534449948
 20
-1225.326360006461
 30
0.0
 10
461.0977233404345
 20
-1224.999224371481
 30
0.0
 10
459.8648795550465
 20
-1224.52357238958
 30
0.0
 10
458.6544344416874
 20
-1223.474551869977
 30
0.0
 10
457.5450153347995
 20
-1221.160011272999
 30
0.0
 10
456.80536653201
 20
-1218.737431375813
 30
0.0
 10
455.6839828024112
 20
-1215.934687807754
 30
0.0
 10
454.9658458719489
 20
-1213.768542496997
 30
0.0
 10
453.910906448398
 20
-1212.016234342096
 30
0.0
 10
452.7564032955379
 20
-1211.097413372704
 30
0.0
 10
451.371714558028
 20
-1211.299446424297
 30
0.0
 10
450.5883826453615
 20
-1212.296447730908
 30
0.0
 10
450.2831976437043
 20
-1213.443725717214
 30
0.0
 10
450.1155976016698
 20
-1214.728662539466
 30
0.0
 10
450.0830655908828
 20
-1217.266222681286
 30
0.0
 10
450.5572486875994
 20
-1220.021733445634
 30
0.0
 10
451.6054283347047
 20
-1223.475698579723
 30
0.0
 10
452.4359401364965
 20
-1226.014478909803
 30
0.0
 10
452.9773718222825
 20
-1228.278926133018
 30
0.0
 10
453.1728206574192
 20
-1230.002433788988
 30
0.0
 10
453.2336097528814
 20
-1231.624455647931
 30
0.0
 10
452.9954866128583
 20
-1233.353236263671
 30
0.0
 10
452.3431838890381
 20
-1234.598584985112
 30
0.0
 10
451.3784876666788
 20
-1235.468067789262
 30
0.0
 10
450.0327100043762
 20
-1235.809159410562
 30
0.0
 10
448.8629610070868
 20
-1235.536208737879
 30
0.0
 10
447.7048139835211
 20
-1234.877914875817
 30
0.0
 10
446.7978773038085
 20
-1233.887484010318
 30
0.0
 10
445.5981065312031
 20
-1232.249020347053
 30
0.0
 10
444.4681780769851
 20
-1230.427409983592
 30
0.0
 10
442.8343273623099
 20
-1225.961509012144
 30
0.0
 10
442.1986323527087
 20
-1225.581269855267
 30
0.0
 10
442.0728601171338
 20
-1225.429610847841
 30
0.0
  0
SPLINE
  5
89
330
1F
100
AcDbEntity
  8
Default
100
AcDbSpline
210
0.0
220
0.0
230
1.0
 70
     8
 71
     3
 72
    38
 73
    34
 74
     0
 42
0.0000000001
 43
0.0000000001
 40
664.7338949246971
 40
664.7338949246971
 40
664.7338949246971
 40
664.7338949246971
 40
664.978258611912
 40
666.7447686286677
 40
670.1656853445014
 40
673.0325678316212
 40
675.5799915928784
 40
679.6422364910864
 40
682.3071715299302
 40
685.323709226338
 40
687.5550701383496
 40
689.4434610254422
 40
691.0786781601188
 40
694.1856653226392
 40
696.6540091322131
 40
700.4532900537278
 40
702.1382104951273
 40
703.0766184113377
 40
703.8376756335624
 40
705.5563626834953
 40
707.325459236335
 40
709.2762468320925
 40
710.1830276979582
 40
711.4158082366896
 40
715.2893633885735
 40
718.0084382222977
 40
723.2906488545261
 40
728.5775230049956
 40
731.2547341446352
 40
734.5873729840007
 40
736.9517349817879
 40
741.939588543836
 40
749.8311291633945
 40
749.8311291633945
 40
749.8311291633945
 40
749.8311291633945
 10
442.0728601171338
 20
-1225.429610847841
 30
0.0
 10
442.0922436919759
 20
-1225.383779545843
 30
0.0
 10
442.0617756224536
 20
-1224.712072414635
 30
0.0
 10
440.9300042387458
 20
-1223.947427479565
 30
0.0
 10
440.0949126394745
 20
-1221.981271400591
 30
0.0
 10
438.3101942437404
 20
-1220.578036964109
 30
0.0
 10
437.167702692863
 20
-1218.473024781584
 30
0.0
 10
436.7484108072441
 20
-1215.914932195974
 30
0.0
 10
438.47143107056
 20
-1213.892681027609
 30
0.0
 10
440.4152744454535
 20
-1213.313302126045
 30
0.0
 10
441.9511121429676
 20
-1212.414108817369
 30
0.0
 10
443.062110417659
 20
-1211.330309076484
 30
0.0
 10
442.9724066638805
 20
-1209.497766110225
 30
0.0
 10
441.4481826641812
 20
-1208.208224071382
 30
0.0
 10
439.2718644663929
 20
-1207.368011381831
 30
0.0
 10
437.5297220072137
 20
-1206.358606363293
 30
0.0
 10
436.3068863544305
 20
-1205.234470676432
 30
0.0
 10
436.1903679353064
 20
-1204.261208483274
 30
0.0
 10
436.9372457256869
 20
-1203.698970913296
 30
0.0
 10
437.9605618810325
 20
-1203.426001428411
 30
0.0
 10
439.3656471569739
 20
-1203.325368160564
 30
0.0
 10
440.4370200313152
 20
-1203.574458019917
 30
0.0
 10
441.6119954810094
 20
-1203.710244413
 30
0.0
 10
442.0625136110705
 20
-1201.9624722607
 30
0.0
 10
442.9235957112928
 20
-1200.324775072095
 30
0.0
 10
442.4411805614202
 20
-1197.154110599282
 30
0.0
 10
440.1709857262145
 20
-1194.76599237058
 30
0.0
 10
437.6235770887673
 20
-1191.898338774068
 30
0.0
 10
438.5876644291705
 20
-1189.113433960538
 30
0.0
 10
439.0123744742752
 20
-1186.846598566212
 30
0.0
 10
441.7734612133369
 20
-1185.836685111929
 30
0.0
 10
443.1849066612236
 20
-1182.018094359938
 30
0.0
 10
443.0907182522611
 20
-1178.054370219621
 30
0.0
 10
441.8531464216977
 20
-1176.663621731906
 30
0.0
  0
SPLINE
  5
8A
330
1F
100
AcDbEntity
  8
Default
100
AcDbSpline
210
0.0
220
0.0
230
1.0
 70
     8
 71
     3
 72
    62
 73
    58
 74
     0
 42
0.0000000001
 43
0.0000000001
 40
749.8311291633945
 40
749.8311291633945
 40
749.8311291633945
 40
749.8311291633945
 40
751.235660572591
 40
753.3034716500144
 40
754.2545761374581
 40
755.6812115909597
 40
757.1527597357341
 40
758.8179720748238
 40
761.1983362353594
 40
762.3467145983811
 40
764.159398237862
 40
768.8145964923331
 40
770.9472033064989
 40
772.9065306075272
 40
776.5848068233215
 40
779.1076623958705
 40
784.7793403872031
 40
787.7379290923861
 40
793.2607641500615
 40
793.593627922559
 40
794.9853883088938
 40
795.6412390653998
 40
799.8498236790388
 40
800.298306502411
 40
803.6124490515265
 40
804.5839214361582
 40
805.9415880311587
 40
806.9053744717024
 40
809.8464897673385
 40
811.9800785069739
 40
817.0460654129706
 40
819.8996448317233
 40
823.9929330744868
 40
826.039451120523
 40
828.060535953029
 40
829.368552676108
 40
831.1558385010281
 40
832.7134484204707
 40
834.0810062588762
 40
836.2942066217673
 40
842.781081965866
 40
845.0737643140735
 40
850.6465664377133
 40
853.3991729255433
 40
854.3018398612111
 40
857.5365524645482
 40
859.8503222408104
 40
861.1190146519251
 40
863.062178138588
 40
864.8215618518318
 40
866.4123200184297
 40
867.7132625554309
 40
870.0713972570608
 40
871.6687063265795
 40
875.7969524880552
 40
878.5836231690422
 40
879.8243933116917
 40
879.8243933116917
 40
879.8243933116917
 40
879.8243933116917
 10
441.8531464216977
 20
-1176.663621731906
 30
0.0
 10
441.3729512639038
 20
-1176.471229515899
 30
0.0
 10
440.8277568016378
 20
-1176.006697343655
 30
0.0
 10
439.7834180812067
 20
-1175.657759716852
 30
0.0
 10
438.7528529060903
 20
-1175.288944586466
 30
0.0
 10
437.7505051308209
 20
-1175.092064473988
 30
0.0
 10
436.693160004132
 20
-1175.668235168573
 30
0.0
 10
435.6637294419966
 20
-1176.605713366858
 30
0.0
 10
435.040085812436
 20
-1177.784147495862
 30
0.0
 10
434.5683655579913
 20
-1179.04488150869
 30
0.0
 10
434.3225270621987
 20
-1180.95589739942
 30
0.0
 10
433.9034953038093
 20
-1183.077393677189
 30
0.0
 10
432.9809817362423
 20
-1185.126985527432
 30
0.0
 10
431.4780078568002
 20
-1186.422167993739
 30
0.0
 10
429.2433751442393
 20
-1187.000987255303
 30
0.0
 10
426.5894466209926
 20
-1185.383117622403
 30
0.0
 10
424.7720914736176
 20
-1183.20044459154
 30
0.0
 10
423.0663425622512
 20
-1180.068125387384
 30
0.0
 10
421.8745245883032
 20
-1178.212971740149
 30
0.0
 10
420.9616755759259
 20
-1176.616160103239
 30
0.0
 10
420.3459147574857
 20
-1176.374226742898
 30
0.0
 10
418.8297962865782
 20
-1176.020487455007
 30
0.0
 10
417.4481993737052
 20
-1176.153500670803
 30
0.0
 10
415.4652919165903
 20
-1176.436544029929
 30
0.0
 10
414.2702298937885
 20
-1176.470984622227
 30
0.0
 10
412.8443610562944
 20
-1176.371185280486
 30
0.0
 10
412.0724309517336
 20
-1176.044049645507
 30
0.0
 10
410.8395871663462
 20
-1175.568397663605
 30
0.0
 10
409.6291420529872
 20
-1174.519377144002
 30
0.0
 10
408.5197229460989
 20
-1172.204836547023
 30
0.0
 10
407.7800741433098
 20
-1169.782256649838
 30
0.0
 10
406.6586904137105
 20
-1166.979513081779
 30
0.0
 10
405.9405534832481
 20
-1164.813367771022
 30
0.0
 10
404.885614059698
 20
-1163.061059616121
 30
0.0
 10
403.7311109068372
 20
-1162.142238646729
 30
0.0
 10
402.3464221693274
 20
-1162.344271698322
 30
0.0
 10
401.5630902566611
 20
-1163.341273004933
 30
0.0
 10
401.2579052550041
 20
-1164.488550991239
 30
0.0
 10
401.0903052129692
 20
-1165.77348781349
 30
0.0
 10
401.0577732021822
 20
-1168.311047955311
 30
0.0
 10
401.5319562988993
 20
-1171.066558719659
 30
0.0
 10
402.580135946005
 20
-1174.520523853748
 30
0.0
 10
403.4106477477966
 20
-1177.059304183828
 30
0.0
 10
403.9520794335822
 20
-1179.323751407042
 30
0.0
 10
404.1475282687186
 20
-1181.047259063013
 30
0.0
 10
404.208317364181
 20
-1182.669280921956
 30
0.0
 10
403.9701942241577
 20
-1184.398061537696
 30
0.0
 10
403.317891500338
 20
-1185.643410259137
 30
0.0
 10
402.3531952779784
 20
-1186.512893063286
 30
0.0
 10
401.0074176156756
 20
-1186.853984684586
 30
0.0
 10
399.837668618386
 20
-1186.581034011904
 30
0.0
 10
398.6795215948207
 20
-1185.922740149843
 30
0.0
 10
397.7725849151081
 20
-1184.932309284343
 30
0.0
 10
396.572814142503
 20
-1183.293845621079
 30
0.0
 10
395.4428856882847
 20
-1181.472235257618
 30
0.0
 10
393.8090349736096
 20
-1177.006334286169
 30
0.0
 10
393.1733399640085
 20
-1176.626095129292
 30
0.0
 10
393.0627569572432
 20
-1176.484135734322
 30
0.0
  0
SPLINE
  5
8B
330
1F
100
AcDbEntity
  8
Default
100
AcDbSpline
210
0.0
220
0.0
230
1.0
 70
     8
 71
     3
 72
    38
 73
    34
 74
     0
 42
0.0000000001
 43
0.0000000001
 40
879.8243933116917
 40
879.8243933116917
 40
879.8243933116917
 40
879.8243933116917
 40
887.7159339312502
 40
892.7037874932983
 40
895.0681494910855
 40
898.400788330451
 40
901.0779994700906
 40
906.36487362056
 40
911.6470842527884
 40
914.3661590865127
 40
918.2397142383966
 40
919.472494777128
 40
920.3792756429937
 40
922.3300632387512
 40
924.0991597915909
 40
925.8178468415238
 40
926.5789040637485
 40
927.5173119799589
 40
929.2022324213584
 40
933.0015133428731
 40
935.4698571524469
 40
938.5768443149674
 40
940.212061449644
 40
942.1004523367366
 40
944.3318132487482
 40
947.348350945156
 40
950.0132859839998
 40
954.0755308822078
 40
956.6229546434649
 40
959.4898371305848
 40
962.9107538464185
 40
964.6772638631742
 40
964.9216275503891
 40
964.9216275503891
 40
964.9216275503891
 40
964.9216275503891
 10
393.0627569572432
 20
-1176.484135734322
 30
0.0
 10
394.300328787807
 20
-1177.874884222035
 30
0.0
 10
394.3945171967692
 20
-1181.838608362352
 30
0.0
 10
392.9830717488821
 20
-1185.657199114344
 30
0.0
 10
390.2219850098209
 20
-1186.667112568627
 30
0.0
 10
389.7972749647158
 20
-1188.933947962953
 30
0.0
 10
388.8331876243134
 20
-1191.718852776482
 30
0.0
 10
391.3805962617599
 20
-1194.586506372995
 30
0.0
 10
393.6507910969656
 20
-1196.974624601696
 30
0.0
 10
394.133206246838
 20
-1200.14528907451
 30
0.0
 10
393.2721241466156
 20
-1201.782986263114
 30
0.0
 10
392.8216060165547
 20
-1203.530758415415
 30
0.0
 10
391.6466305668608
 20
-1203.394972022332
 30
0.0
 10
390.5752576925194
 20
-1203.145882162979
 30
0.0
 10
389.1701724165778
 20
-1203.246515430826
 30
0.0
 10
388.1468562612324
 20
-1203.519484915712
 30
0.0
 10
387.3999784708517
 20
-1204.081722485689
 30
0.0
 10
387.5164968899755
 20
-1205.054984678846
 30
0.0
 10
388.739332542759
 20
-1206.179120365707
 30
0.0
 10
390.4814750019377
 20
-1207.188525384247
 30
0.0
 10
392.6577931997264
 20
-1208.028738073797
 30
0.0
 10
394.1820171994258
 20
-1209.318280112639
 30
0.0
 10
394.2717209532049
 20
-1211.150823078899
 30
0.0
 10
393.160722678513
 20
-1212.234622819784
 30
0.0
 10
391.6248849809992
 20
-1213.133816128459
 30
0.0
 10
389.6810416061053
 20
-1213.713195030024
 30
0.0
 10
387.9580213427894
 20
-1215.735446198389
 30
0.0
 10
388.3773132284077
 20
-1218.293538783999
 30
0.0
 10
389.5198047792854
 20
-1220.398550966523
 30
0.0
 10
391.3045231750201
 20
-1221.801785403007
 30
0.0
 10
392.1396147742915
 20
-1223.767941481979
 30
0.0
 10
393.2713861579992
 20
-1224.532586417049
 30
0.0
 10
393.3018542275215
 20
-1225.204293548258
 30
0.0
 10
393.282470652679
 20
-1225.250124850256
 30
0.0
  0
SPLINE
  5
8C
330
1F
100
AcDbEntity
  8
Default
100
AcDbSpline
210
0.0
220
0.0
230
1.0
 70
     8
 71
     3
 72
    38
 73
    34
 74
     0
 42
0.0000000001
 43
0.0000000001
 40
19.46239976371358
 40
19.46239976371358
 40
19.46239976371358
 40
19.46239976371358
 40
27.35394038327217
 40
32.34179394532018
 40
34.7061559431074
 40
38.03879478247283
 40
40.7160059221125
 40
46.00288007258196
 40
51.28509070481033
 40
54.00416553853451
 40
57.87772069041843
 40
59.1105012291499
 40
60.01728209501562
 40
61.96806969077308
 40
63.73716624361272
 40
65.4558532935457
 40
66.21691051577044
 40
67.1553184319808
 40
68.84023887338029
 40
72.63951979489501
 40
75.10786360446885
 40
78.21485076698933
 40
79.85006790166587
 40
81.73845878875845
 40
83.96981970077006
 40
86.98635739717784
 40
89.65129243602169
 40
93.71353733422967
 40
96.26096109548683
 40
99.12784358260663
 40
102.5487602984405
 40
104.3152703151961
 40
104.559634002411
 40
104.559634002411
 40
104.559634002411
 40
104.559634002411
 10
490.5588603223727
 20
-1128.072930784227
 30
0.0
 10
491.8004789844256
 20
-1129.45628405225
 30
0.0
 10
491.8946673933885
 20
-1133.420008192568
 30
0.0
 10
490.4832219455008
 20
-1137.238598944559
 30
0.0
 10
487.7221352064397
 20
-1138.248512398842
 30
0.0
 10
487.2974251613348
 20
-1140.515347793168
 30
0.0
 10
486.3333378209318
 20
-1143.300252606698
 30
0.0
 10
488.8807464583788
 20
-1146.16790620321
 30
0.0
 10
491.1509412935846
 20
-1148.556024431912
 30
0.0
 10
491.6333564434569
 20
-1151.726688904725
 30
0.0
 10
490.7722743432353
 20
-1153.36438609333
 30
0.0
 10
490.3217562131739
 20
-1155.11215824563
 30
0.0
 10
489.1467807634797
 20
-1154.976371852547
 30
0.0
 10
488.0754078891381
 20
-1154.727281993194
 30
0.0
 10
486.6703226131969
 20
-1154.827915261041
 30
0.0
 10
485.6470064578512
 20
-1155.100884745927
 30
0.0
 10
484.9001286674709
 20
-1155.663122315905
 30
0.0
 10
485.0166470865946
 20
-1156.636384509062
 30
0.0
 10
486.2394827393782
 20
-1157.760520195922
 30
0.0
 10
487.9816251985567
 20
-1158.769925214462
 30
0.0
 10
490.1579433963454
 20
-1159.610137904011
 30
0.0
 10
491.682167396045
 20
-1160.899679942854
 30
0.0
 10
491.7718711498239
 20
-1162.732222909114
 30
0.0
 10
490.6608728751318
 20
-1163.816022649999
 30
0.0
 10
489.1250351776181
 20
-1164.715215958675
 30
0.0
 10
487.1811918027241
 20
-1165.29459486024
 30
0.0
 10
485.458171539409
 20
-1167.316846028604
 30
0.0
 10
485.8774634250273
 20
-1169.874938614214
 30
0.0
 10
487.0199549759047
 20
-1171.979950796739
 30
0.0
 10
488.8046733716391
 20
-1173.383185233222
 30
0.0
 10
489.6397649709104
 20
-1175.349341312194
 30
0.0
 10
490.7715363546183
 20
-1176.113986247264
 30
0.0
 10
490.8020044241402
 20
-1176.785693378474
 30
0.0
 10
490.7826208492984
 20
-1176.831524680471
 30
0.0
  0
SPLINE
  5
8D
330
1F
100
AcDbEntity
  8
Default
100
AcDbSpline
210
0.0
220
0.0
230
1.0
 70
     8
 71
     3
 72
    62
 73
    58
 74
     0
 42
0.0000000001
 43
0.0000000001
 40
104.559634002411
 40
104.559634002411
 40
104.559634002411
 40
104.559634002411
 40
105.9641654116074
 40
108.0319764890309
 40
108.9830809764746
 40
110.4097164299762
 40
111.8812645747505
 40
113.5464769138404
 40
115.9268410743758
 40
117.0752194373976
 40
118.8879030768784
 40
123.5431013313495
 40
125.6757081455153
 40
127.6350354465436
 40
131.313311662338
 40
133.8361672348869
 40
139.5078452262195
 40
142.4664339314026
 40
147.9892689890779
 40
148.3221327615754
 40
149.7138931479102
 40
150.3697439044162
 40
154.5783285180553
 40
155.0268113414275
 40
158.3409538905429
 40
159.3124262751747
 40
160.6700928701752
 40
161.6338793107188
 40
164.5749946063549
 40
166.7085833459903
 40
171.7745702519871
 40
174.6281496707398
 40
178.7214379135032
 40
180.7679559595395
 40
182.7890407920454
 40
184.0970575151245
 40
185.8843433400446
 40
187.4419532594871
 40
188.8095110978926
 40
191.0227114607838
 40
197.5095868048824
 40
199.8022691530899
 40
205.3750712767297
 40
208.1276777645597
 40
209.0303447002275
 40
212.2650573035647
 40
214.5788270798269
 40
215.8475194909415
 40
217.7906829776044
 40
219.5500666908482
 40
221.1408248574461
 40
222.4417673944473
 40
224.7999020960772
 40
226.3972111655959
 40
230.5254573270716
 40
233.3121280080586
 40
234.5528981507081
 40
234.5528981507081
 40
234.5528981507081
 40
234.5528981507081
 10
490.7826208492984
 20
-1176.831524680471
 30
0.0
 10
490.1785299571684
 20
-1176.66041512594
 30
0.0
 10
489.6333354949024
 20
-1176.195882953696
 30
0.0
 10
488.588996774471
 20
-1175.846945326893
 30
0.0
 10
487.5584315993542
 20
-1175.478130196506
 30
0.0
 10
486.5560838240848
 20
-1175.281250084029
 30
0.0
 10
485.4987386973959
 20
-1175.857420778614
 30
0.0
 10
484.4693081352611
 20
-1176.794898976899
 30
0.0
 10
483.8456645057004
 20
-1177.973333105903
 30
0.0
 10
483.3739442512561
 20
-1179.234067118731
 30
0.0
 10
483.128105755463
 20
-1181.14508300946
 30
0.0
 10
482.7090739970741
 20
-1183.26657928723
 30
0.0
 10
481.7865604295062
 20
-1185.316171137473
 30
0.0
 10
480.2835865500648
 20
-1186.61135360378
 30
0.0
 10
478.0489538375036
 20
-1187.190172865343
 30
0.0
 10
475.3950253142575
 20
-1185.572303232444
 30
0.0
 10
473.577670166882
 20
-1183.389630201582
 30
0.0
 10
471.8719212555159
 20
-1180.257310997425
 30
0.0
 10
470.6801032815675
 20
-1178.40215735019
 30
0.0
 10
469.7672542691902
 20
-1176.80534571328
 30
0.0
 10
469.1514934507497
 20
-1176.563412352938
 30
0.0
 10
467.6353749798428
 20
-1176.209673065048
 30
0.0
 10
466.2537780669694
 20
-1176.342686280843
 30
0.0
 10
464.2708706098546
 20
-1176.625729639969
 30
0.0
 10
463.0758085870533
 20
-1176.660170232268
 30
0.0
 10
461.6499397495586
 20
-1176.560370890527
 30
0.0
 10
460.8780096449985
 20
-1176.233235255547
 30
0.0
 10
459.6451658596108
 20
-1175.757583273646
 30
0.0
 10
458.4347207462514
 20
-1174.708562754043
 30
0.0
 10
457.3253016393635
 20
-1172.394022157064
 30
0.0
 10
456.5856528365742
 20
-1169.971442259879
 30
0.0
 10
455.4642691069749
 20
-1167.168698691821
 30
0.0
 10
454.7461321765124
 20
-1165.002553381062
 30
0.0
 10
453.6911927529627
 20
-1163.250245226162
 30
0.0
 10
452.5366896001019
 20
-1162.331424256769
 30
0.0
 10
451.1520008625916
 20
-1162.533457308363
 30
0.0
 10
450.3686689499259
 20
-1163.530458614974
 30
0.0
 10
450.0634839482683
 20
-1164.67773660128
 30
0.0
 10
449.8958839062338
 20
-1165.962673423532
 30
0.0
 10
449.8633518954466
 20
-1168.500233565352
 30
0.0
 10
450.3375349921639
 20
-1171.255744329699
 30
0.0
 10
451.3857146392696
 20
-1174.709709463788
 30
0.0
 10
452.2162264410607
 20
-1177.248489793868
 30
0.0
 10
452.7576581268468
 20
-1179.512937017084
 30
0.0
 10
452.953106961983
 20
-1181.236444673054
 30
0.0
 10
453.0138960574458
 20
-1182.858466531996
 30
0.0
 10
452.7757729174224
 20
-1184.587247147737
 30
0.0
 10
452.1234701936021
 20
-1185.832595869178
 30
0.0
 10
451.1587739712423
 20
-1186.702078673327
 30
0.0
 10
449.8129963089402
 20
-1187.043170294627
 30
0.0
 10
448.643247311651
 20
-1186.770219621945
 30
0.0
 10
447.4851002880849
 20
-1186.111925759883
 30
0.0
 10
446.5781636083727
 20
-1185.121494894384
 30
0.0
 10
445.3783928357673
 20
-1183.483031231119
 30
0.0
 10
444.248464381549
 20
-1181.661420867659
 30
0.0
 10
442.6146136668742
 20
-1177.19551989621
 30
0.0
 10
441.9789186572731
 20
-1176.815280739332
 30
0.0
 10
441.8531464216977
 20
-1176.663621731906
 30
0.0
  0
SPLINE
  5
8E
330
1F
100
AcDbEntity
  8
Default
100
AcDbSpline
210
0.0
220
0.0
230
1.0
 70
     8
 71
     3
 72
    38
 73
    34
 74
     0
 42
0.0000000001
 43
0.0000000001
 40
234.5528981507081
 40
234.5528981507081
 40
234.5528981507081
 40
234.5528981507081
 40
234.7972618379229
 40
236.5637718546786
 40
239.9846885705124
 40
242.8515710576322
 40
245.3989948188894
 40
249.4612397170974
 40
252.1261747559412
 40
255.142712452349
 40
257.3740733643606
 40
259.2624642514532
 40
260.8976813861297
 40
264.0046685486502
 40
266.473012358224
 40
270.2722932797388
 40
271.9572137211383
 40
272.8956216373486
 40
273.6566788595733
 40
275.3753659095063
 40
277.144462462346
 40
279.0952500581034
 40
280.0020309239692
 40
281.2348114627006
 40
285.1083666145846
 40
287.8274414483087
 40
293.1096520805371
 40
298.3965262310065
 40
301.0737373706463
 40
304.4063762100117
 40
306.7707382077989
 40
311.7585917698469
 40
319.6501323894055
 40
319.6501323894055
 40
319.6501323894055
 40
319.6501323894055
 10
441.8531464216977
 20
-1176.663621731906
 30
0.0
 10
441.9923788993865
 20
-1176.603902988123
 30
0.0
 10
441.9619108298642
 20
-1175.932195856914
 30
0.0
 10
440.8301394461566
 20
-1175.167550921844
 30
0.0
 10
439.9950478468851
 20
-1173.201394842872
 30
0.0
 10
438.2103294511509
 20
-1171.798160406389
 30
0.0
 10
437.0678379002736
 20
-1169.693148223864
 30
0.0
 10
436.6485460146551
 20
-1167.135055638254
 30
0.0
 10
438.3715662779704
 20
-1165.112804469889
 30
0.0
 10
440.3154096528648
 20
-1164.533425568325
 30
0.0
 10
441.8512473503781
 20
-1163.634232259649
 30
0.0
 10
442.96224562507
 20
-1162.550432518764
 30
0.0
 10
442.8725418712912
 20
-1160.717889552504
 30
0.0
 10
441.3483178715916
 20
-1159.428347513662
 30
0.0
 10
439.1719996738029
 20
-1158.588134824111
 30
0.0
 10
437.4298572146242
 20
-1157.578729805572
 30
0.0
 10
436.207021561841
 20
-1156.454594118711
 30
0.0
 10
436.0905031427166
 20
-1155.481331925554
 30
0.0
 10
436.8373809330975
 20
-1154.919094355576
 30
0.0
 10
437.8606970884431
 20
-1154.646124870691
 30
0.0
 10
439.2657823643844
 20
-1154.545491602844
 30
0.0
 10
440.3371552387259
 20
-1154.794581462196
 30
0.0
 10
441.51213068842
 20
-1154.93036785528
 30
0.0
 10
441.9626488184812
 20
-1153.18259570298
 30
0.0
 10
442.8237309187027
 20
-1151.544898514375
 30
0.0
 10
442.341315768831
 20
-1148.374234041561
 30
0.0
 10
440.0711209336254
 20
-1145.986115812859
 30
0.0
 10
437.523712296178
 20
-1143.118462216348
 30
0.0
 10
438.4877996365809
 20
-1140.333557402818
 30
0.0
 10
438.9125096816861
 20
-1138.066722008492
 30
0.0
 10
441.6735964207472
 20
-1137.056808554209
 30
0.0
 10
443.0850418686346
 20
-1133.238217802217
 30
0.0
 10
442.9908534596722
 20
-1129.2744936619
 30
0.0
 10
441.7532816291083
 20
-1127.883745174187
 30
0.0
  0
SPLINE
  5
8F
330
1F
100
AcDbEntity
  8
Default
100
AcDbSpline
210
0.0
220
0.0
230
1.0
 70
     8
 71
     3
 72
    62
 73
    58
 74
     0
 42
0.0000000001
 43
0.0000000001
 40
104.559634002411
 40
104.559634002411
 40
104.559634002411
 40
104.559634002411
 40
105.9641654116074
 40
108.0319764890309
 40
108.9830809764746
 40
110.4097164299762
 40
111.8812645747505
 40
113.5464769138404
 40
115.9268410743758
 40
117.0752194373976
 40
118.8879030768784
 40
123.5431013313495
 40
125.6757081455153
 40
127.6350354465436
 40
131.313311662338
 40
133.8361672348869
 40
139.5078452262195
 40
142.4664339314026
 40
147.9892689890779
 40
148.3221327615754
 40
149.7138931479102
 40
150.3697439044162
 40
154.5783285180553
 40
155.0268113414275
 40
158.3409538905429
 40
159.3124262751747
 40
160.6700928701752
 40
161.6338793107188
 40
164.5749946063549
 40
166.7085833459903
 40
171.7745702519871
 40
174.6281496707398
 40
178.7214379135032
 40
180.7679559595395
 40
182.7890407920454
 40
184.0970575151245
 40
185.8843433400446
 40
187.4419532594871
 40
188.8095110978926
 40
191.0227114607838
 40
197.5095868048824
 40
199.8022691530899
 40
205.3750712767297
 40
208.1276777645597
 40
209.0303447002275
 40
212.2650573035647
 40
214.5788270798269
 40
215.8475194909415
 40
217.7906829776044
 40
219.5500666908482
 40
221.1408248574461
 40
222.4417673944473
 40
224.7999020960772
 40
226.3972111655959
 40
230.5254573270716
 40
233.3121280080586
 40
234.5528981507081
 40
234.5528981507081
 40
234.5528981507081
 40
234.5528981507081
 10
588.7488796969033
 20
-1274.715123274065
 30
0.0
 10
588.2686845391095
 20
-1274.522731058058
 30
0.0
 10
587.723490076844
 20
-1274.058198885814
 30
0.0
 10
586.6791513564127
 20
-1273.709261259011
 30
0.0
 10
585.648586181296
 20
-1273.340446128624
 30
0.0
 10
584.6462384060258
 20
-1273.143566016147
 30
0.0
 10
583.5888932793378
 20
-1273.719736710732
 30
0.0
 10
582.5594627172027
 20
-1274.657214909017
 30
0.0
 10
581.9358190876419
 20
-1275.835649038021
 30
0.0
 10
581.4640988331973
 20
-1277.096383050848
 30
0.0
 10
581.2182603374046
 20
-1279.007398941578
 30
0.0
 10
580.7992285790152
 20
-1281.128895219348
 30
0.0
 10
579.8767150114477
 20
-1283.178487069591
 30
0.0
 10
578.3737411320062
 20
-1284.473669535897
 30
0.0
 10
576.139108419445
 20
-1285.052488797461
 30
0.0
 10
573.485179896199
 20
-1283.434619164562
 30
0.0
 10
571.6678247488231
 20
-1281.251946133699
 30
0.0
 10
569.9620758374572
 20
-1278.119626929543
 30
0.0
 10
568.7702578635085
 20
-1276.264473282308
 30
0.0
 10
567.8574088511313
 20
-1274.667661645398
 30
0.0
 10
567.2416480326913
 20
-1274.425728285057
 30
0.0
 10
565.7255295617836
 20
-1274.071988997166
 30
0.0
 10
564.3439326489108
 20
-1274.205002212961
 30
0.0
 10
562.3610251917959
 20
-1274.488045572086
 30
0.0
 10
561.1659631689945
 20
-1274.522486164385
 30
0.0
 10
559.7400943315001
 20
-1274.422686822644
 30
0.0
 10
558.9681642269396
 20
-1274.095551187665
 30
0.0
 10
557.7353204415522
 20
-1273.619899205763
 30
0.0
 10
556.5248753281925
 20
-1272.570878686161
 30
0.0
 10
555.4154562213046
 20
-1270.256338089182
 30
0.0
 10
554.6758074185153
 20
-1267.833758191997
 30
0.0
 10
553.5544236889165
 20
-1265.031014623938
 30
0.0
 10
552.836286758454
 20
-1262.86486931318
 30
0.0
 10
551.7813473349034
 20
-1261.11256115828
 30
0.0
 10
550.6268441820432
 20
-1260.193740188887
 30
0.0
 10
549.2421554445327
 20
-1260.395773240481
 30
0.0
 10
548.4588235318664
 20
-1261.392774547092
 30
0.0
 10
548.1536385302095
 20
-1262.540052533398
 30
0.0
 10
547.9860384881749
 20
-1263.824989355649
 30
0.0
 10
547.9535064773879
 20
-1266.362549497469
 30
0.0
 10
548.427689574105
 20
-1269.118060261817
 30
0.0
 10
549.47586922121
 20
-1272.572025395906
 30
0.0
 10
550.3063810230019
 20
-1275.110805725986
 30
0.0
 10
550.8478127087874
 20
-1277.375252949201
 30
0.0
 10
551.0432615439245
 20
-1279.098760605172
 30
0.0
 10
551.1040506393866
 20
-1280.720782464114
 30
0.0
 10
550.8659274993632
 20
-1282.449563079854
 30
0.0
 10
550.2136247755435
 20
-1283.694911801296
 30
0.0
 10
549.2489285531838
 20
-1284.564394605445
 30
0.0
 10
547.903150890881
 20
-1284.905486226745
 30
0.0
 10
546.7334018935921
 20
-1284.632535554063
 30
0.0
 10
545.5752548700266
 20
-1283.974241692001
 30
0.0
 10
544.6683181903135
 20
-1282.983810826502
 30
0.0
 10
543.4685474177084
 20
-1281.345347163237
 30
0.0
 10
542.33861896349
 20
-1279.523736799776
 30
0.0
 10
540.7047682488153
 20
-1275.057835828328
 30
0.0
 10
540.0690732392143
 20
-1274.67759667145
 30
0.0
 10
539.8885419702885
 20
-1274.564271571401
 30
0.0
  0
SPLINE
  5
90
330
1F
100
AcDbEntity
  8
Default
100
AcDbSpline
210
0.0
220
0.0
230
1.0
 70
     8
 71
     3
 72
    38
 73
    34
 74
     0
 42
0.0000000001
 43
0.0000000001
 40
234.5528981507081
 40
234.5528981507081
 40
234.5528981507081
 40
234.5528981507081
 40
234.7972618379229
 40
236.5637718546786
 40
239.9846885705124
 40
242.8515710576322
 40
245.3989948188894
 40
249.4612397170974
 40
252.1261747559412
 40
255.142712452349
 40
257.3740733643606
 40
259.2624642514532
 40
260.8976813861297
 40
264.0046685486502
 40
266.473012358224
 40
270.2722932797388
 40
271.9572137211383
 40
272.8956216373486
 40
273.6566788595733
 40
275.3753659095063
 40
277.144462462346
 40
279.0952500581034
 40
280.0020309239692
 40
281.2348114627006
 40
285.1083666145846
 40
287.8274414483087
 40
293.1096520805371
 40
298.3965262310065
 40
301.0737373706463
 40
304.4063762100117
 40
306.7707382077989
 40
311.7585917698469
 40
319.6501323894055
 40
319.6501323894055
 40
319.6501323894055
 40
319.6501323894055
 10
539.8885419702885
 20
-1274.564271571401
 30
0.0
 10
539.9079255451305
 20
-1274.518440269404
 30
0.0
 10
539.8774574756086
 20
-1273.846733138195
 30
0.0
 10
538.7456860919006
 20
-1273.082088203124
 30
0.0
 10
537.9105944926293
 20
-1271.115932124152
 30
0.0
 10
536.1258760968954
 20
-1269.712697687669
 30
0.0
 10
534.9833845460171
 20
-1267.607685505145
 30
0.0
 10
534.5640926603991
 20
-1265.049592919535
 30
0.0
 10
536.2871129237144
 20
-1263.02734175117
 30
0.0
 10
538.2309562986086
 20
-1262.447962849605
 30
0.0
 10
539.7667939961223
 20
-1261.548769540929
 30
0.0
 10
540.8777922708139
 20
-1260.464969800045
 30
0.0
 10
540.7880885170355
 20
-1258.632426833785
 30
0.0
 10
539.2638645173356
 20
-1257.342884794942
 30
0.0
 10
537.0875463195471
 20
-1256.502672105392
 30
0.0
 10
535.3454038603687
 20
-1255.493267086853
 30
0.0
 10
534.122568207585
 20
-1254.369131399992
 30
0.0
 10
534.0060497884609
 20
-1253.395869206835
 30
0.0
 10
534.7529275788421
 20
-1252.833631636857
 30
0.0
 10
535.7762437341875
 20
-1252.560662151971
 30
0.0
 10
537.1813290101286
 20
-1252.460028884125
 30
0.0
 10
538.2527018844704
 20
-1252.709118743477
 30
0.0
 10
539.4276773341644
 20
-1252.84490513656
 30
0.0
 10
539.8781954642252
 20
-1251.09713298426
 30
0.0
 10
540.7392775644472
 20
-1249.459435795656
 30
0.0
 10
540.2568624145754
 20
-1246.288771322842
 30
0.0
 10
537.9866675793695
 20
-1243.90065309414
 30
0.0
 10
535.4392589419225
 20
-1241.032999497629
 30
0.0
 10
536.4033462823253
 20
-1238.248094684099
 30
0.0
 10
536.8280563274302
 20
-1235.981259289772
 30
0.0
 10
539.5891430664917
 20
-1234.97134583549
 30
0.0
 10
541.0005885143788
 20
-1231.152755083498
 30
0.0
 10
540.906400105416
 20
-1227.189030943181
 30
0.0
 10
539.6688282748528
 20
-1225.798282455467
 30
0.0
  0
SPLINE
  5
91
330
1F
100
AcDbEntity
  8
Default
100
AcDbSpline
210
0.0
220
0.0
230
1.0
 70
     8
 71
     3
 72
    62
 73
    58
 74
     0
 42
0.0000000001
 43
0.0000000001
 40
319.6501323894055
 40
319.6501323894055
 40
319.6501323894055
 40
319.6501323894055
 40
321.054663798602
 40
323.1224748760254
 40
324.0735793634691
 40
325.5002148169707
 40
326.9717629617451
 40
328.6369753008349
 40
331.0173394613703
 40
332.1657178243922
 40
333.978401463873
 40
338.633599718344
 40
340.7662065325098
 40
342.7255338335381
 40
346.4038100493325
 40
348.9266656218815
 40
354.598343613214
 40
357.5569323183971
 40
363.0797673760724
 40
363.4126311485699
 40
364.8043915349047
 40
365.4602422914107
 40
369.6688269050497
 40
370.117309728422
 40
373.4314522775375
 40
374.4029246621692
 40
375.7605912571697
 40
376.7243776977134
 40
379.6654929933495
 40
381.7990817329848
 40
386.8650686389816
 40
389.7186480577343
 40
393.8119363004977
 40
395.858454346534
 40
397.87953917904
 40
399.187555902119
 40
400.9748417270391
 40
402.5324516464816
 40
403.9000094848871
 40
406.1132098477783
 40
412.6000851918769
 40
414.8927675400844
 40
420.4655696637242
 40
423.2181761515542
 40
424.120843087222
 40
427.3555556905592
 40
429.6693254668214
 40
430.938017877936
 40
432.8811813645989
 40
434.6405650778427
 40
436.2313232444405
 40
437.5322657814419
 40
439.8904004830717
 40
441.4877095525904
 40
445.6159557140661
 40
448.4026263950531
 40
449.6433965377026
 40
449.6433965377026
 40
449.6433965377026
 40
449.6433965377026
 10
539.6688282748528
 20
-1225.798282455467
 30
0.0
 10
539.1886331170592
 20
-1225.605890239459
 30
0.0
 10
538.643438654793
 20
-1225.141358067215
 30
0.0
 10
537.5990999343614
 20
-1224.792420440412
 30
0.0
 10
536.5685347592452
 20
-1224.423605310026
 30
0.0
 10
535.5661869839754
 20
-1224.226725197548
 30
0.0
 10
534.5088418572863
 20
-1224.802895892133
 30
0.0
 10
533.4794112951513
 20
-1225.740374090418
 30
0.0
 10
532.855767665591
 20
-1226.918808219422
 30
0.0
 10
532.384047411146
 20
-1228.17954223225
 30
0.0
 10
532.1382089153532
 20
-1230.090558122979
 30
0.0
 10
531.719177156964
 20
-1232.21205440075
 30
0.0
 10
530.7966635893968
 20
-1234.261646250992
 30
0.0
 10
529.2936897099551
 20
-1235.556828717299
 30
0.0
 10
527.0590569973941
 20
-1236.135647978863
 30
0.0
 10
524.4051284741478
 20
-1234.517778345964
 30
0.0
 10
522.5877733267723
 20
-1232.3351053151
 30
0.0
 10
520.882024415406
 20
-1229.202786110943
 30
0.0
 10
519.690206441458
 20
-1227.34763246371
 30
0.0
 10
518.7773574290804
 20
-1225.7508208268
 30
0.0
 10
518.1615966106406
 20
-1225.508887466458
 30
0.0
 10
516.6454781397334
 20
-1225.155148178567
 30
0.0
 10
515.2638812268599
 20
-1225.288161394363
 30
0.0
 10
513.2809737697452
 20
-1225.571204753488
 30
0.0
 10
512.0859117469435
 20
-1225.605645345787
 30
0.0
 10
510.6600429094492
 20
-1225.505846004046
 30
0.0
 10
509.888112804889
 20
-1225.178710369067
 30
0.0
 10
508.6552690195017
 20
-1224.703058387165
 30
0.0
 10
507.4448239061417
 20
-1223.654037867563
 30
0.0
 10
506.3354047992541
 20
-1221.339497270584
 30
0.0
 10
505.5957559964644
 20
-1218.916917373399
 30
0.0
 10
504.4743722668655
 20
-1216.11417380534
 30
0.0
 10
503.7562353364028
 20
-1213.948028494581
 30
0.0
 10
502.7012959128527
 20
-1212.195720339682
 30
0.0
 10
501.5467927599921
 20
-1211.276899370289
 30
0.0
 10
500.1621040224823
 20
-1211.478932421882
 30
0.0
 10
499.3787721098157
 20
-1212.475933728493
 30
0.0
 10
499.0735871081589
 20
-1213.623211714799
 30
0.0
 10
498.9059870661243
 20
-1214.908148537052
 30
0.0
 10
498.8734550553373
 20
-1217.445708678871
 30
0.0
 10
499.3476381520539
 20
-1220.201219443219
 30
0.0
 10
500.3958177991594
 20
-1223.655184577307
 30
0.0
 10
501.2263296009513
 20
-1226.193964907388
 30
0.0
 10
501.7677612867363
 20
-1228.458412130602
 30
0.0
 10
501.9632101218738
 20
-1230.181919786573
 30
0.0
 10
502.023999217336
 20
-1231.803941645516
 30
0.0
 10
501.7858760773123
 20
-1233.532722261256
 30
0.0
 10
501.1335733534928
 20
-1234.778070982697
 30
0.0
 10
500.1688771311329
 20
-1235.647553786847
 30
0.0
 10
498.8230994688304
 20
-1235.988645408147
 30
0.0
 10
497.6533504715412
 20
-1235.715694735464
 30
0.0
 10
496.4952034479757
 20
-1235.057400873402
 30
0.0
 10
495.5882667682625
 20
-1234.066970007904
 30
0.0
 10
494.3884959956576
 20
-1232.428506344639
 30
0.0
 10
493.258567541439
 20
-1230.606895981178
 30
0.0
 10
491.6247168267644
 20
-1226.14099500973
 30
0.0
 10
490.9890218171633
 20
-1225.760755852851
 30
0.0
 10
490.8784388103982
 20
-1225.618796457882
 30
0.0
  0
SPLINE
  5
92
330
1F
100
AcDbEntity
  8
Default
100
AcDbSpline
210
0.0
220
0.0
230
1.0
 70
     8
 71
     3
 72
    38
 73
    34
 74
     0
 42
0.0000000001
 43
0.0000000001
 40
449.6433965377026
 40
449.6433965377026
 40
449.6433965377026
 40
449.6433965377026
 40
457.5349371572612
 40
462.5227907193092
 40
464.8871527170964
 40
468.2197915564618
 40
470.8970026961015
 40
476.183876846571
 40
481.4660874787993
 40
484.1851623125235
 40
488.0587174644074
 40
489.2914980031389
 40
490.1982788690046
 40
492.1490664647621
 40
493.9181630176017
 40
495.6368500675347
 40
496.3979072897594
 40
497.3363152059698
 40
499.0212356473693
 40
502.820516568884
 40
505.2888603784579
 40
508.3958475409783
 40
510.0310646756549
 40
511.9194555627474
 40
514.150816474759
 40
517.1673541711668
 40
519.8322892100107
 40
523.8945341082186
 40
526.4419578694758
 40
529.3088403565956
 40
532.7297570724294
 40
534.496267089185
 40
534.7406307763999
 40
534.7406307763999
 40
534.7406307763999
 40
534.7406307763999
 10
490.8784388103982
 20
-1225.618796457882
 30
0.0
 10
492.1160106409616
 20
-1227.009544945596
 30
0.0
 10
492.210199049924
 20
-1230.973269085913
 30
0.0
 10
490.7987536020368
 20
-1234.791859837904
 30
0.0
 10
488.0376668629756
 20
-1235.801773292187
 30
0.0
 10
487.6129568178706
 20
-1238.068608686514
 30
0.0
 10
486.6488694774677
 20
-1240.853513500043
 30
0.0
 10
489.1962781149148
 20
-1243.721167096555
 30
0.0
 10
491.4664729501204
 20
-1246.109285325256
 30
0.0
 10
491.9488880999928
 20
-1249.27994979807
 30
0.0
 10
491.0878059997706
 20
-1250.917646986675
 30
0.0
 10
490.63728786971
 20
-1252.665419138975
 30
0.0
 10
489.4623124200153
 20
-1252.529632745892
 30
0.0
 10
488.3909395456739
 20
-1252.280542886539
 30
0.0
 10
486.9858542697327
 20
-1252.381176154386
 30
0.0
 10
485.962538114387
 20
-1252.654145639272
 30
0.0
 10
485.2156603240066
 20
-1253.216383209249
 30
0.0
 10
485.3321787431304
 20
-1254.189645402406
 30
0.0
 10
486.5550143959143
 20
-1255.313781089268
 30
0.0
 10
488.2971568550927
 20
-1256.323186107807
 30
0.0
 10
490.4734750528812
 20
-1257.163398797357
 30
0.0
 10
491.9976990525807
 20
-1258.452940836199
 30
0.0
 10
492.0874028063594
 20
-1260.28548380246
 30
0.0
 10
490.9764045316679
 20
-1261.369283543344
 30
0.0
 10
489.4405668341539
 20
-1262.26847685202
 30
0.0
 10
487.4967234592602
 20
-1262.847855753584
 30
0.0
 10
485.7737031959444
 20
-1264.870106921949
 30
0.0
 10
486.192995081563
 20
-1267.428199507559
 30
0.0
 10
487.3354866324404
 20
-1269.533211690084
 30
0.0
 10
489.1202050281751
 20
-1270.936446126567
 30
0.0
 10
489.955296627446
 20
-1272.902602205539
 30
0.0
 10
491.0870680111544
 20
-1273.66724714061
 30
0.0
 10
491.1175360806761
 20
-1274.338954271818
 30
0.0
 10
491.0981525058342
 20
-1274.384785573816
 30
0.0
  0
SPLINE
  5
93
330
1F
100
AcDbEntity
  8
Default
100
AcDbSpline
210
0.0
220
0.0
230
1.0
 70
     8
 71
     3
 72
    62
 73
    58
 74
     0
 42
0.0000000001
 43
0.0000000001
 40
534.7406307763999
 40
534.7406307763999
 40
534.7406307763999
 40
534.7406307763999
 40
536.1451621855964
 40
538.2129732630199
 40
539.1640777504635
 40
540.5907132039652
 40
542.0622613487395
 40
543.7274736878293
 40
546.1078378483649
 40
547.2562162113866
 40
549.0688998508674
 40
553.7240981053385
 40
555.8567049195043
 40
557.8160322205326
 40
561.494308436327
 40
564.017164008876
 40
569.6888420002085
 40
572.6474307053916
 40
578.1702657630669
 40
578.5031295355644
 40
579.8948899218992
 40
580.5507406784052
 40
584.7593252920442
 40
585.2078081154165
 40
588.5219506645319
 40
589.4934230491637
 40
590.8510896441642
 40
591.8148760847079
 40
594.755991380344
 40
596.8895801199793
 40
601.955567025976
 40
604.8091464447288
 40
608.9024346874922
 40
610.9489527335285
 40
612.9700375660344
 40
614.2780542891135
 40
616.0653401140336
 40
617.6229500334762
 40
618.9905078718816
 40
621.2037082347728
 40
627.6905835788714
 40
629.983265927079
 40
635.5560680507187
 40
638.3086745385488
 40
639.2113414742165
 40
642.4460540775536
 40
644.7598238538159
 40
646.0285162649305
 40
647.9716797515935
 40
649.7310634648372
 40
651.3218216314351
 40
652.6227641684363
 40
654.9808988700662
 40
656.5782079395849
 40
660.7064541010607
 40
663.4931247820476
 40
664.7338949246971
 40
664.7338949246971
 40
664.7338949246971
 40
664.7338949246971
 10
491.0981525058342
 20
-1274.384785573816
 30
0.0
 10
490.6179573480397
 20
-1274.192393357808
 30
0.0
 10
490.0727628857744
 20
-1273.727861185564
 30
0.0
 10
489.0284241653429
 20
-1273.378923558761
 30
0.0
 10
487.9978589902265
 20
-1273.010108428375
 30
0.0
 10
486.9955112149564
 20
-1272.813228315897
 30
0.0
 10
485.938166088268
 20
-1273.389399010482
 30
0.0
 10
484.9087355261331
 20
-1274.326877208767
 30
0.0
 10
484.2850918965723
 20
-1275.505311337771
 30
0.0
 10
483.8133716421277
 20
-1276.766045350599
 30
0.0
 10
483.5675331463349
 20
-1278.677061241328
 30
0.0
 10
483.1485013879455
 20
-1280.798557519099
 30
0.0
 10
482.2259878203781
 20
-1282.848149369341
 30
0.0
 10
480.7230139409365
 20
-1284.143331835648
 30
0.0
 10
478.488381228375
 20
-1284.722151097212
 30
0.0
 10
475.8344527051295
 20
-1283.104281464312
 30
0.0
 10
474.0170975577538
 20
-1280.921608433449
 30
0.0
 10
472.3113486463873
 20
-1277.789289229292
 30
0.0
 10
471.1195306724391
 20
-1275.934135582059
 30
0.0
 10
470.2066816600621
 20
-1274.337323945148
 30
0.0
 10
469.5909208416214
 20
-1274.095390584807
 30
0.0
 10
468.0748023707143
 20
-1273.741651296916
 30
0.0
 10
466.6932054578413
 20
-1273.874664512712
 30
0.0
 10
464.7102980007262
 20
-1274.157707871837
 30
0.0
 10
463.5152359779245
 20
-1274.192148464136
 30
0.0
 10
462.0893671404306
 20
-1274.092349122395
 30
0.0
 10
461.3174370358705
 20
-1273.765213487416
 30
0.0
 10
460.0845932504827
 20
-1273.289561505514
 30
0.0
 10
458.874148137123
 20
-1272.240540985911
 30
0.0
 10
457.7647290302356
 20
-1269.926000388933
 30
0.0
 10
457.0250802274455
 20
-1267.503420491748
 30
0.0
 10
455.9036964978467
 20
-1264.700676923689
 30
0.0
 10
455.1855595673836
 20
-1262.534531612931
 30
0.0
 10
454.1306201438341
 20
-1260.782223458031
 30
0.0
 10
452.9761169909739
 20
-1259.863402488638
 30
0.0
 10
451.5914282534636
 20
-1260.065435540231
 30
0.0
 10
450.8080963407973
 20
-1261.062436846842
 30
0.0
 10
450.5029113391399
 20
-1262.209714833148
 30
0.0
 10
450.3353112971059
 20
-1263.4946516554
 30
0.0
 10
450.3027792863184
 20
-1266.03221179722
 30
0.0
 10
450.7769623830355
 20
-1268.787722561568
 30
0.0
 10
451.8251420301405
 20
-1272.241687695657
 30
0.0
 10
452.6556538319327
 20
-1274.780468025737
 30
0.0
 10
453.1970855177183
 20
-1277.044915248952
 30
0.0
 10
453.392534352855
 20
-1278.768422904922
 30
0.0
 10
453.4533234483172
 20
-1280.390444763864
 30
0.0
 10
453.2152003082937
 20
-1282.119225379605
 30
0.0
 10
452.5628975844738
 20
-1283.364574101046
 30
0.0
 10
451.5982013621143
 20
-1284.234056905196
 30
0.0
 10
450.2524236998116
 20
-1284.575148526496
 30
0.0
 10
449.0826747025222
 20
-1284.302197853813
 30
0.0
 10
447.9245276789567
 20
-1283.643903991751
 30
0.0
 10
447.0175909992444
 20
-1282.653473126252
 30
0.0
 10
445.8178202266389
 20
-1281.015009462988
 30
0.0
 10
444.6878917724202
 20
-1279.193399099527
 30
0.0
 10
443.0540410577455
 20
-1274.727498128078
 30
0.0
 10
442.4183460481444
 20
-1274.347258971201
 30
0.0
 10
442.2925738125699
 20
-1274.195599963776
 30
0.0
  0
SPLINE
  5
94
330
1F
100
AcDbEntity
  8
Default
100
AcDbSpline
210
0.0
220
0.0
230
1.0
 70
     8
 71
     3
 72
    38
 73
    34
 74
     0
 42
0.0000000001
 43
0.0000000001
 40
664.7338949246971
 40
664.7338949246971
 40
664.7338949246971
 40
664.7338949246971
 40
672.6254355442557
 40
677.6132891063037
 40
679.9776511040909
 40
683.3102899434564
 40
685.987501083096
 40
691.2743752335655
 40
696.5565858657939
 40
699.2756606995181
 40
703.149215851402
 40
704.3819963901334
 40
705.2887772559991
 40
707.2395648517567
 40
709.0086614045963
 40
710.7273484545292
 40
711.4884056767539
 40
712.4268135929643
 40
714.1117340343638
 40
717.9110149558785
 40
720.3793587654524
 40
723.4863459279728
 40
725.1215630626494
 40
727.009953949742
 40
729.2413148617536
 40
732.2578525581614
 40
734.9227875970053
 40
738.9850324952132
 40
741.5324562564704
 40
744.3993387435902
 40
747.820255459424
 40
749.5867654761796
 40
749.8311291633945
 40
749.8311291633945
 40
749.8311291633945
 40
749.8311291633945
 10
442.2925738125699
 20
-1274.195599963776
 30
0.0
 10
443.5453348719425
 20
-1275.596048063944
 30
0.0
 10
443.6395232809051
 20
-1279.559772204262
 30
0.0
 10
442.2280778330182
 20
-1283.378362956253
 30
0.0
 10
439.4669910939567
 20
-1284.388276410536
 30
0.0
 10
439.0422810488521
 20
-1286.655111804863
 30
0.0
 10
438.0781937084495
 20
-1289.440016618392
 30
0.0
 10
440.6256023458961
 20
-1292.307670214904
 30
0.0
 10
442.8957971811019
 20
-1294.695788443606
 30
0.0
 10
443.3782123309742
 20
-1297.866452916419
 30
0.0
 10
442.5171302307519
 20
-1299.504150105023
 30
0.0
 10
442.0666121006907
 20
-1301.251922257324
 30
0.0
 10
440.8916366509964
 20
-1301.116135864241
 30
0.0
 10
439.8202637766556
 20
-1300.867046004888
 30
0.0
 10
438.4151785007141
 20
-1300.967679272735
 30
0.0
 10
437.3918623453684
 20
-1301.240648757621
 30
0.0
 10
436.6449845549877
 20
-1301.802886327598
 30
0.0
 10
436.761502974112
 20
-1302.776148520755
 30
0.0
 10
437.9843386268955
 20
-1303.900284207617
 30
0.0
 10
439.7264810860737
 20
-1304.909689226155
 30
0.0
 10
441.9027992838622
 20
-1305.749901915706
 30
0.0
 10
443.4270232835621
 20
-1307.039443954548
 30
0.0
 10
443.5167270373404
 20
-1308.871986920808
 30
0.0
 10
442.4057287626496
 20
-1309.955786661693
 30
0.0
 10
440.8698910651354
 20
-1310.854979970369
 30
0.0
 10
438.9260476902409
 20
-1311.434358871933
 30
0.0
 10
437.2030274269257
 20
-1313.456610040298
 30
0.0
 10
437.6223193125441
 20
-1316.014702625909
 30
0.0
 10
438.7648108634216
 20
-1318.119714808432
 30
0.0
 10
440.5495292591559
 20
-1319.522949244916
 30
0.0
 10
441.3846208584275
 20
-1321.489105323888
 30
0.0
 10
442.5163922421355
 20
-1322.253750258958
 30
0.0
 10
442.5568562659579
 20
-1322.933931943783
 30
0.0
 10
442.5122875080057
 20
-1322.961589079709
 30
0.0
  0
SPLINE
  5
95
330
1F
100
AcDbEntity
  8
Default
100
AcDbSpline
210
0.0
220
0.0
230
1.0
 70
     8
 71
     3
 72
    62
 73
    58
 74
     0
 42
0.0000000001
 43
0.0000000001
 40
104.559634002411
 40
104.559634002411
 40
104.559634002411
 40
104.559634002411
 40
105.9641654116074
 40
108.0319764890309
 40
108.9830809764746
 40
110.4097164299762
 40
111.8812645747505
 40
113.5464769138404
 40
115.9268410743758
 40
117.0752194373976
 40
118.8879030768784
 40
123.5431013313495
 40
125.6757081455153
 40
127.6350354465436
 40
131.313311662338
 40
133.8361672348869
 40
139.5078452262195
 40
142.4664339314026
 40
147.9892689890779
 40
148.3221327615754
 40
149.7138931479102
 40
150.3697439044162
 40
154.5783285180553
 40
155.0268113414275
 40
158.3409538905429
 40
159.3124262751747
 40
160.6700928701752
 40
161.6338793107188
 40
164.5749946063549
 40
166.7085833459903
 40
171.7745702519871
 40
174.6281496707398
 40
178.7214379135032
 40
180.7679559595395
 40
182.7890407920454
 40
184.0970575151245
 40
185.8843433400446
 40
187.4419532594871
 40
188.8095110978926
 40
191.0227114607838
 40
197.5095868048824
 40
199.8022691530899
 40
205.3750712767297
 40
208.1276777645597
 40
209.0303447002275
 40
212.2650573035647
 40
214.5788270798269
 40
215.8475194909415
 40
217.7906829776044
 40
219.5500666908482
 40
221.1408248574461
 40
222.4417673944473
 40
224.7999020960772
 40
226.3972111655959
 40
230.5254573270716
 40
233.3121280080586
 40
234.5528981507081
 40
234.5528981507081
 40
234.5528981507081
 40
234.5528981507081
 10
588.9685933923395
 20
-1323.481112389999
 30
0.0
 10
588.4883982345457
 20
-1323.288720173992
 30
0.0
 10
587.9432037722797
 20
-1322.824188001748
 30
0.0
 10
586.8988650518485
 20
-1322.475250374945
 30
0.0
 10
585.8682998767318
 20
-1322.106435244558
 30
0.0
 10
584.8659521014617
 20
-1321.909555132081
 30
0.0
 10
583.8086069747733
 20
-1322.485725826666
 30
0.0
 10
582.7791764126385
 20
-1323.423204024951
 30
0.0
 10
582.1555327830777
 20
-1324.601638153955
 30
0.0
 10
581.6838125286333
 20
-1325.862372166782
 30
0.0
 10
581.4379740328402
 20
-1327.773388057512
 30
0.0
 10
581.0189422744509
 20
-1329.894884335283
 30
0.0
 10
580.0964287068834
 20
-1331.944476185525
 30
0.0
 10
578.5934548274421
 20
-1333.239658651831
 30
0.0
 10
576.3588221148805
 20
-1333.818477913395
 30
0.0
 10
573.704893591635
 20
-1332.200608280496
 30
0.0
 10
571.8875384442588
 20
-1330.017935249633
 30
0.0
 10
570.1817895328929
 20
-1326.885616045477
 30
0.0
 10
568.9899715589447
 20
-1325.030462398242
 30
0.0
 10
568.0771225465676
 20
-1323.433650761332
 30
0.0
 10
567.4613617281269
 20
-1323.19171740099
 30
0.0
 10
565.9452432572197
 20
-1322.8379781131
 30
0.0
 10
564.5636463443468
 20
-1322.970991328896
 30
0.0
 10
562.5807388872319
 20
-1323.254034688021
 30
0.0
 10
561.38567686443
 20
-1323.28847528032
 30
0.0
 10
559.9598080269362
 20
-1323.18867593858
 30
0.0
 10
559.1878779223758
 20
-1322.861540303599
 30
0.0
 10
557.9550341369884
 20
-1322.385888321698
 30
0.0
 10
556.7445890236286
 20
-1321.336867802095
 30
0.0
 10
555.6351699167411
 20
-1319.022327205116
 30
0.0
 10
554.8955211139511
 20
-1316.599747307931
 30
0.0
 10
553.7741373843521
 20
-1313.797003739872
 30
0.0
 10
553.0560004538893
 20
-1311.630858429115
 30
0.0
 10
552.0010610303394
 20
-1309.878550274214
 30
0.0
 10
550.846557877479
 20
-1308.959729304821
 30
0.0
 10
549.4618691399689
 20
-1309.161762356415
 30
0.0
 10
548.6785372273025
 20
-1310.158763663026
 30
0.0
 10
548.3733522256455
 20
-1311.306041649332
 30
0.0
 10
548.205752183611
 20
-1312.590978471583
 30
0.0
 10
548.1732201728237
 20
-1315.128538613404
 30
0.0
 10
548.6474032695405
 20
-1317.884049377752
 30
0.0
 10
549.6955829166467
 20
-1321.33801451184
 30
0.0
 10
550.5260947184383
 20
-1323.876794841921
 30
0.0
 10
551.0675264042237
 20
-1326.141242065135
 30
0.0
 10
551.2629752393605
 20
-1327.864749721106
 30
0.0
 10
551.3237643348227
 20
-1329.486771580048
 30
0.0
 10
551.0856411947996
 20
-1331.215552195789
 30
0.0
 10
550.4333384709792
 20
-1332.46090091723
 30
0.0
 10
549.4686422486197
 20
-1333.33038372138
 30
0.0
 10
548.1228645863175
 20
-1333.671475342679
 30
0.0
 10
546.9531155890277
 20
-1333.398524669997
 30
0.0
 10
545.7949685654622
 20
-1332.740230807935
 30
0.0
 10
544.8880318857495
 20
-1331.749799942437
 30
0.0
 10
543.6882611131446
 20
-1330.111336279171
 30
0.0
 10
542.5583326589256
 20
-1328.289725915711
 30
0.0
 10
540.924481944251
 20
-1323.823824944262
 30
0.0
 10
540.28878693465
 20
-1323.443585787384
 30
0.0
 10
540.1082556657244
 20
-1323.330260687335
 30
0.0
  0
SPLINE
  5
96
330
1F
100
AcDbEntity
  8
Default
100
AcDbSpline
210
0.0
220
0.0
230
1.0
 70
     8
 71
     3
 72
    38
 73
    34
 74
     0
 42
0.0000000001
 43
0.0000000001
 40
234.5528981507081
 40
234.5528981507081
 40
234.5528981507081
 40
234.5528981507081
 40
234.7972618379229
 40
236.5637718546786
 40
239.9846885705124
 40
242.8515710576322
 40
245.3989948188894
 40
249.4612397170974
 40
252.1261747559412
 40
255.142712452349
 40
257.3740733643606
 40
259.2624642514532
 40
260.8976813861297
 40
264.0046685486502
 40
266.473012358224
 40
270.2722932797388
 40
271.9572137211383
 40
272.8956216373486
 40
273.6566788595733
 40
275.3753659095063
 40
277.144462462346
 40
279.0952500581034
 40
280.0020309239692
 40
281.2348114627006
 40
285.1083666145846
 40
287.8274414483087
 40
293.1096520805371
 40
298.3965262310065
 40
301.0737373706463
 40
304.4063762100117
 40
306.7707382077989
 40
311.7585917698469
 40
319.6501323894055
 40
319.6501323894055
 40
319.6501323894055
 40
319.6501323894055
 10
540.1082556657244
 20
-1323.330260687335
 30
0.0
 10
540.1276392405666
 20
-1323.284429385337
 30
0.0
 10
540.0971711710445
 20
-1322.612722254129
 30
0.0
 10
538.9653997873368
 20
-1321.848077319059
 30
0.0
 10
538.1303081880654
 20
-1319.881921240087
 30
0.0
 10
536.345589792331
 20
-1318.478686803603
 30
0.0
 10
535.2030982414534
 20
-1316.373674621079
 30
0.0
 10
534.7838063558349
 20
-1313.815582035469
 30
0.0
 10
536.5068266191507
 20
-1311.793330867103
 30
0.0
 10
538.450669994044
 20
-1311.21395196554
 30
0.0
 10
539.9865076915584
 20
-1310.314758656863
 30
0.0
 10
541.09750596625
 20
-1309.230958915978
 30
0.0
 10
541.0078022124717
 20
-1307.398415949719
 30
0.0
 10
539.4835782127718
 20
-1306.108873910877
 30
0.0
 10
537.3072600149828
 20
-1305.268661221326
 30
0.0
 10
535.5651175558041
 20
-1304.259256202787
 30
0.0
 10
534.3422819030213
 20
-1303.135120515926
 30
0.0
 10
534.2257634838968
 20
-1302.161858322769
 30
0.0
 10
534.9726412742775
 20
-1301.599620752791
 30
0.0
 10
535.9959574296232
 20
-1301.326651267905
 30
0.0
 10
537.4010427055646
 20
-1301.226018000058
 30
0.0
 10
538.4724155799058
 20
-1301.475107859412
 30
0.0
 10
539.6473910296002
 20
-1301.610894252495
 30
0.0
 10
540.097909159661
 20
-1299.863122100194
 30
0.0
 10
540.9589912598833
 20
-1298.225424911589
 30
0.0
 10
540.4765761100109
 20
-1295.054760438776
 30
0.0
 10
538.2063812748052
 20
-1292.666642210074
 30
0.0
 10
535.6589726373583
 20
-1289.798988613562
 30
0.0
 10
536.6230599777613
 20
-1287.014083800033
 30
0.0
 10
537.0477700228657
 20
-1284.747248405707
 30
0.0
 10
539.8088567619271
 20
-1283.737334951424
 30
0.0
 10
541.2203022098153
 20
-1279.918744199432
 30
0.0
 10
541.1261138008517
 20
-1275.955020059115
 30
0.0
 10
539.8885419702885
 20
-1274.564271571401
 30
0.0
  0
SPLINE
  5
97
330
1F
100
AcDbEntity
  8
Default
100
AcDbSpline
210
0.0
220
0.0
230
1.0
 70
     8
 71
     3
 72
    62
 73
    58
 74
     0
 42
0.0000000001
 43
0.0000000001
 40
319.6501323894055
 40
319.6501323894055
 40
319.6501323894055
 40
319.6501323894055
 40
321.054663798602
 40
323.1224748760254
 40
324.0735793634691
 40
325.5002148169707
 40
326.9717629617451
 40
328.6369753008349
 40
331.0173394613703
 40
332.1657178243922
 40
333.978401463873
 40
338.633599718344
 40
340.7662065325098
 40
342.7255338335381
 40
346.4038100493325
 40
348.9266656218815
 40
354.598343613214
 40
357.5569323183971
 40
363.0797673760724
 40
363.4126311485699
 40
364.8043915349047
 40
365.4602422914107
 40
369.6688269050497
 40
370.117309728422
 40
373.4314522775375
 40
374.4029246621692
 40
375.7605912571697
 40
376.7243776977134
 40
379.6654929933495
 40
381.7990817329848
 40
386.8650686389816
 40
389.7186480577343
 40
393.8119363004977
 40
395.858454346534
 40
397.87953917904
 40
399.187555902119
 40
400.9748417270391
 40
402.5324516464816
 40
403.9000094848871
 40
406.1132098477783
 40
412.6000851918769
 40
414.8927675400844
 40
420.4655696637242
 40
423.2181761515542
 40
424.120843087222
 40
427.3555556905592
 40
429.6693254668214
 40
430.938017877936
 40
432.8811813645989
 40
434.6405650778427
 40
436.2313232444405
 40
437.5322657814419
 40
439.8904004830717
 40
441.4877095525904
 40
445.6159557140661
 40
448.4026263950531
 40
449.6433965377026
 40
449.6433965377026
 40
449.6433965377026
 40
449.6433965377026
 10
539.8885419702885
 20
-1274.564271571401
 30
0.0
 10
539.4083468124948
 20
-1274.371879355393
 30
0.0
 10
538.8631523502288
 20
-1273.90734718315
 30
0.0
 10
537.8188136297974
 20
-1273.558409556346
 30
0.0
 10
536.7882484546811
 20
-1273.18959442596
 30
0.0
 10
535.7859006794108
 20
-1272.992714313482
 30
0.0
 10
534.7285555527225
 20
-1273.568885008068
 30
0.0
 10
533.6991249905875
 20
-1274.506363206352
 30
0.0
 10
533.0754813610274
 20
-1275.684797335357
 30
0.0
 10
532.6037611065823
 20
-1276.945531348184
 30
0.0
 10
532.3579226107893
 20
-1278.856547238914
 30
0.0
 10
531.9388908523999
 20
-1280.978043516684
 30
0.0
 10
531.0163772848325
 20
-1283.027635366926
 30
0.0
 10
529.5134034053908
 20
-1284.322817833233
 30
0.0
 10
527.2787706928297
 20
-1284.901637094797
 30
0.0
 10
524.6248421695841
 20
-1283.283767461898
 30
0.0
 10
522.8074870222082
 20
-1281.101094431034
 30
0.0
 10
521.1017381108422
 20
-1277.968775226878
 30
0.0
 10
519.9099201368934
 20
-1276.113621579644
 30
0.0
 10
518.9970711245165
 20
-1274.516809942734
 30
0.0
 10
518.3813103060756
 20
-1274.274876582392
 30
0.0
 10
516.8651918351695
 20
-1273.921137294502
 30
0.0
 10
515.483594922296
 20
-1274.054150510297
 30
0.0
 10
513.5006874651815
 20
-1274.337193869422
 30
0.0
 10
512.3056254423793
 20
-1274.371634461721
 30
0.0
 10
510.8797566048846
 20
-1274.27183511998
 30
0.0
 10
510.1078265003249
 20
-1273.944699485001
 30
0.0
 10
508.8749827149372
 20
-1273.469047503099
 30
0.0
 10
507.6645376015778
 20
-1272.420026983497
 30
0.0
 10
506.5551184946902
 20
-1270.105486386518
 30
0.0
 10
505.8154696919004
 20
-1267.682906489333
 30
0.0
 10
504.6940859623015
 20
-1264.880162921274
 30
0.0
 10
503.9759490318387
 20
-1262.714017610516
 30
0.0
 10
502.9210096082887
 20
-1260.961709455616
 30
0.0
 10
501.7665064554279
 20
-1260.042888486223
 30
0.0
 10
500.3818177179182
 20
-1260.244921537816
 30
0.0
 10
499.5984858052517
 20
-1261.241922844428
 30
0.0
 10
499.2933008035947
 20
-1262.389200830733
 30
0.0
 10
499.1257007615602
 20
-1263.674137652985
 30
0.0
 10
499.0931687507728
 20
-1266.211697794805
 30
0.0
 10
499.5673518474899
 20
-1268.967208559153
 30
0.0
 10
500.6155314945956
 20
-1272.421173693242
 30
0.0
 10
501.4460432963871
 20
-1274.959954023323
 30
0.0
 10
501.9874749821724
 20
-1277.224401246537
 30
0.0
 10
502.1829238173095
 20
-1278.947908902508
 30
0.0
 10
502.2437129127718
 20
-1280.56993076145
 30
0.0
 10
502.0055897727481
 20
-1282.29871137719
 30
0.0
 10
501.3532870489282
 20
-1283.544060098631
 30
0.0
 10
500.3885908265689
 20
-1284.413542902781
 30
0.0
 10
499.0428131642664
 20
-1284.754634524081
 30
0.0
 10
497.873064166977
 20
-1284.481683851398
 30
0.0
 10
496.7149171434111
 20
-1283.823389989337
 30
0.0
 10
495.8079804636988
 20
-1282.832959123838
 30
0.0
 10
494.6082096910936
 20
-1281.194495460573
 30
0.0
 10
493.4782812368753
 20
-1279.372885097112
 30
0.0
 10
491.8444305222002
 20
-1274.906984125663
 30
0.0
 10
491.2087355125991
 20
-1274.526744968786
 30
0.0
 10
491.0981525058342
 20
-1274.384785573816
 30
0.0
  0
SPLINE
  5
98
330
1F
100
AcDbEntity
  8
Default
100
AcDbSpline
210
0.0
220
0.0
230
1.0
 70
     8
 71
     3
 72
    38
 73
    34
 74
     0
 42
0.0000000001
 43
0.0000000001
 40
449.6433965377026
 40
449.6433965377026
 40
449.6433965377026
 40
449.6433965377026
 40
457.5349371572612
 40
462.5227907193092
 40
464.8871527170964
 40
468.2197915564618
 40
470.8970026961015
 40
476.183876846571
 40
481.4660874787993
 40
484.1851623125235
 40
488.0587174644074
 40
489.2914980031389
 40
490.1982788690046
 40
492.1490664647621
 40
493.9181630176017
 40
495.6368500675347
 40
496.3979072897594
 40
497.3363152059698
 40
499.0212356473693
 40
502.820516568884
 40
505.2888603784579
 40
508.3958475409783
 40
510.0310646756549
 40
511.9194555627474
 40
514.150816474759
 40
517.1673541711668
 40
519.8322892100107
 40
523.8945341082186
 40
526.4419578694758
 40
529.3088403565956
 40
532.7297570724294
 40
534.496267089185
 40
534.7406307763999
 40
534.7406307763999
 40
534.7406307763999
 40
534.7406307763999
 10
491.0981525058342
 20
-1274.384785573816
 30
0.0
 10
492.3357243363977
 20
-1275.77553406153
 30
0.0
 10
492.4299127453602
 20
-1279.739258201847
 30
0.0
 10
491.0184672974727
 20
-1283.557848953839
 30
0.0
 10
488.2573805584116
 20
-1284.567762408121
 30
0.0
 10
487.8326705133062
 20
-1286.834597802448
 30
0.0
 10
486.8685831729035
 20
-1289.619502615977
 30
0.0
 10
489.4159918103509
 20
-1292.487156212489
 30
0.0
 10
491.6861866455565
 20
-1294.875274441191
 30
0.0
 10
492.1686017954286
 20
-1298.045938914004
 30
0.0
 10
491.3075196952067
 20
-1299.683636102609
 30
0.0
 10
490.8570015651458
 20
-1301.431408254909
 30
0.0
 10
489.6820261154513
 20
-1301.295621861826
 30
0.0
 10
488.6106532411101
 20
-1301.046532002473
 30
0.0
 10
487.2055679651691
 20
-1301.147165270321
 30
0.0
 10
486.1822518098235
 20
-1301.420134755205
 30
0.0
 10
485.4353740194426
 20
-1301.982372325184
 30
0.0
 10
485.5518924385665
 20
-1302.955634518341
 30
0.0
 10
486.7747280913501
 20
-1304.079770205202
 30
0.0
 10
488.5168705505284
 20
-1305.089175223741
 30
0.0
 10
490.693188748317
 20
-1305.929387913291
 30
0.0
 10
492.2174127480166
 20
-1307.218929952134
 30
0.0
 10
492.3071165017955
 20
-1309.051472918394
 30
0.0
 10
491.1961182271035
 20
-1310.135272659278
 30
0.0
 10
489.66028052959
 20
-1311.034465967954
 30
0.0
 10
487.716437154696
 20
-1311.613844869519
 30
0.0
 10
485.9934168913806
 20
-1313.636096037883
 30
0.0
 10
486.4127087769988
 20
-1316.194188623493
 30
0.0
 10
487.5552003278763
 20
-1318.299200806018
 30
0.0
 10
489.3399187236105
 20
-1319.702435242501
 30
0.0
 10
490.1750103228823
 20
-1321.668591321473
 30
0.0
 10
491.3067817065903
 20
-1322.433236256544
 30
0.0
 10
491.3372497761121
 20
-1323.104943387752
 30
0.0
 10
491.3178662012701
 20
-1323.15077468975
 30
0.0
  0
SPLINE
  5
99
330
1F
100
AcDbEntity
  8
Default
100
AcDbSpline
210
0.0
220
0.0
230
1.0
 70
     8
 71
     3
 72
    62
 73
    58
 74
     0
 42
0.0000000001
 43
0.0000000001
 40
534.7406307763999
 40
534.7406307763999
 40
534.7406307763999
 40
534.7406307763999
 40
536.1451621855964
 40
538.2129732630199
 40
539.1640777504635
 40
540.5907132039652
 40
542.0622613487395
 40
543.7274736878293
 40
546.1078378483649
 40
547.2562162113866
 40
549.0688998508674
 40
553.7240981053385
 40
555.8567049195043
 40
557.8160322205326
 40
561.494308436327
 40
564.017164008876
 40
569.6888420002085
 40
572.6474307053916
 40
578.1702657630669
 40
578.5031295355644
 40
579.8948899218992
 40
580.5507406784052
 40
584.7593252920442
 40
585.2078081154165
 40
588.5219506645319
 40
589.4934230491637
 40
590.8510896441642
 40
591.8148760847079
 40
594.755991380344
 40
596.8895801199793
 40
601.955567025976
 40
604.8091464447288
 40
608.9024346874922
 40
610.9489527335285
 40
612.9700375660344
 40
614.2780542891135
 40
616.0653401140336
 40
617.6229500334762
 40
618.9905078718816
 40
621.2037082347728
 40
627.6905835788714
 40
629.983265927079
 40
635.5560680507187
 40
638.3086745385488
 40
639.2113414742165
 40
642.4460540775536
 40
644.7598238538159
 40
646.0285162649305
 40
647.9716797515935
 40
649.7310634648372
 40
651.3218216314351
 40
652.6227641684363
 40
654.9808988700662
 40
656.5782079395849
 40
660.7064541010607
 40
663.4931247820476
 40
664.7338949246971
 40
664.7338949246971
 40
664.7338949246971
 40
664.7338949246971
 10
491.3178662012701
 20
-1323.15077468975
 30
0.0
 10
490.837671043476
 20
-1322.958382473742
 30
0.0
 10
490.29247658121
 20
-1322.493850301498
 30
0.0
 10
489.248137860779
 20
-1322.144912674695
 30
0.0
 10
488.2175726856625
 20
-1321.776097544309
 30
0.0
 10
487.2152249103925
 20
-1321.579217431831
 30
0.0
 10
486.1578797837038
 20
-1322.155388126417
 30
0.0
 10
485.1284492215685
 20
-1323.092866324701
 30
0.0
 10
484.5048055920084
 20
-1324.271300453705
 30
0.0
 10
484.0330853375635
 20
-1325.532034466533
 30
0.0
 10
483.7872468417708
 20
-1327.443050357263
 30
0.0
 10
483.3682150833815
 20
-1329.564546635033
 30
0.0
 10
482.4457015158138
 20
-1331.614138485275
 30
0.0
 10
480.9427276363722
 20
-1332.909320951582
 30
0.0
 10
478.708094923811
 20
-1333.488140213146
 30
0.0
 10
476.0541664005646
 20
-1331.870270580247
 30
0.0
 10
474.2368112531896
 20
-1329.687597549384
 30
0.0
 10
472.531062341823
 20
-1326.555278345227
 30
0.0
 10
471.339244367875
 20
-1324.700124697993
 30
0.0
 10
470.4263953554979
 20
-1323.103313061082
 30
0.0
 10
469.8106345370572
 20
-1322.861379700741
 30
0.0
 10
468.2945160661503
 20
-1322.507640412851
 30
0.0
 10
466.9129191532771
 20
-1322.640653628646
 30
0.0
 10
464.9300116961622
 20
-1322.923696987771
 30
0.0
 10
463.7349496733607
 20
-1322.95813758007
 30
0.0
 10
462.3090808358663
 20
-1322.85833823833
 30
0.0
 10
461.5371507313063
 20
-1322.53120260335
 30
0.0
 10
460.3043069459181
 20
-1322.055550621448
 30
0.0
 10
459.0938618325588
 20
-1321.006530101846
 30
0.0
 10
457.9844427256709
 20
-1318.691989504867
 30
0.0
 10
457.2447939228817
 20
-1316.269409607682
 30
0.0
 10
456.1234101932826
 20
-1313.466666039623
 30
0.0
 10
455.4052732628203
 20
-1311.300520728865
 30
0.0
 10
454.3503338392698
 20
-1309.548212573965
 30
0.0
 10
453.1958306864096
 20
-1308.629391604572
 30
0.0
 10
451.8111419488994
 20
-1308.831424656166
 30
0.0
 10
451.0278100362329
 20
-1309.828425962776
 30
0.0
 10
450.722625034576
 20
-1310.975703949082
 30
0.0
 10
450.5550249925409
 20
-1312.260640771334
 30
0.0
 10
450.5224929817546
 20
-1314.798200913154
 30
0.0
 10
450.9966760784714
 20
-1317.553711677502
 30
0.0
 10
452.044855725577
 20
-1321.007676811591
 30
0.0
 10
452.8753675273684
 20
-1323.546457141671
 30
0.0
 10
453.4167992131541
 20
-1325.810904364886
 30
0.0
 10
453.6122480482908
 20
-1327.534412020857
 30
0.0
 10
453.673037143753
 20
-1329.156433879799
 30
0.0
 10
453.4349140037299
 20
-1330.885214495539
 30
0.0
 10
452.7826112799099
 20
-1332.13056321698
 30
0.0
 10
451.8179150575503
 20
-1333.00004602113
 30
0.0
 10
450.4721373952478
 20
-1333.341137642429
 30
0.0
 10
449.3023883979584
 20
-1333.068186969748
 30
0.0
 10
448.1442413743923
 20
-1332.409893107686
 30
0.0
 10
447.2373046946805
 20
-1331.419462242187
 30
0.0
 10
446.037533922075
 20
-1329.780998578922
 30
0.0
 10
444.9076054678566
 20
-1327.959388215461
 30
0.0
 10
443.2737547531816
 20
-1323.493487244013
 30
0.0
 10
442.6380597435805
 20
-1323.113248087134
 30
0.0
 10
442.5156243568003
 20
-1322.965344673338
 30
0.0
  0
SPLINE
  5
9A
330
1F
100
AcDbEntity
  8
Default
100
AcDbSpline
210
0.0
220
0.0
230
1.0
 70
     8
 71
     3
 72
    38
 73
    34
 74
     0
 42
0.0000000001
 43
0.0000000001
 40
-104.559634002411
 40
-104.559634002411
 40
-104.559634002411
 40
-104.559634002411
 40
-104.3152703151961
 40
-102.5487602984405
 40
-99.12784358260663
 40
-96.26096109548683
 40
-93.71353733422967
 40
-89.65129243602169
 40
-86.98635739717784
 40
-83.96981970077006
 40
-81.73845878875845
 40
-79.85006790166587
 40
-78.21485076698933
 40
-75.10786360446885
 40
-72.63951979489501
 40
-68.84023887338029
 40
-67.1553184319808
 40
-66.21691051577044
 40
-65.4558532935457
 40
-63.73716624361272
 40
-61.96806969077308
 40
-60.01728209501562
 40
-59.1105012291499
 40
-57.87772069041843
 40
-54.00416553853451
 40
-51.28509070481033
 40
-46.00288007258196
 40
-40.7160059221125
 40
-38.03879478247283
 40
-34.7061559431074
 40
-32.34179394532018
 40
-27.35394038327217
 40
-19.46239976371358
 40
-19.46239976371358
 40
-19.46239976371358
 40
-19.46239976371358
 10
393.5021843481148
 20
-1274.01611396619
 30
0.0
 10
393.521567922957
 20
-1273.970282664192
 30
0.0
 10
393.4910998534353
 20
-1273.298575532984
 30
0.0
 10
392.3593284697271
 20
-1272.533930597913
 30
0.0
 10
391.524236870456
 20
-1270.567774518941
 30
0.0
 10
389.7395184747213
 20
-1269.164540082458
 30
0.0
 10
388.5970269238439
 20
-1267.059527899934
 30
0.0
 10
388.1777350382256
 20
-1264.501435314324
 30
0.0
 10
389.9007553015409
 20
-1262.479184145958
 30
0.0
 10
391.8445986764347
 20
-1261.899805244394
 30
0.0
 10
393.3804363739487
 20
-1261.000611935718
 30
0.0
 10
394.4914346486403
 20
-1259.916812194833
 30
0.0
 10
394.4017308948623
 20
-1258.084269228573
 30
0.0
 10
392.8775068951625
 20
-1256.794727189731
 30
0.0
 10
390.7011886973737
 20
-1255.95451450018
 30
0.0
 10
388.9590462381952
 20
-1254.945109481641
 30
0.0
 10
387.7362105854116
 20
-1253.82097379478
 30
0.0
 10
387.6196921662872
 20
-1252.847711601623
 30
0.0
 10
388.3665699566682
 20
-1252.285474031646
 30
0.0
 10
389.389886112014
 20
-1252.01250454676
 30
0.0
 10
390.7949713879553
 20
-1251.911871278913
 30
0.0
 10
391.8663442622965
 20
-1252.160961138266
 30
0.0
 10
393.0413197119908
 20
-1252.296747531349
 30
0.0
 10
393.4918378420517
 20
-1250.548975379049
 30
0.0
 10
394.3529199422738
 20
-1248.911278190444
 30
0.0
 10
393.8705047924017
 20
-1245.740613717631
 30
0.0
 10
391.6003099571957
 20
-1243.352495488929
 30
0.0
 10
389.0529013197488
 20
-1240.484841892417
 30
0.0
 10
390.0169886601516
 20
-1237.699937078888
 30
0.0
 10
390.4416987052566
 20
-1235.433101684561
 30
0.0
 10
393.2027854443181
 20
-1234.423188230278
 30
0.0
 10
394.6142308922053
 20
-1230.604597478287
 30
0.0
 10
394.5200424832424
 20
-1226.64087333797
 30
0.0
 10
393.282470652679
 20
-1225.250124850256
 30
0.0
  0
SPLINE
  5
9B
330
1F
100
AcDbEntity
  8
Default
100
AcDbSpline
210
0.0
220
0.0
230
1.0
 70
     8
 71
     3
 72
    62
 73
    58
 74
     0
 42
0.0000000001
 43
0.0000000001
 40
-19.46239976371358
 40
-19.46239976371358
 40
-19.46239976371358
 40
-19.46239976371358
 40
-18.22162962106411
 40
-15.43495894007712
 40
-11.30671277860141
 40
-9.709403709082707
 40
-7.351269007452842
 40
-6.050326470451566
 40
-4.459568303853686
 40
-2.700184590609908
 40
-0.7570211039470252
 40
0.5116713071675889
 40
2.825441083429823
 40
6.060153686767009
 40
6.962820622434791
 40
9.71542711026477
 40
15.28822923390457
 40
17.58091158211211
 40
24.06778692621073
 40
26.2809872891019
 40
27.64854512750738
 40
29.20615504694992
 40
30.99344087186999
 40
32.30145759494907
 40
34.32254242745499
 40
36.3690604734913
 40
40.46234871625474
 40
43.31592813500738
 40
48.38191504100421
 40
50.51550378063955
 40
53.45661907627566
 40
54.42040551681929
 40
55.77807211181978
 40
56.74954449645158
 40
60.06368704556699
 40
60.51216986893924
 40
64.7207544825783
 40
65.3766052390843
 40
66.7683656254191
 40
67.10122939791658
 40
72.62406445559189
 40
75.582653160775
 40
81.25433115210755
 40
83.77718672465654
 40
87.45546294045089
 40
89.41479024147915
 40
91.54739705564496
 40
96.20259531011605
 40
98.01527894959685
 40
99.16365731261865
 40
101.5440214731541
 40
103.209233812244
 40
104.6807819570183
 40
106.1074174105199
 40
107.0585218979636
 40
109.1263329753871
 40
110.5308643845835
 40
110.5308643845835
 40
110.5308643845835
 40
110.5308643845835
 10
393.282470652679
 20
-1225.250124850256
 30
0.0
 10
393.3930536594445
 20
-1225.392084245225
 30
0.0
 10
394.0287486690451
 20
-1225.772323402103
 30
0.0
 10
395.6625993837205
 20
-1230.238224373552
 30
0.0
 10
396.7925278379388
 20
-1232.059834737013
 30
0.0
 10
397.9922986105439
 20
-1233.698298400278
 30
0.0
 10
398.8992352902567
 20
-1234.688729265777
 30
0.0
 10
400.0573823138222
 20
-1235.347023127838
 30
0.0
 10
401.2271313111116
 20
-1235.61997380052
 30
0.0
 10
402.5729089734142
 20
-1235.278882179221
 30
0.0
 10
403.5376051957736
 20
-1234.409399375071
 30
0.0
 10
404.1899079195935
 20
-1233.16405065363
 30
0.0
 10
404.428031059617
 20
-1231.43527003789
 30
0.0
 10
404.3672419641546
 20
-1229.813248178947
 30
0.0
 10
404.1717931290178
 20
-1228.089740522977
 30
0.0
 10
403.6303614432322
 20
-1225.825293299762
 30
0.0
 10
402.7998496414405
 20
-1223.286512969681
 30
0.0
 10
401.7516699943355
 20
-1219.832547835593
 30
0.0
 10
401.277486897618
 20
-1217.077037071245
 30
0.0
 10
401.3100189084054
 20
-1214.539476929425
 30
0.0
 10
401.4776189504398
 20
-1213.254540107173
 30
0.0
 10
401.7828039520971
 20
-1212.107262120867
 30
0.0
 10
402.5661358647636
 20
-1211.110260814256
 30
0.0
 10
403.9508246022733
 20
-1210.908227762663
 30
0.0
 10
405.1053277551343
 20
-1211.827048732056
 30
0.0
 10
406.1602671786839
 20
-1213.579356886956
 30
0.0
 10
406.8784041091463
 20
-1215.745502197714
 30
0.0
 10
407.9997878387454
 20
-1218.548245765773
 30
0.0
 10
408.7394366415347
 20
-1220.970825662958
 30
0.0
 10
409.848855748423
 20
-1223.285366259936
 30
0.0
 10
411.0593008617826
 20
-1224.334386779539
 30
0.0
 10
412.2921446471702
 20
-1224.810038761441
 30
0.0
 10
413.0640747517305
 20
-1225.137174396421
 30
0.0
 10
414.4899435892241
 20
-1225.23697373816
 30
0.0
 10
415.6850056120261
 20
-1225.202533145862
 30
0.0
 10
417.667913069141
 20
-1224.919489786737
 30
0.0
 10
419.0495099820144
 20
-1224.786476570941
 30
0.0
 10
420.5656284529215
 20
-1225.140215858832
 30
0.0
 10
421.1813892713618
 20
-1225.382149219173
 30
0.0
 10
422.0942382837387
 20
-1226.978960856083
 30
0.0
 10
423.2860562576874
 20
-1228.834114503318
 30
0.0
 10
424.9918051690534
 20
-1231.966433707475
 30
0.0
 10
426.8091603164284
 20
-1234.149106738337
 30
0.0
 10
429.4630888396748
 20
-1235.766976371237
 30
0.0
 10
431.6977215522363
 20
-1235.188157109673
 30
0.0
 10
433.2006954316776
 20
-1233.892974643366
 30
0.0
 10
434.1232089992455
 20
-1231.843382793124
 30
0.0
 10
434.5422407576347
 20
-1229.721886515354
 30
0.0
 10
434.7880792534277
 20
-1227.810870624624
 30
0.0
 10
435.2597995078718
 20
-1226.550136611796
 30
0.0
 10
435.8834431374327
 20
-1225.371702482793
 30
0.0
 10
436.9128736995675
 20
-1224.434224284507
 30
0.0
 10
437.9702188262564
 20
-1223.858053589922
 30
0.0
 10
438.9725666015261
 20
-1224.0549337024
 30
0.0
 10
440.0031317766428
 20
-1224.423748832786
 30
0.0
 10
441.0474704970738
 20
-1224.772686459589
 30
0.0
 10
441.5926649593397
 20
-1225.237218631833
 30
0.0
 10
442.0728601171338
 20
-1225.429610847841
 30
0.0
  0
SPLINE
  5
9C
330
1F
100
AcDbEntity
  8
Default
100
AcDbSpline
210
0.0
220
0.0
230
1.0
 70
     8
 71
     3
 72
    38
 73
    34
 74
     0
 42
0.0000000001
 43
0.0000000001
 40
110.5308643845835
 40
110.5308643845835
 40
110.5308643845835
 40
110.5308643845835
 40
118.4224050041421
 40
123.4102585661901
 40
125.7746205639774
 40
129.1072594033428
 40
131.7844705429824
 40
137.0713446934519
 40
142.3535553256803
 40
145.0726301594045
 40
148.9461853112884
 40
150.1789658500198
 40
151.0857467158856
 40
153.036534311643
 40
154.8056308644827
 40
156.5243179144156
 40
157.2853751366404
 40
158.2237830528508
 40
159.9087034942502
 40
163.7079844157649
 40
166.1763282253388
 40
169.2833153878593
 40
170.9185325225358
 40
172.8069234096284
 40
175.03828432164
 40
178.0548220180478
 40
180.7197570568916
 40
184.7820019550996
 40
187.3294257163568
 40
190.1963082034766
 40
193.6172249193104
 40
195.383734936066
 40
195.6280986232809
 40
195.6280986232809
 40
195.6280986232809
 40
195.6280986232809
 10
442.0728601171338
 20
-1225.429610847841
 30
0.0
 10
443.3104319476969
 20
-1226.820359335554
 30
0.0
 10
443.4046203566601
 20
-1230.784083475872
 30
0.0
 10
441.9931749087723
 20
-1234.602674227864
 30
0.0
 10
439.2320881697112
 20
-1235.612587682146
 30
0.0
 10
438.8073781246059
 20
-1237.879423076473
 30
0.0
 10
437.8432907842033
 20
-1240.664327890002
 30
0.0
 10
440.3906994216502
 20
-1243.531981486514
 30
0.0
 10
442.6608942568561
 20
-1245.920099715216
 30
0.0
 10
443.1433094067286
 20
-1249.090764188029
 30
0.0
 10
442.2822273065065
 20
-1250.728461376634
 30
0.0
 10
441.831709176445
 20
-1252.476233528934
 30
0.0
 10
440.656733726751
 20
-1252.340447135851
 30
0.0
 10
439.5853608524096
 20
-1252.091357276498
 30
0.0
 10
438.1802755764681
 20
-1252.191990544346
 30
0.0
 10
437.1569594211224
 20
-1252.464960029231
 30
0.0
 10
436.4100816307422
 20
-1253.027197599209
 30
0.0
 10
436.5266000498665
 20
-1254.000459792366
 30
0.0
 10
437.7494357026499
 20
-1255.124595479227
 30
0.0
 10
439.4915781618284
 20
-1256.134000497766
 30
0.0
 10
441.6678963596167
 20
-1256.974213187316
 30
0.0
 10
443.1921203593165
 20
-1258.263755226159
 30
0.0
 10
443.2818241130951
 20
-1260.096298192418
 30
0.0
 10
442.1708258384036
 20
-1261.180097933303
 30
0.0
 10
440.6349881408893
 20
-1262.079291241979
 30
0.0
 10
438.6911447659958
 20
-1262.658670143544
 30
0.0
 10
436.9681245026802
 20
-1264.680921311908
 30
0.0
 10
437.3874163882991
 20
-1267.239013897519
 30
0.0
 10
438.5299079391758
 20
-1269.344026080043
 30
0.0
 10
440.3146263349109
 20
-1270.747260516526
 30
0.0
 10
441.1497179341819
 20
-1272.713416595498
 30
0.0
 10
442.2814893178897
 20
-1273.478061530569
 30
0.0
 10
442.3119573874117
 20
-1274.149768661778
 30
0.0
 10
442.2925738125699
 20
-1274.195599963776
 30
0.0
  0
SPLINE
  5
9D
330
1F
100
AcDbEntity
  8
Default
100
AcDbSpline
210
0.0
220
0.0
230
1.0
 70
     8
 71
     3
 72
    62
 73
    58
 74
     0
 42
0.0000000001
 43
0.0000000001
 40
195.6280986232809
 40
195.6280986232809
 40
195.6280986232809
 40
195.6280986232809
 40
197.0326300324774
 40
199.1004411099008
 40
200.0515455973445
 40
201.4781810508461
 40
202.9497291956205
 40
204.6149415347103
 40
206.9953056952458
 40
208.1436840582676
 40
209.9563676977484
 40
214.6115659522195
 40
216.7441727663853
 40
218.7035000674136
 40
222.3817762832079
 40
224.9046318557569
 40
230.5763098470894
 40
233.5348985522726
 40
239.0577336099479
 40
239.3905973824453
 40
240.7823577687801
 40
241.4382085252861
 40
245.6467931389252
 40
246.0952759622974
 40
249.4094185114129
 40
250.3808908960447
 40
251.7385574910451
 40
252.7023439315888
 40
255.6434592272249
 40
257.7770479668602
 40
262.8430348728571
 40
265.6966142916097
 40
269.7899025343731
 40
271.8364205804094
 40
273.8575054129154
 40
275.1655221359944
 40
276.9528079609145
 40
278.5104178803571
 40
279.8779757187625
 40
282.0911760816537
 40
288.5780514257523
 40
290.8707337739598
 40
296.4435358975996
 40
299.1961423854297
 40
300.0988093210974
 40
303.3335219244346
 40
305.6472917006968
 40
306.9159841118114
 40
308.8591475984744
 40
310.6185313117181
 40
312.209289478316
 40
313.5102320153173
 40
315.8683667169472
 40
317.4656757864659
 40
321.5939219479416
 40
324.3805926289285
 40
325.621362771578
 40
325.621362771578
 40
325.621362771578
 40
325.621362771578
 10
442.2925738125699
 20
-1274.195599963776
 30
0.0
 10
441.8123786547757
 20
-1274.003207747767
 30
0.0
 10
441.2671841925099
 20
-1273.538675575523
 30
0.0
 10
440.2228454720785
 20
-1273.189737948721
 30
0.0
 10
439.1922802969619
 20
-1272.820922818334
 30
0.0
 10
438.1899325216923
 20
-1272.624042705856
 30
0.0
 10
437.1325873950034
 20
-1273.200213400442
 30
0.0
 10
436.1031568328683
 20
-1274.137691598726
 30
0.0
 10
435.4795132033074
 20
-1275.316125727731
 30
0.0
 10
435.0077929488634
 20
-1276.576859740558
 30
0.0
 10
434.7619544530702
 20
-1278.487875631288
 30
0.0
 10
434.3429226946812
 20
-1280.609371909058
 30
0.0
 10
433.4204091271139
 20
-1282.6589637593
 30
0.0
 10
431.9174352476726
 20
-1283.954146225607
 30
0.0
 10
429.6828025351108
 20
-1284.532965487171
 30
0.0
 10
427.0288740118649
 20
-1282.915095854272
 30
0.0
 10
425.2115188644892
 20
-1280.732422823409
 30
0.0
 10
423.5057699531228
 20
-1277.600103619252
 30
0.0
 10
422.3139519791745
 20
-1275.744949972018
 30
0.0
 10
421.4011029667977
 20
-1274.148138335108
 30
0.0
 10
420.7853421483572
 20
-1273.906204974766
 30
0.0
 10
419.26922367745
 20
-1273.552465686876
 30
0.0
 10
417.887626764577
 20
-1273.68547890267
 30
0.0
 10
415.9047193074621
 20
-1273.968522261796
 30
0.0
 10
414.7096572846602
 20
-1274.002962854096
 30
0.0
 10
413.2837884471663
 20
-1273.903163512354
 30
0.0
 10
412.5118583426062
 20
-1273.576027877374
 30
0.0
 10
411.2790145572184
 20
-1273.100375895473
 30
0.0
 10
410.0685694438585
 20
-1272.05135537587
 30
0.0
 10
408.9591503369712
 20
-1269.736814778892
 30
0.0
 10
408.2195015341815
 20
-1267.314234881706
 30
0.0
 10
407.0981178045823
 20
-1264.511491313648
 30
0.0
 10
406.3799808741201
 20
-1262.34534600289
 30
0.0
 10
405.32504145057
 20
-1260.59303784799
 30
0.0
 10
404.170538297709
 20
-1259.674216878597
 30
0.0
 10
402.7858495601994
 20
-1259.876249930191
 30
0.0
 10
402.0025176475327
 20
-1260.873251236802
 30
0.0
 10
401.6973326458758
 20
-1262.020529223107
 30
0.0
 10
401.5297326038408
 20
-1263.305466045359
 30
0.0
 10
401.4972005930538
 20
-1265.843026187179
 30
0.0
 10
401.9713836897708
 20
-1268.598536951527
 30
0.0
 10
403.0195633368762
 20
-1272.052502085616
 30
0.0
 10
403.8500751386677
 20
-1274.591282415696
 30
0.0
 10
404.3915068244538
 20
-1276.855729638911
 30
0.0
 10
404.5869556595903
 20
-1278.579237294882
 30
0.0
 10
404.6477447550529
 20
-1280.201259153824
 30
0.0
 10
404.4096216150297
 20
-1281.930039769564
 30
0.0
 10
403.7573188912097
 20
-1283.175388491005
 30
0.0
 10
402.7926226688497
 20
-1284.044871295155
 30
0.0
 10
401.4468450065472
 20
-1284.385962916455
 30
0.0
 10
400.277096009258
 20
-1284.113012243773
 30
0.0
 10
399.1189489856923
 20
-1283.454718381711
 30
0.0
 10
398.2120123059793
 20
-1282.464287516211
 30
0.0
 10
397.0122415333741
 20
-1280.825823852947
 30
0.0
 10
395.8823130791565
 20
-1279.004213489486
 30
0.0
 10
394.2484623644816
 20
-1274.538312518038
 30
0.0
 10
393.6127673548808
 20
-1274.15807336116
 30
0.0
 10
393.5021843481148
 20
-1274.01611396619
 30
0.0
  0
SPLINE
  5
9E
330
1F
100
AcDbEntity
  8
Default
100
AcDbSpline
210
0.0
220
0.0
230
1.0
 70
     8
 71
     3
 72
    38
 73
    34
 74
     0
 42
0.0000000001
 43
0.0000000001
 40
325.621362771578
 40
325.621362771578
 40
325.621362771578
 40
325.621362771578
 40
333.5129033911366
 40
338.5007569531846
 40
340.8651189509718
 40
344.1977577903372
 40
346.8749689299769
 40
352.1618430804464
 40
357.4440537126748
 40
360.1631285463989
 40
364.0366836982828
 40
365.2694642370143
 40
366.17624510288
 40
368.1270326986375
 40
369.8961292514771
 40
371.6148163014101
 40
372.3758735236349
 40
373.3142814398452
 40
374.9992018812447
 40
378.7984828027595
 40
381.2668266123333
 40
384.3738137748538
 40
386.0090309095303
 40
387.8974217966229
 40
390.1287827086345
 40
393.1453204050422
 40
395.8102554438861
 40
399.8725003420941
 40
402.4199241033513
 40
405.286806590471
 40
408.7077233063049
 40
410.4742333230606
 40
410.7185970102754
 40
410.7185970102754
 40
410.7185970102754
 40
410.7185970102754
 10
393.5021843481148
 20
-1274.01611396619
 30
0.0
 10
394.7397561786784
 20
-1275.406862453904
 30
0.0
 10
394.8339445876412
 20
-1279.370586594221
 30
0.0
 10
393.4224991397541
 20
-1283.189177346213
 30
0.0
 10
390.6614124006919
 20
-1284.199090800495
 30
0.0
 10
390.2367023555879
 20
-1286.465926194822
 30
0.0
 10
389.2726150151848
 20
-1289.250831008351
 30
0.0
 10
391.8200236526319
 20
-1292.118484604863
 30
0.0
 10
394.0902184878377
 20
-1294.506602833565
 30
0.0
 10
394.5726336377099
 20
-1297.677267306378
 30
0.0
 10
393.7115515374879
 20
-1299.314964494983
 30
0.0
 10
393.2610334074266
 20
-1301.062736647283
 30
0.0
 10
392.0860579577328
 20
-1300.9269502542
 30
0.0
 10
391.0146850833914
 20
-1300.677860394847
 30
0.0
 10
389.6095998074496
 20
-1300.778493662694
 30
0.0
 10
388.586283652104
 20
-1301.05146314758
 30
0.0
 10
387.8394058617232
 20
-1301.613700717558
 30
0.0
 10
387.9559242808476
 20
-1302.586962910715
 30
0.0
 10
389.178759933631
 20
-1303.711098597576
 30
0.0
 10
390.9209023928092
 20
-1304.720503616115
 30
0.0
 10
393.097220590598
 20
-1305.560716305666
 30
0.0
 10
394.6214445902979
 20
-1306.850258344508
 30
0.0
 10
394.711148344076
 20
-1308.682801310768
 30
0.0
 10
393.6001500693847
 20
-1309.766601051652
 30
0.0
 10
392.0643123718706
 20
-1310.665794360328
 30
0.0
 10
390.1204689969769
 20
-1311.245173261892
 30
0.0
 10
388.397448733661
 20
-1313.267424430258
 30
0.0
 10
388.8167406192795
 20
-1315.825517015868
 30
0.0
 10
389.9592321701575
 20
-1317.930529198392
 30
0.0
 10
391.7439505658917
 20
-1319.333763634875
 30
0.0
 10
392.5790421651631
 20
-1321.299919713848
 30
0.0
 10
393.710813548871
 20
-1322.064564648918
 30
0.0
 10
393.7412816183931
 20
-1322.736271780127
 30
0.0
 10
393.7218980435508
 20
-1322.782103082124
 30
0.0
  0
SPLINE
  5
9F
330
1F
100
AcDbEntity
  8
Default
100
AcDbSpline
210
0.0
220
0.0
230
1.0
 70
     8
 71
     3
 72
    62
 73
    58
 74
     0
 42
0.0000000001
 43
0.0000000001
 40
-19.46239976371358
 40
-19.46239976371358
 40
-19.46239976371358
 40
-19.46239976371358
 40
-18.05786835451713
 40
-15.99005727709365
 40
-15.03895278964997
 40
-13.61231733614839
 40
-12.14076919137401
 40
-10.4755568522842
 40
-8.095192691748707
 40
-6.946814328726902
 40
-5.134130689246106
 40
-0.4789324347750181
 40
1.653674379390793
 40
3.61300168041906
 40
7.291277896213401
 40
9.814133468762392
 40
15.48581146009495
 40
18.44440016527805
 40
23.96723522295336
 40
24.30009899545085
 40
25.69185938178565
 40
26.34771013829165
 40
30.55629475193071
 40
31.00477757530295
 40
34.31892012441837
 40
35.29039250905016
 40
36.64805910405066
 40
37.61184554459429
 40
40.5529608402304
 40
42.68654957986574
 40
47.75253648586256
 40
50.60611590461521
 40
54.69940414737864
 40
56.74592219341496
 40
58.76700702592088
 40
60.07502374899995
 40
61.86230957392003
 40
63.41991949336257
 40
64.78747733176805
 40
67.00067769465922
 40
73.48755303875784
 40
75.78023538696537
 40
81.35303751060518
 40
84.10564399843516
 40
85.00831093410294
 40
88.24302353744012
 40
90.55679331370236
 40
91.82548572481697
 40
93.76864921147985
 40
95.52803292472363
 40
97.11879109132151
 40
98.41973362832279
 40
100.7778683299527
 40
102.3751773994714
 40
106.5034235609471
 40
109.2900942419341
 40
110.5308643845835
 40
110.5308643845835
 40
110.5308643845835
 40
110.5308643845835
 10
540.3279693611603
 20
-1372.09624980327
 30
0.0
 10
539.8477742033665
 20
-1371.903857587262
 30
0.0
 10
539.3025797411003
 20
-1371.439325415018
 30
0.0
 10
538.2582410206697
 20
-1371.090387788215
 30
0.0
 10
537.2276758455529
 20
-1370.721572657828
 30
0.0
 10
536.2253280702831
 20
-1370.524692545352
 30
0.0
 10
535.1679829435943
 20
-1371.100863239936
 30
0.0
 10
534.1385523814595
 20
-1372.038341438221
 30
0.0
 10
533.5149087518988
 20
-1373.216775567226
 30
0.0
 10
533.043188497454
 20
-1374.477509580053
 30
0.0
 10
532.7973500016612
 20
-1376.388525470783
 30
0.0
 10
532.3783182432719
 20
-1378.510021748553
 30
0.0
 10
531.4558046757045
 20
-1380.559613598795
 30
0.0
 10
529.9528307962628
 20
-1381.854796065102
 30
0.0
 10
527.7181980837015
 20
-1382.433615326666
 30
0.0
 10
525.0642695604555
 20
-1380.815745693766
 30
0.0
 10
523.2469144130798
 20
-1378.633072662903
 30
0.0
 10
521.5411655017137
 20
-1375.500753458747
 30
0.0
 10
520.3493475277651
 20
-1373.645599811512
 30
0.0
 10
519.4364985153882
 20
-1372.048788174603
 30
0.0
 10
518.8207376969481
 20
-1371.806854814261
 30
0.0
 10
517.3046192260408
 20
-1371.453115526371
 30
0.0
 10
515.9230223131676
 20
-1371.586128742166
 30
0.0
 10
513.9401148560528
 20
-1371.869172101291
 30
0.0
 10
512.7450528332511
 20
-1371.90361269359
 30
0.0
 10
511.3191839957573
 20
-1371.803813351849
 30
0.0
 10
510.5472538911965
 20
-1371.47667771687
 30
0.0
 10
509.3144101058085
 20
-1371.001025734968
 30
0.0
 10
508.1039649924496
 20
-1369.952005215365
 30
0.0
 10
506.994545885562
 20
-1367.637464618387
 30
0.0
 10
506.2548970827719
 20
-1365.214884721202
 30
0.0
 10
505.1335133531731
 20
-1362.412141153142
 30
0.0
 10
504.4153764227107
 20
-1360.245995842384
 30
0.0
 10
503.36043699916
 20
-1358.493687687484
 30
0.0
 10
502.2059338463
 20
-1357.574866718091
 30
0.0
 10
500.8212451087898
 20
-1357.776899769686
 30
0.0
 10
500.0379131961231
 20
-1358.773901076296
 30
0.0
 10
499.7327281944663
 20
-1359.921179062602
 30
0.0
 10
499.5651281524317
 20
-1361.206115884853
 30
0.0
 10
499.5325961416451
 20
-1363.743676026674
 30
0.0
 10
500.0067792383616
 20
-1366.499186791022
 30
0.0
 10
501.0549588854672
 20
-1369.95315192511
 30
0.0
 10
501.8854706872594
 20
-1372.491932255191
 30
0.0
 10
502.4269023730445
 20
-1374.756379478406
 30
0.0
 10
502.6223512081812
 20
-1376.479887134376
 30
0.0
 10
502.6831403036439
 20
-1378.101908993318
 30
0.0
 10
502.44501716362
 20
-1379.830689609059
 30
0.0
 10
501.7927144398002
 20
-1381.0760383305
 30
0.0
 10
500.828018217441
 20
-1381.94552113465
 30
0.0
 10
499.482240555138
 20
-1382.286612755949
 30
0.0
 10
498.3124915578487
 20
-1382.013662083267
 30
0.0
 10
497.1543445342834
 20
-1381.355368221206
 30
0.0
 10
496.2474078545707
 20
-1380.364937355706
 30
0.0
 10
495.047637081965
 20
-1378.726473692441
 30
0.0
 10
493.9177086277467
 20
-1376.904863328981
 30
0.0
 10
492.2838579130721
 20
-1372.438962357532
 30
0.0
 10
491.6481629034711
 20
-1372.058723200654
 30
0.0
 10
491.5375798967058
 20
-1371.916763805684
 30
0.0
  0
SPLINE
  5
A0
330
1F
100
AcDbEntity
  8
Default
100
AcDbSpline
210
0.0
220
0.0
230
1.0
 70
     8
 71
     3
 72
    38
 73
    34
 74
     0
 42
0.0000000001
 43
0.0000000001
 40
110.5308643845835
 40
110.5308643845835
 40
110.5308643845835
 40
110.5308643845835
 40
110.7752280717984
 40
112.541738088554
 40
115.9626548043879
 40
118.8295372915077
 40
121.3769610527648
 40
125.4392059509728
 40
128.1041409898167
 40
131.1206786862244
 40
133.352039598236
 40
135.2404304853286
 40
136.8756476200052
 40
139.9826347825257
 40
142.4509785920995
 40
146.2502595136142
 40
147.9351799550137
 40
148.8735878712241
 40
149.6346450934488
 40
151.3533321433818
 40
153.1224286962214
 40
155.0732162919789
 40
155.9799971578446
 40
157.2127776965761
 40
161.08633284846
 40
163.8054076821842
 40
169.0876183144126
 40
174.374492464882
 40
177.0517036045217
 40
180.3843424438871
 40
182.7487044416743
 40
187.7365580037223
 40
195.6280986232809
 40
195.6280986232809
 40
195.6280986232809
 40
195.6280986232809
 10
491.5375798967058
 20
-1371.916763805684
 30
0.0
 10
491.5569634715487
 20
-1371.870932503687
 30
0.0
 10
491.5264954020259
 20
-1371.199225372478
 30
0.0
 10
490.3947240183177
 20
-1370.434580437408
 30
0.0
 10
489.5596324190468
 20
-1368.468424358435
 30
0.0
 10
487.7749140233124
 20
-1367.065189921952
 30
0.0
 10
486.6324224724349
 20
-1364.960177739428
 30
0.0
 10
486.2131305868164
 20
-1362.402085153818
 30
0.0
 10
487.9361508501318
 20
-1360.379833985453
 30
0.0
 10
489.8799942250258
 20
-1359.800455083888
 30
0.0
 10
491.4158319225398
 20
-1358.901261775212
 30
0.0
 10
492.5268301972317
 20
-1357.817462034327
 30
0.0
 10
492.4371264434524
 20
-1355.984919068068
 30
0.0
 10
490.9129024437531
 20
-1354.695377029226
 30
0.0
 10
488.7365842459646
 20
-1353.855164339675
 30
0.0
 10
486.9944417867859
 20
-1352.845759321136
 30
0.0
 10
485.7716061340024
 20
-1351.721623634275
 30
0.0
 10
485.6550877148781
 20
-1350.748361441118
 30
0.0
 10
486.4019655052589
 20
-1350.18612387114
 30
0.0
 10
487.4252816606048
 20
-1349.913154386255
 30
0.0
 10
488.830366936546
 20
-1349.812521118407
 30
0.0
 10
489.9017398108872
 20
-1350.061610977761
 30
0.0
 10
491.0767152605812
 20
-1350.197397370843
 30
0.0
 10
491.5272333906423
 20
-1348.449625218543
 30
0.0
 10
492.3883154908646
 20
-1346.811928029938
 30
0.0
 10
491.9059003409923
 20
-1343.641263557125
 30
0.0
 10
489.6357055057867
 20
-1341.253145328423
 30
0.0
 10
487.0882968683396
 20
-1338.385491731911
 30
0.0
 10
488.0523842087423
 20
-1335.600586918381
 30
0.0
 10
488.4770942538474
 20
-1333.333751524056
 30
0.0
 10
491.2381809929088
 20
-1332.323838069773
 30
0.0
 10
492.6496264407959
 20
-1328.505247317781
 30
0.0
 10
492.5554380318335
 20
-1324.541523177464
 30
0.0
 10
491.3178662012701
 20
-1323.15077468975
 30
0.0
  0
SPLINE
  5
A1
330
1F
100
AcDbEntity
  8
Default
100
AcDbSpline
210
0.0
220
0.0
230
1.0
 70
     8
 71
     3
 72
    62
 73
    58
 74
     0
 42
0.0000000001
 43
0.0000000001
 40
195.6280986232809
 40
195.6280986232809
 40
195.6280986232809
 40
195.6280986232809
 40
196.8688687659304
 40
199.6555394469174
 40
203.7837856083931
 40
205.3810946779118
 40
207.7392293795417
 40
209.040171916543
 40
210.6309300831408
 40
212.3903137963846
 40
214.3334772830475
 40
215.6021696941621
 40
217.9159394704243
 40
221.1506520737615
 40
222.0533190094293
 40
224.8059254972593
 40
230.3787276208991
 40
232.6714099691066
 40
239.1582853132053
 40
241.3714856760964
 40
242.7390435145019
 40
244.2966534339444
 40
246.0839392588645
 40
247.3919559819436
 40
249.4130408144495
 40
251.4595588604858
 40
255.5528471032493
 40
258.4064265220019
 40
263.4724134279987
 40
265.6060021676341
 40
268.5471174632702
 40
269.5109039038138
 40
270.8685704988143
 40
271.8400428834461
 40
275.1541854325615
 40
275.6026682559337
 40
279.8112528695729
 40
280.4671036260788
 40
281.8588640124136
 40
282.1917277849111
 40
287.7145628425864
 40
290.6731515477695
 40
296.3448295391021
 40
298.8676851116511
 40
302.5459613274454
 40
304.5052886284737
 40
306.6378954426395
 40
311.2930936971106
 40
313.1057773365914
 40
314.2541556996132
 40
316.6345198601487
 40
318.2997321992385
 40
319.7712803440129
 40
321.1979157975144
 40
322.1490202849581
 40
324.2168313623816
 40
325.621362771578
 40
325.621362771578
 40
325.621362771578
 40
325.621362771578
 10
491.3178662012701
 20
-1323.15077468975
 30
0.0
 10
491.4284492080349
 20
-1323.29273408472
 30
0.0
 10
492.0641442176362
 20
-1323.672973241598
 30
0.0
 10
493.6979949323111
 20
-1328.138874213046
 30
0.0
 10
494.8279233865296
 20
-1329.960484576507
 30
0.0
 10
496.0276941591345
 20
-1331.598948239772
 30
0.0
 10
496.9346308388471
 20
-1332.589379105271
 30
0.0
 10
498.0927778624127
 20
-1333.247672967332
 30
0.0
 10
499.2625268597023
 20
-1333.520623640015
 30
0.0
 10
500.6083045220047
 20
-1333.179532018715
 30
0.0
 10
501.5730007443642
 20
-1332.310049214566
 30
0.0
 10
502.2253034681843
 20
-1331.064700493125
 30
0.0
 10
502.4634266082077
 20
-1329.335919877384
 30
0.0
 10
502.4026375127451
 20
-1327.713898018442
 30
0.0
 10
502.2071886776082
 20
-1325.990390362471
 30
0.0
 10
501.6657569918228
 20
-1323.725943139257
 30
0.0
 10
500.8352451900315
 20
-1321.187162809176
 30
0.0
 10
499.7870655429259
 20
-1317.733197675087
 30
0.0
 10
499.3128824462086
 20
-1314.977686910739
 30
0.0
 10
499.3454144569956
 20
-1312.440126768919
 30
0.0
 10
499.5130144990304
 20
-1311.155189946668
 30
0.0
 10
499.8181995006877
 20
-1310.007911960362
 30
0.0
 10
500.6015314133542
 20
-1309.010910653751
 30
0.0
 10
501.9862201508643
 20
-1308.808877602157
 30
0.0
 10
503.1407233037245
 20
-1309.72769857155
 30
0.0
 10
504.1956627272749
 20
-1311.48000672645
 30
0.0
 10
504.9137996577373
 20
-1313.646152037208
 30
0.0
 10
506.0351833873364
 20
-1316.448895605267
 30
0.0
 10
506.7748321901258
 20
-1318.871475502452
 30
0.0
 10
507.8842512970132
 20
-1321.186016099431
 30
0.0
 10
509.0946964103733
 20
-1322.235036619033
 30
0.0
 10
510.3275401957603
 20
-1322.710688600935
 30
0.0
 10
511.0994703003204
 20
-1323.037824235915
 30
0.0
 10
512.5253391378151
 20
-1323.137623577655
 30
0.0
 10
513.7204011606166
 20
-1323.103182985357
 30
0.0
 10
515.7033086177321
 20
-1322.820139626231
 30
0.0
 10
517.084905530605
 20
-1322.687126410436
 30
0.0
 10
518.6010240015121
 20
-1323.040865698326
 30
0.0
 10
519.2167848199524
 20
-1323.282799058668
 30
0.0
 10
520.1296338323293
 20
-1324.879610695578
 30
0.0
 10
521.321451806278
 20
-1326.734764342812
 30
0.0
 10
523.0272007176443
 20
-1329.867083546969
 30
0.0
 10
524.8445558650195
 20
-1332.049756577832
 30
0.0
 10
527.498484388266
 20
-1333.667626210731
 30
0.0
 10
529.7331171008273
 20
-1333.088806949167
 30
0.0
 10
531.2360909802685
 20
-1331.793624482861
 30
0.0
 10
532.1586045478357
 20
-1329.744032632618
 30
0.0
 10
532.5776363062248
 20
-1327.622536354848
 30
0.0
 10
532.823474802018
 20
-1325.711520464118
 30
0.0
 10
533.2951950564627
 20
-1324.450786451291
 30
0.0
 10
533.918838686023
 20
-1323.272352322287
 30
0.0
 10
534.9482692481582
 20
-1322.334874124002
 30
0.0
 10
536.0056143748471
 20
-1321.758703429417
 30
0.0
 10
537.0079621501169
 20
-1321.955583541894
 30
0.0
 10
538.0385273252331
 20
-1322.32439867228
 30
0.0
 10
539.0828660456649
 20
-1322.673336299084
 30
0.0
 10
539.6280605079305
 20
-1323.137868471327
 30
0.0
 10
540.1082556657244
 20
-1323.330260687335
 30
0.0
  0
SPLINE
  5
A2
330
1F
100
AcDbEntity
  8
Default
100
AcDbSpline
210
0.0
220
0.0
230
1.0
 70
     8
 71
     3
 72
    38
 73
    34
 74
     0
 42
0.0000000001
 43
0.0000000001
 40
325.621362771578
 40
325.621362771578
 40
325.621362771578
 40
325.621362771578
 40
333.5129033911367
 40
338.5007569531846
 40
340.8651189509719
 40
344.1977577903373
 40
346.874968929977
 40
352.1618430804464
 40
357.4440537126748
 40
360.163128546399
 40
364.0366836982829
 40
365.2694642370144
 40
366.1762451028801
 40
368.1270326986375
 40
369.8961292514772
 40
371.6148163014102
 40
372.3758735236349
 40
373.3142814398453
 40
374.9992018812447
 40
378.7984828027595
 40
381.2668266123333
 40
384.3738137748538
 40
386.0090309095303
 40
387.897421796623
 40
390.1287827086346
 40
393.1453204050423
 40
395.8102554438861
 40
399.8725003420942
 40
402.4199241033513
 40
405.2868065904711
 40
408.707723306305
 40
410.4742333230606
 40
410.7185970102755
 40
410.7185970102755
 40
410.7185970102755
 40
410.7185970102755
 10
540.1082556657244
 20
-1323.330260687335
 30
0.0
 10
541.3458274962879
 20
-1324.721009175049
 30
0.0
 10
541.4400159052506
 20
-1328.684733315366
 30
0.0
 10
540.0285704573632
 20
-1332.503324067358
 30
0.0
 10
537.267483718302
 20
-1333.513237521641
 30
0.0
 10
536.8427736731969
 20
-1335.780072915967
 30
0.0
 10
535.878686332794
 20
-1338.564977729497
 30
0.0
 10
538.4260949702413
 20
-1341.432631326009
 30
0.0
 10
540.6962898054467
 20
-1343.82074955471
 30
0.0
 10
541.1787049553195
 20
-1346.991414027523
 30
0.0
 10
540.3176228550967
 20
-1348.629111216128
 30
0.0
 10
539.867104725036
 20
-1350.376883368429
 30
0.0
 10
538.6921292753416
 20
-1350.241096975345
 30
0.0
 10
537.6207564010006
 20
-1349.992007115993
 30
0.0
 10
536.2156711250585
 20
-1350.092640383839
 30
0.0
 10
535.1923549697135
 20
-1350.365609868725
 30
0.0
 10
534.4454771793327
 20
-1350.927847438703
 30
0.0
 10
534.5619955984569
 20
-1351.90110963186
 30
0.0
 10
535.7848312512405
 20
-1353.025245318721
 30
0.0
 10
537.5269737104188
 20
-1354.03465033726
 30
0.0
 10
539.7032919082079
 20
-1354.874863026811
 30
0.0
 10
541.227515907907
 20
-1356.164405065653
 30
0.0
 10
541.3172196616861
 20
-1357.996948031913
 30
0.0
 10
540.2062213869942
 20
-1359.080747772798
 30
0.0
 10
538.6703836894806
 20
-1359.979941081474
 30
0.0
 10
536.7265403145861
 20
-1360.559319983038
 30
0.0
 10
535.0035200512707
 20
-1362.581571151403
 30
0.0
 10
535.4228119368894
 20
-1365.139663737013
 30
0.0
 10
536.5653034877669
 20
-1367.244675919538
 30
0.0
 10
538.3500218835015
 20
-1368.64791035602
 30
0.0
 10
539.1851134827727
 20
-1370.614066434993
 30
0.0
 10
540.3168848664806
 20
-1371.378711370063
 30
0.0
 10
540.3473529360024
 20
-1372.050418501273
 30
0.0
 10
540.3279693611603
 20
-1372.09624980327
 30
0.0
  0
SPLINE
  5
A3
330
1F
100
AcDbEntity
  8
Default
100
AcDbSpline
210
0.0
220
0.0
230
1.0
 70
     8
 71
     3
 72
    62
 73
    58
 74
     0
 42
0.0000000001
 43
0.0000000001
 40
-19.46239976371358
 40
-19.46239976371358
 40
-19.46239976371358
 40
-19.46239976371358
 40
-18.05786835451713
 40
-15.99005727709365
 40
-15.03895278964997
 40
-13.61231733614839
 40
-12.14076919137401
 40
-10.4755568522842
 40
-8.095192691748707
 40
-6.946814328726902
 40
-5.134130689246106
 40
-0.4789324347750181
 40
1.653674379390793
 40
3.61300168041906
 40
7.291277896213401
 40
9.814133468762392
 40
15.48581146009495
 40
18.44440016527805
 40
23.96723522295336
 40
24.30009899545085
 40
25.69185938178565
 40
26.34771013829165
 40
30.55629475193071
 40
31.00477757530295
 40
34.31892012441837
 40
35.29039250905016
 40
36.64805910405066
 40
37.61184554459429
 40
40.5529608402304
 40
42.68654957986574
 40
47.75253648586256
 40
50.60611590461521
 40
54.69940414737864
 40
56.74592219341496
 40
58.76700702592088
 40
60.07502374899995
 40
61.86230957392003
 40
63.41991949336257
 40
64.78747733176805
 40
67.00067769465922
 40
73.48755303875784
 40
75.78023538696537
 40
81.35303751060518
 40
84.10564399843516
 40
85.00831093410294
 40
88.24302353744012
 40
90.55679331370236
 40
91.82548572481697
 40
93.76864921147985
 40
95.52803292472363
 40
97.11879109132151
 40
98.41973362832279
 40
100.7778683299527
 40
102.3751773994714
 40
106.5034235609471
 40
109.2900942419341
 40
110.5308643845835
 40
110.5308643845835
 40
110.5308643845835
 40
110.5308643845835
 10
442.7320012034415
 20
-1371.727578195644
 30
0.0
 10
442.2518060456475
 20
-1371.535185979636
 30
0.0
 10
441.7066115833819
 20
-1371.070653807392
 30
0.0
 10
440.6622728629505
 20
-1370.721716180589
 30
0.0
 10
439.6317076878335
 20
-1370.352901050202
 30
0.0
 10
438.6293599125638
 20
-1370.156020937725
 30
0.0
 10
437.572014785875
 20
-1370.73219163231
 30
0.0
 10
436.5425842237404
 20
-1371.669669830595
 30
0.0
 10
435.9189405941795
 20
-1372.848103959599
 30
0.0
 10
435.4472203397351
 20
-1374.108837972427
 30
0.0
 10
435.2013818439419
 20
-1376.019853863156
 30
0.0
 10
434.7823500855528
 20
-1378.141350140927
 30
0.0
 10
433.8598365179855
 20
-1380.190941991169
 30
0.0
 10
432.3568626385438
 20
-1381.486124457475
 30
0.0
 10
430.1222299259827
 20
-1382.06494371904
 30
0.0
 10
427.4683014027365
 20
-1380.44707408614
 30
0.0
 10
425.6509462553607
 20
-1378.264401055277
 30
0.0
 10
423.9451973439948
 20
-1375.132081851121
 30
0.0
 10
422.7533793700464
 20
-1373.276928203886
 30
0.0
 10
421.840530357669
 20
-1371.680116566976
 30
0.0
 10
421.2247695392288
 20
-1371.438183206635
 30
0.0
 10
419.7086510683214
 20
-1371.084443918744
 30
0.0
 10
418.3270541554485
 20
-1371.217457134539
 30
0.0
 10
416.3441466983335
 20
-1371.500500493665
 30
0.0
 10
415.1490846755322
 20
-1371.534941085964
 30
0.0
 10
413.7232158380379
 20
-1371.435141744223
 30
0.0
 10
412.9512857334774
 20
-1371.108006109244
 30
0.0
 10
411.7184419480897
 20
-1370.632354127342
 30
0.0
 10
410.5079968347304
 20
-1369.583333607739
 30
0.0
 10
409.3985777278421
 20
-1367.26879301076
 30
0.0
 10
408.6589289250528
 20
-1364.846213113576
 30
0.0
 10
407.5375451954541
 20
-1362.043469545516
 30
0.0
 10
406.8194082649917
 20
-1359.877324234758
 30
0.0
 10
405.764468841442
 20
-1358.125016079858
 30
0.0
 10
404.6099656885807
 20
-1357.206195110465
 30
0.0
 10
403.2252769510713
 20
-1357.408228162059
 30
0.0
 10
402.4419450384046
 20
-1358.40522946867
 30
0.0
 10
402.1367600367471
 20
-1359.552507454975
 30
0.0
 10
401.9691599947131
 20
-1360.837444277228
 30
0.0
 10
401.9366279839261
 20
-1363.375004419048
 30
0.0
 10
402.4108110806429
 20
-1366.130515183396
 30
0.0
 10
403.4589907277482
 20
-1369.584480317484
 30
0.0
 10
404.2895025295398
 20
-1372.123260647564
 30
0.0
 10
404.8309342153254
 20
-1374.387707870779
 30
0.0
 10
405.0263830504621
 20
-1376.11121552675
 30
0.0
 10
405.0871721459246
 20
-1377.733237385693
 30
0.0
 10
404.8490490059012
 20
-1379.462018001433
 30
0.0
 10
404.1967462820813
 20
-1380.707366722874
 30
0.0
 10
403.2320500597219
 20
-1381.576849527023
 30
0.0
 10
401.886272397419
 20
-1381.917941148324
 30
0.0
 10
400.7165234001299
 20
-1381.644990475641
 30
0.0
 10
399.5583763765637
 20
-1380.986696613579
 30
0.0
 10
398.651439696852
 20
-1379.99626574808
 30
0.0
 10
397.4516689242462
 20
-1378.357802084815
 30
0.0
 10
396.3217404700279
 20
-1376.536191721355
 30
0.0
 10
394.6878897553528
 20
-1372.070290749906
 30
0.0
 10
394.0521947457526
 20
-1371.690051593028
 30
0.0
 10
393.9416117389868
 20
-1371.548092198059
 30
0.0
  0
SPLINE
  5
A4
330
1F
100
AcDbEntity
  8
Default
100
AcDbSpline
210
0.0
220
0.0
230
1.0
 70
     8
 71
     3
 72
    38
 73
    34
 74
     0
 42
0.0000000001
 43
0.0000000001
 40
110.5308643845835
 40
110.5308643845835
 40
110.5308643845835
 40
110.5308643845835
 40
110.7752280717984
 40
112.541738088554
 40
115.9626548043879
 40
118.8295372915077
 40
121.3769610527648
 40
125.4392059509728
 40
128.1041409898167
 40
131.1206786862244
 40
133.352039598236
 40
135.2404304853286
 40
136.8756476200052
 40
139.9826347825257
 40
142.4509785920995
 40
146.2502595136142
 40
147.9351799550137
 40
148.8735878712241
 40
149.6346450934488
 40
151.3533321433818
 40
153.1224286962214
 40
155.0732162919789
 40
155.9799971578446
 40
157.2127776965761
 40
161.08633284846
 40
163.8054076821842
 40
169.0876183144126
 40
174.374492464882
 40
177.0517036045217
 40
180.3843424438871
 40
182.7487044416743
 40
187.7365580037223
 40
195.6280986232809
 40
195.6280986232809
 40
195.6280986232809
 40
195.6280986232809
 10
393.9416117389868
 20
-1371.548092198059
 30
0.0
 10
393.9609953138291
 20
-1371.502260896061
 30
0.0
 10
393.930527244307
 20
-1370.830553764853
 30
0.0
 10
392.798755860599
 20
-1370.065908829782
 30
0.0
 10
391.9636642613278
 20
-1368.09975275081
 30
0.0
 10
390.1789458655931
 20
-1366.696518314327
 30
0.0
 10
389.0364543147155
 20
-1364.591506131802
 30
0.0
 10
388.6171624290972
 20
-1362.033413546192
 30
0.0
 10
390.3401826924127
 20
-1360.011162377826
 30
0.0
 10
392.2840260673068
 20
-1359.431783476262
 30
0.0
 10
393.8198637648211
 20
-1358.532590167586
 30
0.0
 10
394.9308620395125
 20
-1357.448790426702
 30
0.0
 10
394.8411582857337
 20
-1355.616247460442
 30
0.0
 10
393.3169342860343
 20
-1354.326705421599
 30
0.0
 10
391.1406160882452
 20
-1353.486492732049
 30
0.0
 10
389.3984736290668
 20
-1352.47708771351
 30
0.0
 10
388.1756379762833
 20
-1351.352952026649
 30
0.0
 10
388.0591195571591
 20
-1350.379689833492
 30
0.0
 10
388.80599734754
 20
-1349.817452263514
 30
0.0
 10
389.8293135028854
 20
-1349.544482778629
 30
0.0
 10
391.2343987788268
 20
-1349.443849510781
 30
0.0
 10
392.3057716531679
 20
-1349.692939370134
 30
0.0
 10
393.4807471028626
 20
-1349.828725763217
 30
0.0
 10
393.9312652329234
 20
-1348.080953610918
 30
0.0
 10
394.7923473331454
 20
-1346.443256422313
 30
0.0
 10
394.3099321832736
 20
-1343.272591949499
 30
0.0
 10
392.0397373480673
 20
-1340.884473720797
 30
0.0
 10
389.4923287106204
 20
-1338.016820124285
 30
0.0
 10
390.4564160510234
 20
-1335.231915310756
 30
0.0
 10
390.881126096128
 20
-1332.965079916429
 30
0.0
 10
393.6422128351895
 20
-1331.955166462147
 30
0.0
 10
395.0536582830767
 20
-1328.136575710155
 30
0.0
 10
394.9594698741143
 20
-1324.172851569838
 30
0.0
 10
393.7218980435508
 20
-1322.782103082124
 30
0.0
  0
SPLINE
  5
A5
330
1F
100
AcDbEntity
  8
Default
100
AcDbSpline
210
0.0
220
0.0
230
1.0
 70
     8
 71
     3
 72
    62
 73
    58
 74
     0
 42
0.0000000001
 43
0.0000000001
 40
195.6280986232809
 40
195.6280986232809
 40
195.6280986232809
 40
195.6280986232809
 40
196.8688687659304
 40
199.6555394469174
 40
203.7837856083931
 40
205.3810946779118
 40
207.7392293795417
 40
209.040171916543
 40
210.6309300831408
 40
212.3903137963846
 40
214.3334772830475
 40
215.6021696941621
 40
217.9159394704243
 40
221.1506520737615
 40
222.0533190094293
 40
224.8059254972593
 40
230.3787276208991
 40
232.6714099691066
 40
239.1582853132053
 40
241.3714856760964
 40
242.7390435145019
 40
244.2966534339444
 40
246.0839392588645
 40
247.3919559819436
 40
249.4130408144495
 40
251.4595588604858
 40
255.5528471032493
 40
258.4064265220019
 40
263.4724134279987
 40
265.6060021676341
 40
268.5471174632702
 40
269.5109039038138
 40
270.8685704988143
 40
271.8400428834461
 40
275.1541854325615
 40
275.6026682559337
 40
279.8112528695729
 40
280.4671036260788
 40
281.8588640124136
 40
282.1917277849111
 40
287.7145628425864
 40
290.6731515477695
 40
296.3448295391021
 40
298.8676851116511
 40
302.5459613274454
 40
304.5052886284737
 40
306.6378954426395
 40
311.2930936971106
 40
313.1057773365914
 40
314.2541556996132
 40
316.6345198601487
 40
318.2997321992385
 40
319.7712803440129
 40
321.1979157975144
 40
322.1490202849581
 40
324.2168313623816
 40
325.621362771578
 40
325.621362771578
 40
325.621362771578
 40
325.621362771578
 10
393.7218980435508
 20
-1322.782103082124
 30
0.0
 10
393.8324810503159
 20
-1322.924062477094
 30
0.0
 10
394.4681760599175
 20
-1323.304301633972
 30
0.0
 10
396.1020267745921
 20
-1327.77020260542
 30
0.0
 10
397.2319552288104
 20
-1329.591812968881
 30
0.0
 10
398.4317260014151
 20
-1331.230276632146
 30
0.0
 10
399.3386626811284
 20
-1332.220707497645
 30
0.0
 10
400.4968097046941
 20
-1332.879001359707
 30
0.0
 10
401.6665587019834
 20
-1333.151952032389
 30
0.0
 10
403.0123363642857
 20
-1332.810860411089
 30
0.0
 10
403.9770325866452
 20
-1331.94137760694
 30
0.0
 10
404.6293353104653
 20
-1330.696028885498
 30
0.0
 10
404.8674584504888
 20
-1328.967248269758
 30
0.0
 10
404.8066693550265
 20
-1327.345226410816
 30
0.0
 10
404.6112205198894
 20
-1325.621718754845
 30
0.0
 10
404.0697888341039
 20
-1323.357271531631
 30
0.0
 10
403.2392770323124
 20
-1320.81849120155
 30
0.0
 10
402.1910973852069
 20
-1317.364526067461
 30
0.0
 10
401.7169142884898
 20
-1314.609015303114
 30
0.0
 10
401.7494462992769
 20
-1312.071455161293
 30
0.0
 10
401.9170463413116
 20
-1310.786518339041
 30
0.0
 10
402.222231342969
 20
-1309.639240352736
 30
0.0
 10
403.0055632556351
 20
-1308.642239046125
 30
0.0
 10
404.3902519931449
 20
-1308.440205994532
 30
0.0
 10
405.5447551460059
 20
-1309.359026963924
 30
0.0
 10
406.5996945695555
 20
-1311.111335118824
 30
0.0
 10
407.3178315000184
 20
-1313.277480429583
 30
0.0
 10
408.4392152296173
 20
-1316.080223997641
 30
0.0
 10
409.1788640324066
 20
-1318.502803894826
 30
0.0
 10
410.2882831392945
 20
-1320.817344491805
 30
0.0
 10
411.4987282526539
 20
-1321.866365011408
 30
0.0
 10
412.7315720380418
 20
-1322.342016993309
 30
0.0
 10
413.5035021426024
 20
-1322.669152628289
 30
0.0
 10
414.9293709800961
 20
-1322.768951970029
 30
0.0
 10
416.1244330028976
 20
-1322.734511377731
 30
0.0
 10
418.1073404600126
 20
-1322.451468018605
 30
0.0
 10
419.4889373728864
 20
-1322.318454802809
 30
0.0
 10
421.0050558437931
 20
-1322.6721940907
 30
0.0
 10
421.6208166622333
 20
-1322.914127451042
 30
0.0
 10
422.5336656746106
 20
-1324.510939087952
 30
0.0
 10
423.7254836485588
 20
-1326.366092735186
 30
0.0
 10
425.4312325599253
 20
-1329.498411939343
 30
0.0
 10
427.2485877073007
 20
-1331.681084970206
 30
0.0
 10
429.9025162305468
 20
-1333.298954603105
 30
0.0
 10
432.1371489431078
 20
-1332.720135341541
 30
0.0
 10
433.6401228225493
 20
-1331.424952875234
 30
0.0
 10
434.5626363901171
 20
-1329.375361024992
 30
0.0
 10
434.9816681485058
 20
-1327.253864747222
 30
0.0
 10
435.2275066442993
 20
-1325.342848856492
 30
0.0
 10
435.6992268987441
 20
-1324.082114843664
 30
0.0
 10
436.3228705283046
 20
-1322.90368071466
 30
0.0
 10
437.3523010904393
 20
-1321.966202516376
 30
0.0
 10
438.4096462171283
 20
-1321.39003182179
 30
0.0
 10
439.411993992398
 20
-1321.586911934268
 30
0.0
 10
440.4425591675146
 20
-1321.955727064655
 30
0.0
 10
441.4868978879452
 20
-1322.304664691457
 30
0.0
 10
442.0320923502112
 20
-1322.769196863702
 30
0.0
 10
442.5122875080057
 20
-1322.961589079709
 30
0.0
  0
SPLINE
  5
A6
330
1F
100
AcDbEntity
  8
Default
100
AcDbSpline
210
0.0
220
0.0
230
1.0
 70
     8
 71
     3
 72
    38
 73
    34
 74
     0
 42
0.0000000001
 43
0.0000000001
 40
325.621362771578
 40
325.621362771578
 40
325.621362771578
 40
325.621362771578
 40
333.5129033911367
 40
338.5007569531846
 40
340.8651189509719
 40
344.1977577903373
 40
346.874968929977
 40
352.1618430804464
 40
357.4440537126748
 40
360.163128546399
 40
364.0366836982829
 40
365.2694642370144
 40
366.1762451028801
 40
368.1270326986375
 40
369.8961292514772
 40
371.6148163014102
 40
372.3758735236349
 40
373.3142814398453
 40
374.9992018812447
 40
378.7984828027595
 40
381.2668266123333
 40
384.3738137748538
 40
386.0090309095303
 40
387.897421796623
 40
390.1287827086346
 40
393.1453204050423
 40
395.8102554438861
 40
399.8725003420942
 40
402.4199241033513
 40
405.2868065904711
 40
408.707723306305
 40
410.4742333230606
 40
410.7185970102755
 40
410.7185970102755
 40
410.7185970102755
 40
410.7185970102755
 10
442.5122875080057
 20
-1322.961589079709
 30
0.0
 10
443.7498593385689
 20
-1324.352337567423
 30
0.0
 10
443.8440477475314
 20
-1328.316061707741
 30
0.0
 10
442.4326022996441
 20
-1332.134652459732
 30
0.0
 10
439.6715155605825
 20
-1333.144565914014
 30
0.0
 10
439.2468055154778
 20
-1335.411401308341
 30
0.0
 10
438.282718175075
 20
-1338.19630612187
 30
0.0
 10
440.8301268125221
 20
-1341.063959718382
 30
0.0
 10
443.1003216477277
 20
-1343.452077947084
 30
0.0
 10
443.5827367976
 20
-1346.622742419898
 30
0.0
 10
442.7216546973777
 20
-1348.260439608502
 30
0.0
 10
442.2711365673171
 20
-1350.008211760802
 30
0.0
 10
441.0961611176227
 20
-1349.872425367719
 30
0.0
 10
440.0247882432814
 20
-1349.623335508366
 30
0.0
 10
438.6197029673399
 20
-1349.723968776214
 30
0.0
 10
437.5963868119943
 20
-1349.996938261099
 30
0.0
 10
436.849509021614
 20
-1350.559175831078
 30
0.0
 10
436.9660274407381
 20
-1351.532438024234
 30
0.0
 10
438.1888630935216
 20
-1352.656573711095
 30
0.0
 10
439.9310055527003
 20
-1353.665978729634
 30
0.0
 10
442.1073237504885
 20
-1354.506191419185
 30
0.0
 10
443.6315477501881
 20
-1355.795733458027
 30
0.0
 10
443.721251503967
 20
-1357.628276424287
 30
0.0
 10
442.6102532292751
 20
-1358.712076165172
 30
0.0
 10
441.0744155317614
 20
-1359.611269473847
 30
0.0
 10
439.1305721568675
 20
-1360.190648375412
 30
0.0
 10
437.4075518935518
 20
-1362.212899543777
 30
0.0
 10
437.8268437791703
 20
-1364.770992129387
 30
0.0
 10
438.9693353300478
 20
-1366.876004311912
 30
0.0
 10
440.7540537257822
 20
-1368.279238748395
 30
0.0
 10
441.5891453250533
 20
-1370.245394827367
 30
0.0
 10
442.7209167087614
 20
-1371.010039762438
 30
0.0
 10
442.7513847782835
 20
-1371.681746893646
 30
0.0
 10
442.7320012034415
 20
-1371.727578195644
 30
0.0
  0
SPLINE
  5
A7
330
1F
100
AcDbEntity
  8
Default
100
AcDbSpline
210
0.0
220
0.0
230
1.0
 70
     8
 71
     3
 72
    38
 73
    34
 74
     0
 42
0.0000000001
 43
0.0000000001
 40
234.5528981507081
 40
234.5528981507081
 40
234.5528981507081
 40
234.5528981507081
 40
242.4444387702667
 40
247.4322923323147
 40
249.7966543301019
 40
253.1292931694673
 40
255.806504309107
 40
261.0933784595765
 40
266.3755890918048
 40
269.094663925529
 40
272.9682190774129
 40
274.2009996161444
 40
275.1077804820101
 40
277.0585680777676
 40
278.8276646306072
 40
280.5463516805402
 40
281.307408902765
 40
282.2458168189753
 40
283.9307372603748
 40
287.7300181818895
 40
290.1983619914633
 40
293.3053491539839
 40
294.9405662886604
 40
296.828957175753
 40
299.0603180877646
 40
302.0768557841723
 40
304.7417908230162
 40
308.8040357212242
 40
311.3514594824813
 40
314.2183419696011
 40
317.639258685435
 40
319.4057687021906
 40
319.6501323894055
 40
319.6501323894055
 40
319.6501323894055
 40
319.6501323894055
 10
539.4191980489879
 20
-1128.223782486891
 30
0.0
 10
540.6567698795515
 20
-1129.614530974605
 30
0.0
 10
540.7509582885139
 20
-1133.578255114923
 30
0.0
 10
539.3395128406265
 20
-1137.396845866914
 30
0.0
 10
536.5784261015651
 20
-1138.406759321196
 30
0.0
 10
536.1537160564608
 20
-1140.673594715523
 30
0.0
 10
535.1896287160577
 20
-1143.458499529052
 30
0.0
 10
537.7370373535043
 20
-1146.326153125565
 30
0.0
 10
540.0072321887103
 20
-1148.714271354266
 30
0.0
 10
540.4896473385825
 20
-1151.88493582708
 30
0.0
 10
539.6285652383604
 20
-1153.522633015685
 30
0.0
 10
539.1780471082992
 20
-1155.270405167984
 30
0.0
 10
538.0030716586049
 20
-1155.134618774902
 30
0.0
 10
536.9316987842642
 20
-1154.885528915549
 30
0.0
 10
535.5266135083227
 20
-1154.986162183395
 30
0.0
 10
534.5032973529766
 20
-1155.259131668281
 30
0.0
 10
533.7564195625962
 20
-1155.821369238259
 30
0.0
 10
533.8729379817202
 20
-1156.794631431416
 30
0.0
 10
535.095773634504
 20
-1157.918767118278
 30
0.0
 10
536.8379160936822
 20
-1158.928172136816
 30
0.0
 10
539.0142342914712
 20
-1159.768384826367
 30
0.0
 10
540.5384582911705
 20
-1161.057926865209
 30
0.0
 10
540.6281620449496
 20
-1162.890469831469
 30
0.0
 10
539.5171637702574
 20
-1163.974269572354
 30
0.0
 10
537.9813260727436
 20
-1164.87346288103
 30
0.0
 10
536.0374826978492
 20
-1165.452841782594
 30
0.0
 10
534.3144624345342
 20
-1167.475092950959
 30
0.0
 10
534.7337543201525
 20
-1170.033185536569
 30
0.0
 10
535.87624587103
 20
-1172.138197719094
 30
0.0
 10
537.6609642667646
 20
-1173.541432155576
 30
0.0
 10
538.4960558660356
 20
-1175.507588234549
 30
0.0
 10
539.627827249744
 20
-1176.27223316962
 30
0.0
 10
539.6582953192659
 20
-1176.943940300828
 30
0.0
 10
539.6389117444235
 20
-1176.989771602826
 30
0.0
  0
SPLINE
  5
A8
330
1F
100
AcDbEntity
  8
Default
100
AcDbSpline
210
0.0
220
0.0
230
1.0
 70
     8
 71
     3
 72
    62
 73
    58
 74
     0
 42
0.0000000001
 43
0.0000000001
 40
319.6501323894055
 40
319.6501323894055
 40
319.6501323894055
 40
319.6501323894055
 40
320.890902532055
 40
323.6775732130419
 40
327.8058193745177
 40
329.4031284440364
 40
331.7612631456662
 40
333.0622056826675
 40
334.6529638492653
 40
336.4123475625091
 40
338.355511049172
 40
339.6242034602867
 40
341.9379732365489
 40
345.1726858398861
 40
346.0753527755538
 40
348.8279592633838
 40
354.4007613870236
 40
356.6934437352312
 40
363.1803190793298
 40
365.393519442221
 40
366.7610772806264
 40
368.318687200069
 40
370.1059730249891
 40
371.4139897480682
 40
373.4350745805741
 40
375.4815926266103
 40
379.5748808693738
 40
382.4284602881264
 40
387.4944471941233
 40
389.6280359337586
 40
392.5691512293947
 40
393.5329376699383
 40
394.8906042649388
 40
395.8620766495707
 40
399.1762191986861
 40
399.6247020220583
 40
403.8332866356974
 40
404.4891373922034
 40
405.8808977785382
 40
406.2137615510356
 40
411.736596608711
 40
414.6951853138941
 40
420.3668633052266
 40
422.8897188777756
 40
426.5679950935699
 40
428.5273223945982
 40
430.659929208764
 40
435.3151274632351
 40
437.1278111027159
 40
438.2761894657377
 40
440.6565536262732
 40
442.321765965363
 40
443.7933141101374
 40
445.219949563639
 40
446.1710540510826
 40
448.2388651285061
 40
449.6433965377026
 40
449.6433965377026
 40
449.6433965377026
 40
449.6433965377026
 10
539.6389117444235
 20
-1176.989771602826
 30
0.0
 10
539.7494947511886
 20
-1177.131730997795
 30
0.0
 10
540.3851897607901
 20
-1177.511970154673
 30
0.0
 10
542.0190404754644
 20
-1181.977871126122
 30
0.0
 10
543.1489689296832
 20
-1183.799481489582
 30
0.0
 10
544.348739702288
 20
-1185.437945152847
 30
0.0
 10
545.2556763820012
 20
-1186.428376018346
 30
0.0
 10
546.4138234055665
 20
-1187.086669880409
 30
0.0
 10
547.5835724028559
 20
-1187.359620553091
 30
0.0
 10
548.9293500651586
 20
-1187.018528931791
 30
0.0
 10
549.8940462875183
 20
-1186.149046127641
 30
0.0
 10
550.5463490113381
 20
-1184.9036974062
 30
0.0
 10
550.7844721513618
 20
-1183.17491679046
 30
0.0
 10
550.7236830558993
 20
-1181.552894931517
 30
0.0
 10
550.5282342207624
 20
-1179.829387275547
 30
0.0
 10
549.9868025349763
 20
-1177.564940052332
 30
0.0
 10
549.1562907331853
 20
-1175.026159722252
 30
0.0
 10
548.1081110860799
 20
-1171.572194588163
 30
0.0
 10
547.6339279893627
 20
-1168.816683823815
 30
0.0
 10
547.6664600001496
 20
-1166.279123681995
 30
0.0
 10
547.8340600421842
 20
-1164.994186859743
 30
0.0
 10
548.1392450438416
 20
-1163.846908873437
 30
0.0
 10
548.922576956508
 20
-1162.849907566826
 30
0.0
 10
550.307265694018
 20
-1162.647874515233
 30
0.0
 10
551.4617688468783
 20
-1163.566695484625
 30
0.0
 10
552.5167082704279
 20
-1165.319003639526
 30
0.0
 10
553.2348452008906
 20
-1167.485148950284
 30
0.0
 10
554.3562289304901
 20
-1170.287892518342
 30
0.0
 10
555.0958777332796
 20
-1172.710472415528
 30
0.0
 10
556.2052968401674
 20
-1175.025013012506
 30
0.0
 10
557.4157419535265
 20
-1176.074033532109
 30
0.0
 10
558.6485857389144
 20
-1176.549685514011
 30
0.0
 10
559.420515843475
 20
-1176.876821148991
 30
0.0
 10
560.8463846809692
 20
-1176.976620490731
 30
0.0
 10
562.0414467037706
 20
-1176.942179898432
 30
0.0
 10
564.0243541608852
 20
-1176.659136539306
 30
0.0
 10
565.4059510737584
 20
-1176.526123323511
 30
0.0
 10
566.9220695446656
 20
-1176.879862611402
 30
0.0
 10
567.5378303631062
 20
-1177.121795971743
 30
0.0
 10
568.4506793754832
 20
-1178.718607608653
 30
0.0
 10
569.6424973494316
 20
-1180.573761255888
 30
0.0
 10
571.3482462607972
 20
-1183.706080460044
 30
0.0
 10
573.1656014081735
 20
-1185.888753490907
 30
0.0
 10
575.8195299314191
 20
-1187.506623123807
 30
0.0
 10
578.0541626439804
 20
-1186.927803862242
 30
0.0
 10
579.5571365234223
 20
-1185.632621395936
 30
0.0
 10
580.4796500909895
 20
-1183.583029545694
 30
0.0
 10
580.8986818493793
 20
-1181.461533267923
 30
0.0
 10
581.144520345172
 20
-1179.550517377194
 30
0.0
 10
581.6162405996167
 20
-1178.289783364366
 30
0.0
 10
582.2398842291768
 20
-1177.111349235362
 30
0.0
 10
583.2693147913117
 20
-1176.173871037077
 30
0.0
 10
584.3266599180004
 20
-1175.597700342492
 30
0.0
 10
585.3290076932701
 20
-1175.79458045497
 30
0.0
 10
586.3595728683874
 20
-1176.163395585356
 30
0.0
 10
587.4039115888183
 20
-1176.512333212159
 30
0.0
 10
587.9491060510846
 20
-1176.976865384403
 30
0.0
 10
588.4293012088789
 20
-1177.169257600411
 30
0.0
  0
SPLINE
  5
A9
330
1F
100
AcDbEntity
  8
Default
100
AcDbSpline
210
0.0
220
0.0
230
1.0
 70
     8
 71
     3
 72
    38
 73
    34
 74
     0
 42
0.0000000001
 43
0.0000000001
 40
449.6433965377026
 40
449.6433965377026
 40
449.6433965377026
 40
449.6433965377026
 40
449.8877602249174
 40
451.6542702416731
 40
455.0751869575069
 40
457.9420694446267
 40
460.4894932058839
 40
464.5517381040918
 40
467.2166731429357
 40
470.2332108393435
 40
472.4645717513551
 40
474.3529626384477
 40
475.9881797731242
 40
479.0951669356447
 40
481.5635107452185
 40
485.3627916667332
 40
487.0477121081327
 40
487.9861200243431
 40
488.7471772465678
 40
490.4658642965008
 40
492.2349608493404
 40
494.1857484450979
 40
495.0925293109636
 40
496.3253098496951
 40
500.198865001579
 40
502.9179398353032
 40
508.2001504675316
 40
513.487024618001
 40
516.1642357576407
 40
519.4968745970061
 40
521.8612365947934
 40
526.8490901568414
 40
534.7406307763999
 40
534.7406307763999
 40
534.7406307763999
 40
534.7406307763999
 10
588.4293012088789
 20
-1177.169257600411
 30
0.0
 10
588.4486847837204
 20
-1177.123426298414
 30
0.0
 10
588.4182167141987
 20
-1176.451719167205
 30
0.0
 10
587.2864453304901
 20
-1175.687074232134
 30
0.0
 10
586.4513537312196
 20
-1173.720918153162
 30
0.0
 10
584.6666353354844
 20
-1172.317683716679
 30
0.0
 10
583.524143784607
 20
-1170.212671534154
 30
0.0
 10
583.104851898989
 20
-1167.654578948545
 30
0.0
 10
584.8278721623042
 20
-1165.632327780179
 30
0.0
 10
586.7717155371981
 20
-1165.052948878615
 30
0.0
 10
588.3075532347118
 20
-1164.153755569939
 30
0.0
 10
589.4185515094036
 20
-1163.069955829054
 30
0.0
 10
589.3288477556248
 20
-1161.237412862794
 30
0.0
 10
587.8046237559251
 20
-1159.947870823952
 30
0.0
 10
585.6283055581363
 20
-1159.107658134402
 30
0.0
 10
583.8861630989583
 20
-1158.098253115862
 30
0.0
 10
582.6633274461747
 20
-1156.974117429001
 30
0.0
 10
582.5468090270505
 20
-1156.000855235844
 30
0.0
 10
583.2936868174311
 20
-1155.438617665866
 30
0.0
 10
584.317002972777
 20
-1155.165648180981
 30
0.0
 10
585.7220882487183
 20
-1155.065014913134
 30
0.0
 10
586.7934611230594
 20
-1155.314104772487
 30
0.0
 10
587.968436572754
 20
-1155.44989116557
 30
0.0
 10
588.418954702815
 20
-1153.70211901327
 30
0.0
 10
589.2800368030372
 20
-1152.064421824665
 30
0.0
 10
588.7976216531647
 20
-1148.893757351852
 30
0.0
 10
586.5274268179593
 20
-1146.50563912315
 30
0.0
 10
583.9800181805122
 20
-1143.637985526638
 30
0.0
 10
584.944105520915
 20
-1140.853080713108
 30
0.0
 10
585.3688155660197
 20
-1138.586245318781
 30
0.0
 10
588.1299023050809
 20
-1137.576331864499
 30
0.0
 10
589.5413477529681
 20
-1133.757741112508
 30
0.0
 10
589.4471593440055
 20
-1129.79401697219
 30
0.0
 10
588.2095875134428
 20
-1128.403268484477
 30
0.0
  0
SPLINE
  5
AA
330
1F
100
AcDbEntity
  8
Default
100
AcDbSpline
210
0.0
220
0.0
230
1.0
 70
     8
 71
     3
 72
    62
 73
    58
 74
     0
 42
0.0000000001
 43
0.0000000001
 40
534.7406307763999
 40
534.7406307763999
 40
534.7406307763999
 40
534.7406307763999
 40
536.1451621855964
 40
538.2129732630199
 40
539.1640777504635
 40
540.5907132039652
 40
542.0622613487395
 40
543.7274736878293
 40
546.1078378483649
 40
547.2562162113866
 40
549.0688998508674
 40
553.7240981053385
 40
555.8567049195043
 40
557.8160322205326
 40
561.494308436327
 40
564.017164008876
 40
569.6888420002085
 40
572.6474307053916
 40
578.1702657630669
 40
578.5031295355644
 40
579.8948899218992
 40
580.5507406784052
 40
584.7593252920442
 40
585.2078081154165
 40
588.5219506645319
 40
589.4934230491637
 40
590.8510896441642
 40
591.8148760847079
 40
594.755991380344
 40
596.8895801199793
 40
601.955567025976
 40
604.8091464447288
 40
608.9024346874922
 40
610.9489527335285
 40
612.9700375660344
 40
614.2780542891135
 40
616.0653401140336
 40
617.6229500334762
 40
618.9905078718816
 40
621.2037082347728
 40
627.6905835788714
 40
629.983265927079
 40
635.5560680507187
 40
638.3086745385488
 40
639.2113414742165
 40
642.4460540775536
 40
644.7598238538159
 40
646.0285162649305
 40
647.9716797515935
 40
649.7310634648372
 40
651.3218216314351
 40
652.6227641684363
 40
654.9808988700662
 40
656.5782079395849
 40
660.7064541010607
 40
663.4931247820476
 40
664.7338949246971
 40
664.7338949246971
 40
664.7338949246971
 40
664.7338949246971
 10
588.2095875134428
 20
-1128.403268484477
 30
0.0
 10
587.7293923556483
 20
-1128.210876268469
 30
0.0
 10
587.1841978933826
 20
-1127.746344096225
 30
0.0
 10
586.1398591729517
 20
-1127.397406469421
 30
0.0
 10
585.1092939978348
 20
-1127.028591339036
 30
0.0
 10
584.1069462225645
 20
-1126.831711226558
 30
0.0
 10
583.0496010958761
 20
-1127.407881921143
 30
0.0
 10
582.0201705337406
 20
-1128.345360119428
 30
0.0
 10
581.3965269041805
 20
-1129.523794248432
 30
0.0
 10
580.9248066497361
 20
-1130.78452826126
 30
0.0
 10
580.6789681539431
 20
-1132.695544151989
 30
0.0
 10
580.2599363955535
 20
-1134.817040429759
 30
0.0
 10
579.3374228279864
 20
-1136.866632280002
 30
0.0
 10
577.8344489485448
 20
-1138.161814746308
 30
0.0
 10
575.5998162359833
 20
-1138.740634007873
 30
0.0
 10
572.9458877127373
 20
-1137.122764374973
 30
0.0
 10
571.1285325653616
 20
-1134.94009134411
 30
0.0
 10
569.422783653996
 20
-1131.807772139954
 30
0.0
 10
568.2309656800475
 20
-1129.952618492719
 30
0.0
 10
567.3181166676703
 20
-1128.355806855809
 30
0.0
 10
566.70235584923
 20
-1128.113873495467
 30
0.0
 10
565.1862373783223
 20
-1127.760134207577
 30
0.0
 10
563.8046404654491
 20
-1127.893147423372
 30
0.0
 10
561.821733008334
 20
-1128.176190782498
 30
0.0
 10
560.6266709855331
 20
-1128.210631374797
 30
0.0
 10
559.2008021480391
 20
-1128.110832033056
 30
0.0
 10
558.4288720434783
 20
-1127.783696398076
 30
0.0
 10
557.1960282580906
 20
-1127.308044416175
 30
0.0
 10
555.9855831447315
 20
-1126.259023896572
 30
0.0
 10
554.8761640378436
 20
-1123.944483299593
 30
0.0
 10
554.1365152350539
 20
-1121.521903402409
 30
0.0
 10
553.0151315054554
 20
-1118.719159834349
 30
0.0
 10
552.2969945749921
 20
-1116.553014523591
 30
0.0
 10
551.2420551514425
 20
-1114.800706368692
 30
0.0
 10
550.0875519985823
 20
-1113.881885399299
 30
0.0
 10
548.7028632610718
 20
-1114.083918450892
 30
0.0
 10
547.9195313484055
 20
-1115.080919757503
 30
0.0
 10
547.6143463467482
 20
-1116.228197743809
 30
0.0
 10
547.4467463047135
 20
-1117.51313456606
 30
0.0
 10
547.4142142939266
 20
-1120.050694707881
 30
0.0
 10
547.8883973906437
 20
-1122.806205472228
 30
0.0
 10
548.9365770377492
 20
-1126.260170606317
 30
0.0
 10
549.7670888395405
 20
-1128.798950936398
 30
0.0
 10
550.3085205253263
 20
-1131.063398159612
 30
0.0
 10
550.503969360463
 20
-1132.786905815583
 30
0.0
 10
550.5647584559258
 20
-1134.408927674526
 30
0.0
 10
550.3266353159022
 20
-1136.137708290266
 30
0.0
 10
549.6743325920826
 20
-1137.383057011707
 30
0.0
 10
548.7096363697226
 20
-1138.252539815857
 30
0.0
 10
547.3638587074205
 20
-1138.593631437156
 30
0.0
 10
546.1941097101304
 20
-1138.320680764474
 30
0.0
 10
545.0359626865651
 20
-1137.662386902412
 30
0.0
 10
544.1290260068529
 20
-1136.671956036913
 30
0.0
 10
542.9292552342472
 20
-1135.033492373648
 30
0.0
 10
541.7993267800291
 20
-1133.211882010188
 30
0.0
 10
540.165476065354
 20
-1128.74598103874
 30
0.0
 10
539.5297810557529
 20
-1128.365741881861
 30
0.0
 10
539.4191980489879
 20
-1128.223782486891
 30
0.0
  0
SPLINE
  5
AB
330
1F
100
AcDbEntity
  8
Default
100
AcDbSpline
210
0.0
220
0.0
230
1.0
 70
     8
 71
     3
 72
    62
 73
    58
 74
     0
 42
0.0000000001
 43
0.0000000001
 40
104.559634002411
 40
104.559634002411
 40
104.559634002411
 40
104.559634002411
 40
105.9641654116074
 40
108.0319764890309
 40
108.9830809764746
 40
110.4097164299762
 40
111.8812645747505
 40
113.5464769138404
 40
115.9268410743758
 40
117.0752194373976
 40
118.8879030768784
 40
123.5431013313495
 40
125.6757081455153
 40
127.6350354465436
 40
131.313311662338
 40
133.8361672348869
 40
139.5078452262195
 40
142.4664339314026
 40
147.9892689890779
 40
148.3221327615754
 40
149.7138931479102
 40
150.3697439044162
 40
154.5783285180553
 40
155.0268113414275
 40
158.3409538905429
 40
159.3124262751747
 40
160.6700928701752
 40
161.6338793107188
 40
164.5749946063549
 40
166.7085833459903
 40
171.7745702519871
 40
174.6281496707398
 40
178.7214379135032
 40
180.7679559595395
 40
182.7890407920454
 40
184.0970575151245
 40
185.8843433400446
 40
187.4419532594871
 40
188.8095110978926
 40
191.0227114607838
 40
197.5095868048824
 40
199.8022691530899
 40
205.3750712767297
 40
208.1276777645597
 40
209.0303447002275
 40
212.2650573035647
 40
214.5788270798269
 40
215.8475194909415
 40
217.7906829776044
 40
219.5500666908482
 40
221.1408248574461
 40
222.4417673944473
 40
224.7999020960772
 40
226.3972111655959
 40
230.5254573270716
 40
233.3121280080586
 40
234.5528981507081
 40
234.5528981507081
 40
234.5528981507081
 40
234.5528981507081
 10
539.4191980489879
 20
-1128.223782486891
 30
0.0
 10
538.8690546290334
 20
-1128.060024565805
 30
0.0
 10
538.3238601667674
 20
-1127.595492393561
 30
0.0
 10
537.2795214463363
 20
-1127.246554766758
 30
0.0
 10
536.2489562712198
 20
-1126.877739636371
 30
0.0
 10
535.2466084959497
 20
-1126.680859523894
 30
0.0
 10
534.1892633692612
 20
-1127.257030218479
 30
0.0
 10
533.1598328071261
 20
-1128.194508416763
 30
0.0
 10
532.5361891775661
 20
-1129.372942545768
 30
0.0
 10
532.0644689231211
 20
-1130.633676558595
 30
0.0
 10
531.8186304273281
 20
-1132.544692449325
 30
0.0
 10
531.399598668939
 20
-1134.666188727095
 30
0.0
 10
530.4770851013716
 20
-1136.715780577337
 30
0.0
 10
528.9741112219299
 20
-1138.010963043644
 30
0.0
 10
526.7394785093686
 20
-1138.589782305208
 30
0.0
 10
524.0855499861224
 20
-1136.971912672309
 30
0.0
 10
522.2681948387469
 20
-1134.789239641446
 30
0.0
 10
520.5624459273808
 20
-1131.65692043729
 30
0.0
 10
519.370627953432
 20
-1129.801766790055
 30
0.0
 10
518.4577789410553
 20
-1128.204955153145
 30
0.0
 10
517.8420181226147
 20
-1127.963021792804
 30
0.0
 10
516.3258996517079
 20
-1127.609282504913
 30
0.0
 10
514.9443027388348
 20
-1127.742295720708
 30
0.0
 10
512.9613952817197
 20
-1128.025339079834
 30
0.0
 10
511.7663332589179
 20
-1128.059779672132
 30
0.0
 10
510.340464421424
 20
-1127.959980330392
 30
0.0
 10
509.5685343168639
 20
-1127.632844695412
 30
0.0
 10
508.3356905314762
 20
-1127.157192713511
 30
0.0
 10
507.1252454181168
 20
-1126.108172193908
 30
0.0
 10
506.0158263112286
 20
-1123.793631596929
 30
0.0
 10
505.2761775084391
 20
-1121.371051699744
 30
0.0
 10
504.1547937788402
 20
-1118.568308131685
 30
0.0
 10
503.4366568483774
 20
-1116.402162820927
 30
0.0
 10
502.3817174248274
 20
-1114.649854666027
 30
0.0
 10
501.2272142719667
 20
-1113.731033696634
 30
0.0
 10
499.8425255344571
 20
-1113.933066748228
 30
0.0
 10
499.0591936217909
 20
-1114.930068054839
 30
0.0
 10
498.7540086201333
 20
-1116.077346041144
 30
0.0
 10
498.5864085780987
 20
-1117.362282863396
 30
0.0
 10
498.5538765673117
 20
-1119.899843005217
 30
0.0
 10
499.028059664029
 20
-1122.655353769565
 30
0.0
 10
500.0762393111343
 20
-1126.109318903653
 30
0.0
 10
500.9067511129259
 20
-1128.648099233734
 30
0.0
 10
501.4481827987116
 20
-1130.912546456949
 30
0.0
 10
501.6436316338484
 20
-1132.636054112918
 30
0.0
 10
501.7044207293106
 20
-1134.258075971862
 30
0.0
 10
501.466297589287
 20
-1135.986856587602
 30
0.0
 10
500.8139948654677
 20
-1137.232205309043
 30
0.0
 10
499.8492986431077
 20
-1138.101688113192
 30
0.0
 10
498.5035209808053
 20
-1138.442779734492
 30
0.0
 10
497.3337719835157
 20
-1138.16982906181
 30
0.0
 10
496.17562495995
 20
-1137.511535199748
 30
0.0
 10
495.2686882802373
 20
-1136.521104334249
 30
0.0
 10
494.0689175076324
 20
-1134.882640670984
 30
0.0
 10
492.938989053414
 20
-1133.061030307523
 30
0.0
 10
491.3051383387393
 20
-1128.595129336075
 30
0.0
 10
490.6694433291376
 20
-1128.214890179197
 30
0.0
 10
490.5588603223727
 20
-1128.072930784227
 30
0.0
  0
SPLINE
  5
AC
330
1F
100
AcDbEntity
  8
Default
100
AcDbSpline
210
0.0
220
0.0
230
1.0
 70
     8
 71
     3
 72
    62
 73
    58
 74
     0
 42
0.0000000001
 43
0.0000000001
 40
234.5528981507081
 40
234.5528981507081
 40
234.5528981507081
 40
234.5528981507081
 40
235.9574295599045
 40
238.025240637328
 40
238.9763451247717
 40
240.4029805782733
 40
241.8745287230477
 40
243.5397410621375
 40
245.9201052226729
 40
247.0684835856948
 40
248.8811672251755
 40
253.5363654796466
 40
255.6689722938124
 40
257.6282995948407
 40
261.3065758106351
 40
263.829431383184
 40
269.5011093745166
 40
272.4596980796997
 40
277.982533137375
 40
278.3153969098725
 40
279.7071572962073
 40
280.3630080527133
 40
284.5715926663523
 40
285.0200754897246
 40
288.33421803884
 40
289.3056904234718
 40
290.6633570184723
 40
291.6271434590159
 40
294.568258754652
 40
296.7018474942874
 40
301.7678344002842
 40
304.6214138190369
 40
308.7147020618003
 40
310.7612201078366
 40
312.7823049403426
 40
314.0903216634216
 40
315.8776074883417
 40
317.4352174077842
 40
318.8027752461897
 40
321.0159756090809
 40
327.5028509531795
 40
329.795533301387
 40
335.3683354250268
 40
338.1209419128568
 40
339.0236088485246
 40
342.2583214518618
 40
344.572091228124
 40
345.8407836392386
 40
347.7839471259015
 40
349.5433308391453
 40
351.1340890057431
 40
352.4350315427445
 40
354.7931662443743
 40
356.390475313893
 40
360.5187214753687
 40
363.3053921563557
 40
364.5461622990052
 40
364.5461622990052
 40
364.5461622990052
 40
364.5461622990052
 10
490.5588603223727
 20
-1128.072930784227
 30
0.0
 10
490.0786651645786
 20
-1127.88053856822
 30
0.0
 10
489.5334707023133
 20
-1127.416006395976
 30
0.0
 10
488.4891319818818
 20
-1127.067068769172
 30
0.0
 10
487.458566806765
 20
-1126.698253638786
 30
0.0
 10
486.4562190314952
 20
-1126.501373526308
 30
0.0
 10
485.3988739048064
 20
-1127.077544220894
 30
0.0
 10
484.3694433426718
 20
-1128.015022419178
 30
0.0
 10
483.7457997131111
 20
-1129.193456548182
 30
0.0
 10
483.2740794586663
 20
-1130.45419056101
 30
0.0
 10
483.0282409628736
 20
-1132.36520645174
 30
0.0
 10
482.6092092044844
 20
-1134.48670272951
 30
0.0
 10
481.686695636917
 20
-1136.536294579752
 30
0.0
 10
480.1837217574754
 20
-1137.831477046059
 30
0.0
 10
477.9490890449142
 20
-1138.410296307623
 30
0.0
 10
475.2951605216682
 20
-1136.792426674724
 30
0.0
 10
473.4778053742928
 20
-1134.609753643861
 30
0.0
 10
471.7720564629259
 20
-1131.477434439704
 30
0.0
 10
470.5802384889778
 20
-1129.62228079247
 30
0.0
 10
469.6673894766008
 20
-1128.02546915556
 30
0.0
 10
469.0516286581607
 20
-1127.783535795218
 30
0.0
 10
467.5355101872532
 20
-1127.429796507327
 30
0.0
 10
466.1539132743802
 20
-1127.562809723123
 30
0.0
 10
464.1710058172649
 20
-1127.845853082248
 30
0.0
 10
462.9759437944635
 20
-1127.880293674547
 30
0.0
 10
461.5500749569696
 20
-1127.780494332807
 30
0.0
 10
460.7781448524091
 20
-1127.453358697827
 30
0.0
 10
459.5453010670217
 20
-1126.977706715925
 30
0.0
 10
458.3348559536618
 20
-1125.928686196323
 30
0.0
 10
457.2254368467745
 20
-1123.614145599344
 30
0.0
 10
456.4857880439848
 20
-1121.191565702159
 30
0.0
 10
455.3644043143853
 20
-1118.3888221341
 30
0.0
 10
454.6462673839227
 20
-1116.222676823342
 30
0.0
 10
453.591327960373
 20
-1114.470368668442
 30
0.0
 10
452.4368248075124
 20
-1113.551547699049
 30
0.0
 10
451.0521360700023
 20
-1113.753580750642
 30
0.0
 10
450.2688041573361
 20
-1114.750582057253
 30
0.0
 10
449.9636191556789
 20
-1115.897860043559
 30
0.0
 10
449.7960191136443
 20
-1117.182796865811
 30
0.0
 10
449.7634871028573
 20
-1119.720357007631
 30
0.0
 10
450.2376701995744
 20
-1122.475867771979
 30
0.0
 10
451.2858498466795
 20
-1125.929832906068
 30
0.0
 10
452.116361648471
 20
-1128.468613236148
 30
0.0
 10
452.6577933342567
 20
-1130.733060459363
 30
0.0
 10
452.8532421693936
 20
-1132.456568115334
 30
0.0
 10
452.9140312648563
 20
-1134.078589974276
 30
0.0
 10
452.6759081248326
 20
-1135.807370590016
 30
0.0
 10
452.0236054010127
 20
-1137.052719311457
 30
0.0
 10
451.0589091786535
 20
-1137.922202115607
 30
0.0
 10
449.7131315163509
 20
-1138.263293736907
 30
0.0
 10
448.5433825190617
 20
-1137.990343064225
 30
0.0
 10
447.3852354954954
 20
-1137.332049202163
 30
0.0
 10
446.4782988157828
 20
-1136.341618336664
 30
0.0
 10
445.2785280431777
 20
-1134.703154673399
 30
0.0
 10
444.1485995889594
 20
-1132.881544309938
 30
0.0
 10
442.5147488742845
 20
-1128.41564333849
 30
0.0
 10
441.8790538646834
 20
-1128.035404181612
 30
0.0
 10
441.7532816291083
 20
-1127.883745174187
 30
0.0
  0
SPLINE
  5
AD
330
1F
100
AcDbEntity
  8
Default
100
AcDbSpline
210
0.0
220
0.0
230
1.0
 70
     8
 71
     3
 72
    62
 73
    58
 74
     0
 42
0.0000000001
 43
0.0000000001
 40
364.5461622990052
 40
364.5461622990052
 40
364.5461622990052
 40
364.5461622990052
 40
365.9506937082016
 40
368.0185047856251
 40
368.9696092730688
 40
370.3962447265703
 40
371.8677928713448
 40
373.5330052104346
 40
375.91336937097
 40
377.0617477339919
 40
378.8744313734726
 40
383.5296296279437
 40
385.6622364421095
 40
387.6215637431378
 40
391.2998399589321
 40
393.8226955314811
 40
399.4943735228137
 40
402.4529622279968
 40
407.9757972856721
 40
408.3086610581696
 40
409.7004214445044
 40
410.3562722010104
 40
414.5648568146495
 40
415.0133396380217
 40
418.3274821871371
 40
419.2989545717689
 40
420.6566211667694
 40
421.620407607313
 40
424.5615229029492
 40
426.6951116425845
 40
431.7610985485813
 40
434.6146779673339
 40
438.7079662100974
 40
440.7544842561337
 40
442.7755690886396
 40
444.0835858117187
 40
445.8708716366388
 40
447.4284815560814
 40
448.7960393944868
 40
451.0092397573779
 40
457.4961151014766
 40
459.7887974496841
 40
465.3615995733239
 40
468.1142060611539
 40
469.0168729968217
 40
472.2515856001589
 40
474.5653553764211
 40
475.8340477875357
 40
477.7772112741986
 40
479.5365949874424
 40
481.1273531540403
 40
482.4282956910415
 40
484.7864303926714
 40
486.3837394621901
 40
490.5119856236659
 40
493.2986563046528
 40
494.5394264473023
 40
494.5394264473023
 40
494.5394264473023
 40
494.5394264473023
 10
441.7532816291083
 20
-1127.883745174187
 30
0.0
 10
441.2730864713144
 20
-1127.691352958178
 30
0.0
 10
440.7278920090484
 20
-1127.226820785934
 30
0.0
 10
439.6835532886175
 20
-1126.877883159131
 30
0.0
 10
438.6529881135011
 20
-1126.509068028745
 30
0.0
 10
437.6506403382309
 20
-1126.312187916268
 30
0.0
 10
436.5932952115425
 20
-1126.888358610853
 30
0.0
 10
435.5638646494075
 20
-1127.825836809138
 30
0.0
 10
434.9402210198469
 20
-1129.004270938142
 30
0.0
 10
434.4685007654022
 20
-1130.265004950969
 30
0.0
 10
434.2226622696094
 20
-1132.176020841699
 30
0.0
 10
433.80363051122
 20
-1134.297517119469
 30
0.0
 10
432.8811169436523
 20
-1136.347108969711
 30
0.0
 10
431.378143064211
 20
-1137.642291436018
 30
0.0
 10
429.1435103516498
 20
-1138.221110697583
 30
0.0
 10
426.4895818284036
 20
-1136.603241064683
 30
0.0
 10
424.6722266810278
 20
-1134.42056803382
 30
0.0
 10
422.9664777696619
 20
-1131.288248829663
 30
0.0
 10
421.7746597957135
 20
-1129.433095182429
 30
0.0
 10
420.8618107833366
 20
-1127.836283545519
 30
0.0
 10
420.2460499648959
 20
-1127.594350185178
 30
0.0
 10
418.7299314939887
 20
-1127.240610897287
 30
0.0
 10
417.3483345811158
 20
-1127.373624113083
 30
0.0
 10
415.3654271240003
 20
-1127.656667472208
 30
0.0
 10
414.170365101199
 20
-1127.691108064506
 30
0.0
 10
412.744496263705
 20
-1127.591308722766
 30
0.0
 10
411.9725661591445
 20
-1127.264173087786
 30
0.0
 10
410.739722373757
 20
-1126.788521105885
 30
0.0
 10
409.5292772603975
 20
-1125.739500586282
 30
0.0
 10
408.4198581535097
 20
-1123.424959989303
 30
0.0
 10
407.6802093507202
 20
-1121.002380092118
 30
0.0
 10
406.5588256211215
 20
-1118.199636524059
 30
0.0
 10
405.8406886906584
 20
-1116.033491213301
 30
0.0
 10
404.7857492671087
 20
-1114.281183058401
 30
0.0
 10
403.6312461142481
 20
-1113.362362089008
 30
0.0
 10
402.2465573767384
 20
-1113.564395140602
 30
0.0
 10
401.4632254640716
 20
-1114.561396447213
 30
0.0
 10
401.1580404624146
 20
-1115.708674433519
 30
0.0
 10
400.9904404203799
 20
-1116.99361125577
 30
0.0
 10
400.9579084095928
 20
-1119.53117139759
 30
0.0
 10
401.43209150631
 20
-1122.286682161938
 30
0.0
 10
402.4802711534156
 20
-1125.740647296027
 30
0.0
 10
403.3107829552071
 20
-1128.279427626108
 30
0.0
 10
403.852214640993
 20
-1130.543874849322
 30
0.0
 10
404.0476634761287
 20
-1132.267382505293
 30
0.0
 10
404.1084525715915
 20
-1133.889404364236
 30
0.0
 10
403.8703294315685
 20
-1135.618184979976
 30
0.0
 10
403.2180267077484
 20
-1136.863533701417
 30
0.0
 10
402.2533304853887
 20
-1137.733016505566
 30
0.0
 10
400.9075528230859
 20
-1138.074108126866
 30
0.0
 10
399.7378038257967
 20
-1137.801157454184
 30
0.0
 10
398.5796568022313
 20
-1137.142863592122
 30
0.0
 10
397.6727201225186
 20
-1136.152432726624
 30
0.0
 10
396.4729493499137
 20
-1134.513969063358
 30
0.0
 10
395.3430208956954
 20
-1132.692358699898
 30
0.0
 10
393.7091701810202
 20
-1128.22645772845
 30
0.0
 10
393.0734751714187
 20
-1127.846218571571
 30
0.0
 10
392.9628921646539
 20
-1127.704259176601
 30
0.0
  0
SPLINE
  5
AE
330
1F
100
AcDbEntity
  8
Default
100
AcDbSpline
210
0.0
220
0.0
230
1.0
 70
     8
 71
     3
 72
    38
 73
    34
 74
     0
 42
0.0000000001
 43
0.0000000001
 40
494.5394264473023
 40
494.5394264473023
 40
494.5394264473023
 40
494.5394264473023
 40
502.4309670668609
 40
507.4188206289089
 40
509.7831826266961
 40
513.1158214660616
 40
515.7930326057012
 40
521.0799067561707
 40
526.362117388399
 40
529.0811922221233
 40
532.9547473740072
 40
534.1875279127386
 40
535.0943087786043
 40
537.0450963743618
 40
538.8141929272015
 40
540.5328799771344
 40
541.2939371993591
 40
542.2323451155695
 40
543.917265556969
 40
547.7165464784837
 40
550.1848902880575
 40
553.291877450578
 40
554.9270945852546
 40
556.8154854723472
 40
559.0468463843588
 40
562.0633840807666
 40
564.7283191196104
 40
568.7905640178184
 40
571.3379877790755
 40
574.2048702661954
 40
577.6257869820291
 40
579.3922969987848
 40
579.6366606859997
 40
579.6366606859997
 40
579.6366606859997
 40
579.6366606859997
 10
392.9628921646539
 20
-1127.704259176601
 30
0.0
 10
394.2004639952174
 20
-1129.095007664315
 30
0.0
 10
394.2946524041802
 20
-1133.058731804632
 30
0.0
 10
392.8832069562924
 20
-1136.877322556624
 30
0.0
 10
390.1221202172316
 20
-1137.887236010906
 30
0.0
 10
389.6974101721263
 20
-1140.154071405233
 30
0.0
 10
388.7333228317235
 20
-1142.938976218763
 30
0.0
 10
391.2807314691706
 20
-1145.806629815274
 30
0.0
 10
393.5509263043766
 20
-1148.194748043976
 30
0.0
 10
394.0333414542487
 20
-1151.36541251679
 30
0.0
 10
393.1722593540266
 20
-1153.003109705395
 30
0.0
 10
392.7217412239658
 20
-1154.750881857694
 30
0.0
 10
391.5467657742711
 20
-1154.615095464612
 30
0.0
 10
390.4753928999294
 20
-1154.366005605259
 30
0.0
 10
389.0703076239885
 20
-1154.466638873105
 30
0.0
 10
388.0469914686425
 20
-1154.739608357991
 30
0.0
 10
387.3001136782619
 20
-1155.301845927969
 30
0.0
 10
387.4166320973858
 20
-1156.275108121126
 30
0.0
 10
388.6394677501702
 20
-1157.399243807987
 30
0.0
 10
390.3816102093477
 20
-1158.408648826526
 30
0.0
 10
392.557928407137
 20
-1159.248861516077
 30
0.0
 10
394.0821524068366
 20
-1160.538403554919
 30
0.0
 10
394.1718561606152
 20
-1162.370946521179
 30
0.0
 10
393.0608578859237
 20
-1163.454746262064
 30
0.0
 10
391.5250201884097
 20
-1164.35393957074
 30
0.0
 10
389.5811768135159
 20
-1164.933318472304
 30
0.0
 10
387.8581565502002
 20
-1166.955569640669
 30
0.0
 10
388.2774484358187
 20
-1169.513662226278
 30
0.0
 10
389.4199399866965
 20
-1171.618674408803
 30
0.0
 10
391.2046583824307
 20
-1173.021908845286
 30
0.0
 10
392.039749981702
 20
-1174.988064924259
 30
0.0
 10
393.1715213654098
 20
-1175.752709859329
 30
0.0
 10
393.2019894349318
 20
-1176.424416990538
 30
0.0
 10
393.0627569572432
 20
-1176.484135734322
 30
0.0
  0
SPLINE
  5
AF
330
1F
100
AcDbEntity
  8
Default
100
AcDbSpline
210
0.0
220
0.0
230
1.0
 70
     8
 71
     3
 72
    38
 73
    34
 74
     0
 42
0.0000000001
 43
0.0000000001
 40
19.46239976371358
 40
19.46239976371358
 40
19.46239976371358
 40
19.46239976371358
 40
27.35394038327217
 40
32.34179394532018
 40
34.7061559431074
 40
38.03879478247283
 40
40.7160059221125
 40
46.00288007258196
 40
51.28509070481033
 40
54.00416553853451
 40
57.87772069041843
 40
59.1105012291499
 40
60.01728209501562
 40
61.96806969077308
 40
63.73716624361272
 40
65.4558532935457
 40
66.21691051577044
 40
67.1553184319808
 40
68.84023887338029
 40
72.63951979489501
 40
75.10786360446885
 40
78.21485076698933
 40
79.85006790166587
 40
81.73845878875845
 40
83.96981970077006
 40
86.98635739717784
 40
89.65129243602169
 40
93.71353733422967
 40
96.26096109548683
 40
99.12784358260663
 40
102.5487602984405
 40
104.3152703151961
 40
104.559634002411
 40
104.559634002411
 40
104.559634002411
 40
104.559634002411
 10
588.4293012088789
 20
-1177.169257600411
 30
0.0
 10
589.5470241365954
 20
-1178.57389352991
 30
0.0
 10
589.6412125455581
 20
-1182.537617670228
 30
0.0
 10
588.2297670976702
 20
-1186.35620842222
 30
0.0
 10
585.4686803586092
 20
-1187.366121876502
 30
0.0
 10
585.0439703135042
 20
-1189.632957270829
 30
0.0
 10
584.079882973102
 20
-1192.417862084359
 30
0.0
 10
586.6272916105488
 20
-1195.28551568087
 30
0.0
 10
588.8974864457543
 20
-1197.673633909571
 30
0.0
 10
589.3799015956265
 20
-1200.844298382385
 30
0.0
 10
588.5188194954048
 20
-1202.48199557099
 30
0.0
 10
588.0683013653434
 20
-1204.22976772329
 30
0.0
 10
586.8933259156494
 20
-1204.093981330208
 30
0.0
 10
585.8219530413079
 20
-1203.844891470854
 30
0.0
 10
584.416867765367
 20
-1203.945524738702
 30
0.0
 10
583.393551610021
 20
-1204.218494223587
 30
0.0
 10
582.6466738196407
 20
-1204.780731793565
 30
0.0
 10
582.7631922387648
 20
-1205.753993986722
 30
0.0
 10
583.9860278915484
 20
-1206.878129673583
 30
0.0
 10
585.7281703507263
 20
-1207.887534692122
 30
0.0
 10
587.9044885485148
 20
-1208.727747381672
 30
0.0
 10
589.4287125482144
 20
-1210.017289420515
 30
0.0
 10
589.518416301993
 20
-1211.849832386775
 30
0.0
 10
588.4074180273017
 20
-1212.933632127659
 30
0.0
 10
586.8715803297875
 20
-1213.832825436335
 30
0.0
 10
584.927736954894
 20
-1214.4122043379
 30
0.0
 10
583.2047166915787
 20
-1216.434455506265
 30
0.0
 10
583.6240085771971
 20
-1218.992548091875
 30
0.0
 10
584.7665001280743
 20
-1221.097560274399
 30
0.0
 10
586.5512185238085
 20
-1222.500794710882
 30
0.0
 10
587.3863101230797
 20
-1224.466950789855
 30
0.0
 10
588.5180815067881
 20
-1225.231595724925
 30
0.0
 10
588.54854957631
 20
-1225.903302856134
 30
0.0
 10
588.529166001468
 20
-1225.949134158132
 30
0.0
  0
SPLINE
  5
B0
330
1F
100
AcDbEntity
  8
Default
100
AcDbSpline
210
0.0
220
0.0
230
1.0
 70
     8
 71
     3
 72
    38
 73
    34
 74
     0
 42
0.0000000001
 43
0.0000000001
 40
104.559634002411
 40
104.559634002411
 40
104.559634002411
 40
104.559634002411
 40
112.4511746219696
 40
117.4390281840176
 40
119.8033901818048
 40
123.1360290211702
 40
125.8132401608099
 40
131.1001143112794
 40
136.3823249435077
 40
139.1013997772319
 40
142.9749549291158
 40
144.2077354678473
 40
145.114516333713
 40
147.0653039294705
 40
148.8344004823101
 40
150.5530875322431
 40
151.3141447544678
 40
152.2525526706782
 40
153.9374731120777
 40
157.7367540335924
 40
160.2050978431662
 40
163.3120850056867
 40
164.9473021403633
 40
166.8356930274558
 40
169.0670539394675
 40
172.0835916358753
 40
174.7485266747191
 40
178.8107715729271
 40
181.3581953341842
 40
184.225077821304
 40
187.6459945371379
 40
189.4125045538935
 40
189.6568682411084
 40
189.6568682411084
 40
189.6568682411084
 40
189.6568682411084
 10
588.529166001468
 20
-1225.949134158132
 30
0.0
 10
589.766737832031
 20
-1227.339882645845
 30
0.0
 10
589.8609262409941
 20
-1231.303606786162
 30
0.0
 10
588.4494807931067
 20
-1235.122197538154
 30
0.0
 10
585.6883940540449
 20
-1236.132110992436
 30
0.0
 10
585.2636840089403
 20
-1238.398946386763
 30
0.0
 10
584.2995966685373
 20
-1241.183851200293
 30
0.0
 10
586.8470053059846
 20
-1244.051504796804
 30
0.0
 10
589.1172001411903
 20
-1246.439623025506
 30
0.0
 10
589.5996152910623
 20
-1249.61028749832
 30
0.0
 10
588.7385331908403
 20
-1251.247984686924
 30
0.0
 10
588.2880150607793
 20
-1252.995756839224
 30
0.0
 10
587.1130396110852
 20
-1252.859970446141
 30
0.0
 10
586.041666736744
 20
-1252.610880586788
 30
0.0
 10
584.636581460803
 20
-1252.711513854636
 30
0.0
 10
583.6132653054572
 20
-1252.984483339521
 30
0.0
 10
582.8663875150761
 20
-1253.546720909499
 30
0.0
 10
582.9829059342003
 20
-1254.519983102656
 30
0.0
 10
584.2057415869838
 20
-1255.644118789517
 30
0.0
 10
585.9478840461621
 20
-1256.653523808056
 30
0.0
 10
588.1242022439515
 20
-1257.493736497607
 30
0.0
 10
589.64842624365
 20
-1258.783278536449
 30
0.0
 10
589.7381299974295
 20
-1260.615821502709
 30
0.0
 10
588.6271317227374
 20
-1261.699621243594
 30
0.0
 10
587.0912940252233
 20
-1262.598814552269
 30
0.0
 10
585.1474506503298
 20
-1263.178193453834
 30
0.0
 10
583.4244303870144
 20
-1265.200444622199
 30
0.0
 10
583.8437222726328
 20
-1267.758537207809
 30
0.0
 10
584.9862138235101
 20
-1269.863549390334
 30
0.0
 10
586.7709322192447
 20
-1271.266783826817
 30
0.0
 10
587.6060238185158
 20
-1273.232939905789
 30
0.0
 10
588.7377952022239
 20
-1273.997584840859
 30
0.0
 10
588.7682632717458
 20
-1274.669291972068
 30
0.0
 10
588.7488796969033
 20
-1274.715123274065
 30
0.0
  0
SPLINE
  5
B1
330
1F
100
AcDbEntity
  8
Default
100
AcDbSpline
210
0.0
220
0.0
230
1.0
 70
     8
 71
     3
 72
    38
 73
    34
 74
     0
 42
0.0000000001
 43
0.0000000001
 40
189.6568682411084
 40
189.6568682411084
 40
189.6568682411084
 40
189.6568682411084
 40
197.548408860667
 40
202.536262422715
 40
204.9006244205022
 40
208.2332632598676
 40
210.9104743995073
 40
216.1973485499768
 40
221.4795591822052
 40
224.1986340159293
 40
228.0721891678132
 40
229.3049697065447
 40
230.2117505724104
 40
232.1625381681679
 40
233.9316347210075
 40
235.6503217709405
 40
236.4113789931652
 40
237.3497869093756
 40
239.0347073507751
 40
242.8339882722898
 40
245.3023320818637
 40
248.4093192443841
 40
250.0445363790607
 40
251.9329272661533
 40
254.1642881781649
 40
257.1808258745726
 40
259.8457609134165
 40
263.9080058116245
 40
266.4554295728817
 40
269.3223120600014
 40
272.7432287758353
 40
274.509738792591
 40
274.7541024798058
 40
274.7541024798058
 40
274.7541024798058
 40
274.7541024798058
 10
588.7488796969033
 20
-1274.715123274065
 30
0.0
 10
589.9864515274671
 20
-1276.105871761779
 30
0.0
 10
590.0806399364296
 20
-1280.069595902097
 30
0.0
 10
588.6691944885423
 20
-1283.888186654088
 30
0.0
 10
585.9081077494811
 20
-1284.898100108371
 30
0.0
 10
585.4833977043761
 20
-1287.164935502698
 30
0.0
 10
584.5193103639733
 20
-1289.949840316227
 30
0.0
 10
587.0667190014201
 20
-1292.817493912739
 30
0.0
 10
589.3369138366256
 20
-1295.20561214144
 30
0.0
 10
589.8193289864985
 20
-1298.376276614254
 30
0.0
 10
588.958246886276
 20
-1300.013973802858
 30
0.0
 10
588.507728756215
 20
-1301.761745955159
 30
0.0
 10
587.3327533065213
 20
-1301.625959562076
 30
0.0
 10
586.2613804321795
 20
-1301.376869702723
 30
0.0
 10
584.8562951562382
 20
-1301.47750297057
 30
0.0
 10
583.8329790008927
 20
-1301.750472455455
 30
0.0
 10
583.086101210512
 20
-1302.312710025433
 30
0.0
 10
583.202619629636
 20
-1303.28597221859
 30
0.0
 10
584.4254552824195
 20
-1304.410107905451
 30
0.0
 10
586.1675977415982
 20
-1305.41951292399
 30
0.0
 10
588.3439159393868
 20
-1306.25972561354
 30
0.0
 10
589.8681399390862
 20
-1307.549267652383
 30
0.0
 10
589.9578436928648
 20
-1309.381810618643
 30
0.0
 10
588.8468454181732
 20
-1310.465610359528
 30
0.0
 10
587.3110077206593
 20
-1311.364803668204
 30
0.0
 10
585.3671643457656
 20
-1311.944182569768
 30
0.0
 10
583.64414408245
 20
-1313.966433738133
 30
0.0
 10
584.0634359680682
 20
-1316.524526323743
 30
0.0
 10
585.205927518946
 20
-1318.629538506267
 30
0.0
 10
586.9906459146805
 20
-1320.032772942751
 30
0.0
 10
587.8257375139522
 20
-1321.998929021723
 30
0.0
 10
588.9575088976596
 20
-1322.763573956793
 30
0.0
 10
588.9879769671816
 20
-1323.435281088002
 30
0.0
 10
588.9685933923395
 20
-1323.481112389999
 30
0.0
  0
SPLINE
  5
B2
330
1F
100
AcDbEntity
  8
Default
100
AcDbSpline
210
0.0
220
0.0
230
1.0
 70
     8
 71
     3
 72
    38
 73
    34
 74
     0
 42
0.0000000001
 43
0.0000000001
 40
274.7541024798058
 40
274.7541024798058
 40
274.7541024798058
 40
274.7541024798058
 40
282.6456430993644
 40
287.6334966614124
 40
289.9978586591996
 40
293.330497498565
 40
296.0077086382047
 40
301.2945827886742
 40
306.5767934209026
 40
309.2958682546267
 40
313.1694234065106
 40
314.4022039452421
 40
315.3089848111078
 40
317.2597724068653
 40
319.0288689597049
 40
320.7475560096379
 40
321.5086132318627
 40
322.447021148073
 40
324.1319415894725
 40
327.9312225109873
 40
330.3995663205611
 40
333.5065534830816
 40
335.1417706177581
 40
337.0301615048507
 40
339.2615224168623
 40
342.27806011327
 40
344.9429951521139
 40
349.0052400503219
 40
351.5526638115791
 40
354.4195462986988
 40
357.8404630145327
 40
359.6069730312884
 40
359.8513367185032
 40
359.8513367185032
 40
359.8513367185032
 40
359.8513367185032
 10
588.9685933923395
 20
-1323.481112389999
 30
0.0
 10
590.206165222903
 20
-1324.871860877713
 30
0.0
 10
590.3003536318654
 20
-1328.835585018031
 30
0.0
 10
588.8889081839782
 20
-1332.654175770022
 30
0.0
 10
586.1278214449169
 20
-1333.664089224305
 30
0.0
 10
585.703111399812
 20
-1335.930924618632
 30
0.0
 10
584.7390240594095
 20
-1338.715829432161
 30
0.0
 10
587.2864326968563
 20
-1341.583483028673
 30
0.0
 10
589.5566275320622
 20
-1343.971601257375
 30
0.0
 10
590.0390426819342
 20
-1347.142265730188
 30
0.0
 10
589.1779605817119
 20
-1348.779962918793
 30
0.0
 10
588.7274424516511
 20
-1350.527735071093
 30
0.0
 10
587.5524670019568
 20
-1350.391948678009
 30
0.0
 10
586.4810941276158
 20
-1350.142858818657
 30
0.0
 10
585.0760088516743
 20
-1350.243492086504
 30
0.0
 10
584.0526926963284
 20
-1350.51646157139
 30
0.0
 10
583.3058149059482
 20
-1351.078699141367
 30
0.0
 10
583.422333325072
 20
-1352.051961334525
 30
0.0
 10
584.6451689778553
 20
-1353.176097021385
 30
0.0
 10
586.387311437034
 20
-1354.185502039924
 30
0.0
 10
588.5636296348223
 20
-1355.025714729475
 30
0.0
 10
590.0878536345224
 20
-1356.315256768317
 30
0.0
 10
590.1775573883008
 20
-1358.147799734577
 30
0.0
 10
589.0665591136096
 20
-1359.231599475462
 30
0.0
 10
587.530721416095
 20
-1360.130792784138
 30
0.0
 10
585.5868780412011
 20
-1360.710171685702
 30
0.0
 10
583.8638577778858
 20
-1362.732422854068
 30
0.0
 10
584.2831496635041
 20
-1365.290515439677
 30
0.0
 10
585.425641214382
 20
-1367.395527622202
 30
0.0
 10
587.2103596101163
 20
-1368.798762058685
 30
0.0
 10
588.0454512093872
 20
-1370.764918137657
 30
0.0
 10
589.1772225930954
 20
-1371.529563072728
 30
0.0
 10
589.2076906626173
 20
-1372.201270203936
 30
0.0
 10
589.1883070877752
 20
-1372.247101505934
 30
0.0
  0
SPLINE
  5
B3
330
1F
100
AcDbEntity
  8
Default
100
AcDbSpline
210
0.0
220
0.0
230
1.0
 70
     8
 71
     3
 72
    62
 73
    58
 74
     0
 42
0.0000000001
 43
0.0000000001
 40
359.8513367185032
 40
359.8513367185032
 40
359.8513367185032
 40
359.8513367185032
 40
361.2558681276997
 40
363.3236792051231
 40
364.2747836925668
 40
365.7014191460684
 40
367.1729672908428
 40
368.8381796299326
 40
371.2185437904681
 40
372.3669221534899
 40
374.1796057929707
 40
378.8348040474418
 40
380.9674108616076
 40
382.9267381626358
 40
386.6050143784302
 40
389.1278699509792
 40
394.7995479423117
 40
397.7581366474948
 40
403.2809717051701
 40
403.6138354776676
 40
405.0055958640024
 40
405.6614466205084
 40
409.8700312341475
 40
410.3185140575197
 40
413.6326566066351
 40
414.604128991267
 40
415.9617955862674
 40
416.9255820268111
 40
419.8666973224472
 40
422.0002860620825
 40
427.0662729680794
 40
429.919852386832
 40
434.0131406295955
 40
436.0596586756317
 40
438.0807435081376
 40
439.3887602312167
 40
441.1760460561368
 40
442.7336559755794
 40
444.1012138139848
 40
446.314414176876
 40
452.8012895209746
 40
455.0939718691822
 40
460.666773992822
 40
463.419380480652
 40
464.3220474163197
 40
467.5567600196569
 40
469.8705297959191
 40
471.1392222070338
 40
473.0823856936967
 40
474.8417694069404
 40
476.4325275735383
 40
477.7334701105395
 40
480.0916048121694
 40
481.6889138816881
 40
485.8171600431639
 40
488.6038307241508
 40
489.8446008668003
 40
489.8446008668003
 40
489.8446008668003
 40
489.8446008668003
 10
589.1883070877752
 20
-1372.247101505934
 30
0.0
 10
588.7081119299814
 20
-1372.054709289926
 30
0.0
 10
588.1629174677158
 20
-1371.590177117682
 30
0.0
 10
587.1185787472847
 20
-1371.241239490879
 30
0.0
 10
586.0880135721673
 20
-1370.872424360493
 30
0.0
 10
585.0856657968978
 20
-1370.675544248015
 30
0.0
 10
584.0283206702092
 20
-1371.251714942601
 30
0.0
 10
582.9988901080742
 20
-1372.189193140885
 30
0.0
 10
582.3752464785134
 20
-1373.367627269889
 30
0.0
 10
581.903526224069
 20
-1374.628361282717
 30
0.0
 10
581.6576877282757
 20
-1376.539377173446
 30
0.0
 10
581.2386559698868
 20
-1378.660873451217
 30
0.0
 10
580.3161424023197
 20
-1380.710465301459
 30
0.0
 10
578.8131685228776
 20
-1382.005647767766
 30
0.0
 10
576.5785358103162
 20
-1382.58446702933
 30
0.0
 10
573.9246072870706
 20
-1380.96659739643
 30
0.0
 10
572.1072521396948
 20
-1378.783924365567
 30
0.0
 10
570.4015032283285
 20
-1375.651605161411
 30
0.0
 10
569.2096852543801
 20
-1373.796451514176
 30
0.0
 10
568.2968362420032
 20
-1372.199639877266
 30
0.0
 10
567.6810754235628
 20
-1371.957706516925
 30
0.0
 10
566.1649569526555
 20
-1371.603967229035
 30
0.0
 10
564.7833600397827
 20
-1371.73698044483
 30
0.0
 10
562.8004525826673
 20
-1372.020023803955
 30
0.0
 10
561.6053905598662
 20
-1372.054464396254
 30
0.0
 10
560.179521722372
 20
-1371.954665054513
 30
0.0
 10
559.4075916178115
 20
-1371.627529419534
 30
0.0
 10
558.1747478324236
 20
-1371.151877437632
 30
0.0
 10
556.9643027190648
 20
-1370.102856918029
 30
0.0
 10
555.854883612177
 20
-1367.788316321051
 30
0.0
 10
555.1152348093872
 20
-1365.365736423865
 30
0.0
 10
553.9938510797879
 20
-1362.562992855807
 30
0.0
 10
553.2757141493256
 20
-1360.396847545049
 30
0.0
 10
552.2207747257754
 20
-1358.644539390148
 30
0.0
 10
551.0662715729147
 20
-1357.725718420756
 30
0.0
 10
549.681582835405
 20
-1357.927751472349
 30
0.0
 10
548.898250922739
 20
-1358.92475277896
 30
0.0
 10
548.5930659210816
 20
-1360.072030765266
 30
0.0
 10
548.4254658790471
 20
-1361.356967587518
 30
0.0
 10
548.3929338682594
 20
-1363.894527729338
 30
0.0
 10
548.867116964977
 20
-1366.650038493686
 30
0.0
 10
549.9152966120822
 20
-1370.104003627775
 30
0.0
 10
550.7458084138743
 20
-1372.642783957855
 30
0.0
 10
551.2872400996595
 20
-1374.90723118107
 30
0.0
 10
551.4826889347962
 20
-1376.630738837041
 30
0.0
 10
551.5434780302587
 20
-1378.252760695983
 30
0.0
 10
551.3053548902351
 20
-1379.981541311723
 30
0.0
 10
550.6530521664154
 20
-1381.226890033164
 30
0.0
 10
549.6883559440554
 20
-1382.096372837314
 30
0.0
 10
548.3425782817533
 20
-1382.437464458613
 30
0.0
 10
547.1728292844637
 20
-1382.164513785931
 30
0.0
 10
546.014682260898
 20
-1381.50621992387
 30
0.0
 10
545.1077455811858
 20
-1380.515789058371
 30
0.0
 10
543.9079748085803
 20
-1378.877325395106
 30
0.0
 10
542.7780463543617
 20
-1377.055715031645
 30
0.0
 10
541.1441956396868
 20
-1372.589814060197
 30
0.0
 10
540.5085006300861
 20
-1372.209574903319
 30
0.0
 10
540.3279693611603
 20
-1372.09624980327
 30
0.0
  0
POLYLINE
  5
B4
330
1F
100
AcDbEntity
  8
Default
100
AcDb2dPolyline
 66
     1
 10
0.0
 20
0.0
 30
0.0
  0
VERTEX
  5
B5
330
B4
100
AcDbEntity
  8
Default
100
AcDbVertex
100
AcDb2dVertex
 10
424.1769608377056
 20
-1349.776923229761
 30
0.0
  0
VERTEX
  5
B6
330
B4
100
AcDbEntity
  8
Default
100
AcDbVertex
100
AcDb2dVertex
 10
424.1769608377053
 20
-1343.656787584709
 30
0.0
  0
SEQEND
  5
B7
330
B4
100
AcDbEntity
  8
Default
  0
POLYLINE
  5
B8
330
1F
100
AcDbEntity
  8
Default
100
AcDb2dPolyline
 66
     1
 10
0.0
 20
0.0
 30
0.0
  0
VERTEX
  5
B9
330
B8
100
AcDbEntity
  8
Default
100
AcDbVertex
100
AcDb2dVertex
 10
416.0674317578051
 20
-1343.281981726584
 30
0.0
  0
VERTEX
  5
BA
330
B8
100
AcDbEntity
  8
Default
100
AcDbVertex
100
AcDb2dVertex
 10
422.1875674028573
 20
-1343.281981726584
 30
0.0
  0
SEQEND
  5
BB
330
B8
100
AcDbEntity
  8
Default
  0
POLYLINE
  5
BC
330
1F
100
AcDbEntity
  8
Default
100
AcDb2dPolyline
 66
     1
 10
0.0
 20
0.0
 30
0.0
  0
VERTEX
  5
BD
330
BC
100
AcDbEntity
  8
Default
100
AcDbVertex
100
AcDb2dVertex
 10
416.0674317578051
 20
-1350.334111761195
 30
0.0
  0
VERTEX
  5
BE
330
BC
100
AcDbEntity
  8
Default
100
AcDbVertex
100
AcDb2dVertex
 10
422.1875674028573
 20
-1350.334111761195
 30
0.0
  0
SEQEND
  5
BF
330
BC
100
AcDbEntity
  8
Default
  0
POLYLINE
  5
C0
330
1F
100
AcDbEntity
  8
Default
100
AcDb2dPolyline
 66
     1
 10
0.0
 20
0.0
 30
0.0
  0
VERTEX
  5
C1
330
C0
100
AcDbEntity
  8
Default
100
AcDbVertex
100
AcDb2dVertex
 10
414.0238546734252
 20
-1349.832153884495
 30
0.0
  0
VERTEX
  5
C2
330
C0
100
AcDbEntity
  8
Default
100
AcDbVertex
100
AcDb2dVertex
 10
414.023854673425
 20
-1343.712018239443
 30
0.0
  0
SEQEND
  5
C3
330
C0
100
AcDbEntity
  8
Default
  0
POLYLINE
  5
C4
330
1F
100
AcDbEntity
  8
Default
100
AcDb2dPolyline
 66
     1
 10
0.0
 20
0.0
 30
0.0
  0
VERTEX
  5
C5
330
C4
100
AcDbEntity
  8
Default
100
AcDbVertex
100
AcDb2dVertex
 10
521.772928995433
 20
-1350.145594837387
 30
0.0
  0
VERTEX
  5
C6
330
C4
100
AcDbEntity
  8
Default
100
AcDbVertex
100
AcDb2dVertex
 10
521.7729289954327
 20
-1344.025459192335
 30
0.0
  0
SEQEND
  5
C7
330
C4
100
AcDbEntity
  8
Default
  0
POLYLINE
  5
C8
330
1F
100
AcDbEntity
  8
Default
100
AcDb2dPolyline
 66
     1
 10
0.0
 20
0.0
 30
0.0
  0
VERTEX
  5
C9
330
C8
100
AcDbEntity
  8
Default
100
AcDbVertex
100
AcDb2dVertex
 10
513.6633999155324
 20
-1343.65065333421
 30
0.0
  0
VERTEX
  5
CA
330
C8
100
AcDbEntity
  8
Default
100
AcDbVertex
100
AcDb2dVertex
 10
519.7835355605846
 20
-1343.65065333421
 30
0.0
  0
SEQEND
  5
CB
330
C8
100
AcDbEntity
  8
Default
  0
POLYLINE
  5
CC
330
1F
100
AcDbEntity
  8
Default
100
AcDb2dPolyline
 66
     1
 10
0.0
 20
0.0
 30
0.0
  0
VERTEX
  5
CD
330
CC
100
AcDbEntity
  8
Default
100
AcDbVertex
100
AcDb2dVertex
 10
513.6633999155324
 20
-1350.702783368821
 30
0.0
  0
VERTEX
  5
CE
330
CC
100
AcDbEntity
  8
Default
100
AcDbVertex
100
AcDb2dVertex
 10
519.7835355605846
 20
-1350.702783368821
 30
0.0
  0
SEQEND
  5
CF
330
CC
100
AcDbEntity
  8
Default
  0
POLYLINE
  5
D0
330
1F
100
AcDbEntity
  8
Default
100
AcDb2dPolyline
 66
     1
 10
0.0
 20
0.0
 30
0.0
  0
VERTEX
  5
D1
330
D0
100
AcDbEntity
  8
Default
100
AcDbVertex
100
AcDb2dVertex
 10
511.6198228311526
 20
-1350.200825492121
 30
0.0
  0
VERTEX
  5
D2
330
D0
100
AcDbEntity
  8
Default
100
AcDbVertex
100
AcDb2dVertex
 10
511.6198228311524
 20
-1344.080689847069
 30
0.0
  0
SEQEND
  5
D3
330
D0
100
AcDbEntity
  8
Default
  0
POLYLINE
  5
D4
330
1F
100
AcDbEntity
  8
Default
100
AcDb2dPolyline
 66
     1
 10
0.0
 20
0.0
 30
0.0
  0
VERTEX
  5
D5
330
D4
100
AcDbEntity
  8
Default
100
AcDbVertex
100
AcDb2dVertex
 10
570.6332667220547
 20
-1350.296446540051
 30
0.0
  0
VERTEX
  5
D6
330
D4
100
AcDbEntity
  8
Default
100
AcDbVertex
100
AcDb2dVertex
 10
570.6332667220545
 20
-1344.176310894999
 30
0.0
  0
SEQEND
  5
D7
330
D4
100
AcDbEntity
  8
Default
  0
POLYLINE
  5
D8
330
1F
100
AcDbEntity
  8
Default
100
AcDb2dPolyline
 66
     1
 10
0.0
 20
0.0
 30
0.0
  0
VERTEX
  5
D9
330
D8
100
AcDbEntity
  8
Default
100
AcDbVertex
100
AcDb2dVertex
 10
562.5237376421543
 20
-1343.801505036874
 30
0.0
  0
VERTEX
  5
DA
330
D8
100
AcDbEntity
  8
Default
100
AcDbVertex
100
AcDb2dVertex
 10
568.6438732872065
 20
-1343.801505036874
 30
0.0
  0
SEQEND
  5
DB
330
D8
100
AcDbEntity
  8
Default
  0
POLYLINE
  5
DC
330
1F
100
AcDbEntity
  8
Default
100
AcDb2dPolyline
 66
     1
 10
0.0
 20
0.0
 30
0.0
  0
VERTEX
  5
DD
330
DC
100
AcDbEntity
  8
Default
100
AcDbVertex
100
AcDb2dVertex
 10
562.5237376421543
 20
-1350.853635071486
 30
0.0
  0
VERTEX
  5
DE
330
DC
100
AcDbEntity
  8
Default
100
AcDbVertex
100
AcDb2dVertex
 10
568.6438732872065
 20
-1350.853635071486
 30
0.0
  0
SEQEND
  5
DF
330
DC
100
AcDbEntity
  8
Default
  0
POLYLINE
  5
E0
330
1F
100
AcDbEntity
  8
Default
100
AcDb2dPolyline
 66
     1
 10
0.0
 20
0.0
 30
0.0
  0
VERTEX
  5
E1
330
E0
100
AcDbEntity
  8
Default
100
AcDbVertex
100
AcDb2dVertex
 10
560.4801605577744
 20
-1350.351677194785
 30
0.0
  0
VERTEX
  5
E2
330
E0
100
AcDbEntity
  8
Default
100
AcDbVertex
100
AcDb2dVertex
 10
560.4801605577742
 20
-1344.231541549733
 30
0.0
  0
SEQEND
  5
E3
330
E0
100
AcDbEntity
  8
Default
  0
POLYLINE
  5
E4
330
1F
100
AcDbEntity
  8
Default
100
AcDb2dPolyline
 66
     1
 10
0.0
 20
0.0
 30
0.0
  0
VERTEX
  5
E5
330
E4
100
AcDbEntity
  8
Default
100
AcDbVertex
100
AcDb2dVertex
 10
472.9825395309708
 20
-1349.966108839802
 30
0.0
  0
VERTEX
  5
E6
330
E4
100
AcDbEntity
  8
Default
100
AcDbVertex
100
AcDb2dVertex
 10
472.9825395309706
 20
-1343.84597319475
 30
0.0
  0
SEQEND
  5
E7
330
E4
100
AcDbEntity
  8
Default
  0
POLYLINE
  5
E8
330
1F
100
AcDbEntity
  8
Default
100
AcDb2dPolyline
 66
     1
 10
0.0
 20
0.0
 30
0.0
  0
VERTEX
  5
E9
330
E8
100
AcDbEntity
  8
Default
100
AcDbVertex
100
AcDb2dVertex
 10
464.8730104510703
 20
-1343.471167336625
 30
0.0
  0
VERTEX
  5
EA
330
E8
100
AcDbEntity
  8
Default
100
AcDbVertex
100
AcDb2dVertex
 10
470.9931460961225
 20
-1343.471167336625
 30
0.0
  0
SEQEND
  5
EB
330
E8
100
AcDbEntity
  8
Default
  0
POLYLINE
  5
EC
330
1F
100
AcDbEntity
  8
Default
100
AcDb2dPolyline
 66
     1
 10
0.0
 20
0.0
 30
0.0
  0
VERTEX
  5
ED
330
EC
100
AcDbEntity
  8
Default
100
AcDbVertex
100
AcDb2dVertex
 10
464.8730104510703
 20
-1350.523297371236
 30
0.0
  0
VERTEX
  5
EE
330
EC
100
AcDbEntity
  8
Default
100
AcDbVertex
100
AcDb2dVertex
 10
470.9931460961225
 20
-1350.523297371236
 30
0.0
  0
SEQEND
  5
EF
330
EC
100
AcDbEntity
  8
Default
  0
POLYLINE
  5
F0
330
1F
100
AcDbEntity
  8
Default
100
AcDb2dPolyline
 66
     1
 10
0.0
 20
0.0
 30
0.0
  0
VERTEX
  5
F1
330
F0
100
AcDbEntity
  8
Default
100
AcDbVertex
100
AcDb2dVertex
 10
462.8294333666905
 20
-1350.021339494536
 30
0.0
  0
VERTEX
  5
F2
330
F0
100
AcDbEntity
  8
Default
100
AcDbVertex
100
AcDb2dVertex
 10
462.8294333666902
 20
-1343.901203849484
 30
0.0
  0
SEQEND
  5
F3
330
F0
100
AcDbEntity
  8
Default
  0
POLYLINE
  5
F4
330
1F
100
AcDbEntity
  8
Default
100
AcDb2dPolyline
 66
     1
 10
0.0
 20
0.0
 30
0.0
  0
VERTEX
  5
F5
330
F4
100
AcDbEntity
  8
Default
100
AcDbVertex
100
AcDb2dVertex
 10
423.9572471422701
 20
-1301.010934113827
 30
0.0
  0
VERTEX
  5
F6
330
F4
100
AcDbEntity
  8
Default
100
AcDbVertex
100
AcDb2dVertex
 10
423.9572471422699
 20
-1294.890798468775
 30
0.0
  0
SEQEND
  5
F7
330
F4
100
AcDbEntity
  8
Default
  0
POLYLINE
  5
F8
330
1F
100
AcDbEntity
  8
Default
100
AcDb2dPolyline
 66
     1
 10
0.0
 20
0.0
 30
0.0
  0
VERTEX
  5
F9
330
F8
100
AcDbEntity
  8
Default
100
AcDbVertex
100
AcDb2dVertex
 10
415.8477180623697
 20
-1294.51599261065
 30
0.0
  0
VERTEX
  5
FA
330
F8
100
AcDbEntity
  8
Default
100
AcDbVertex
100
AcDb2dVertex
 10
421.9678537074219
 20
-1294.51599261065
 30
0.0
  0
SEQEND
  5
FB
330
F8
100
AcDbEntity
  8
Default
  0
POLYLINE
  5
FC
330
1F
100
AcDbEntity
  8
Default
100
AcDb2dPolyline
 66
     1
 10
0.0
 20
0.0
 30
0.0
  0
VERTEX
  5
FD
330
FC
100
AcDbEntity
  8
Default
100
AcDbVertex
100
AcDb2dVertex
 10
415.8477180623697
 20
-1301.568122645261
 30
0.0
  0
VERTEX
  5
FE
330
FC
100
AcDbEntity
  8
Default
100
AcDbVertex
100
AcDb2dVertex
 10
421.9678537074219
 20
-1301.568122645261
 30
0.0
  0
SEQEND
  5
FF
330
FC
100
AcDbEntity
  8
Default
  0
POLYLINE
  5
100
330
1F
100
AcDbEntity
  8
Default
100
AcDb2dPolyline
 66
     1
 10
0.0
 20
0.0
 30
0.0
  0
VERTEX
  5
101
330
100
100
AcDbEntity
  8
Default
100
AcDbVertex
100
AcDb2dVertex
 10
413.8041409779898
 20
-1301.066164768561
 30
0.0
  0
VERTEX
  5
102
330
100
100
AcDbEntity
  8
Default
100
AcDbVertex
100
AcDb2dVertex
 10
413.8041409779896
 20
-1294.946029123509
 30
0.0
  0
SEQEND
  5
103
330
100
100
AcDbEntity
  8
Default
  0
POLYLINE
  5
104
330
1F
100
AcDbEntity
  8
Default
100
AcDb2dPolyline
 66
     1
 10
0.0
 20
0.0
 30
0.0
  0
VERTEX
  5
105
330
104
100
AcDbEntity
  8
Default
100
AcDbVertex
100
AcDb2dVertex
 10
472.762825835535
 20
-1301.200119723868
 30
0.0
  0
VERTEX
  5
106
330
104
100
AcDbEntity
  8
Default
100
AcDbVertex
100
AcDb2dVertex
 10
472.7628258355347
 20
-1295.079984078816
 30
0.0
  0
SEQEND
  5
107
330
104
100
AcDbEntity
  8
Default
  0
POLYLINE
  5
108
330
1F
100
AcDbEntity
  8
Default
100
AcDb2dPolyline
 66
     1
 10
0.0
 20
0.0
 30
0.0
  0
VERTEX
  5
109
330
108
100
AcDbEntity
  8
Default
100
AcDbVertex
100
AcDb2dVertex
 10
464.6532967556345
 20
-1294.705178220691
 30
0.0
  0
VERTEX
  5
10A
330
108
100
AcDbEntity
  8
Default
100
AcDbVertex
100
AcDb2dVertex
 10
470.7734324006867
 20
-1294.705178220691
 30
0.0
  0
SEQEND
  5
10B
330
108
100
AcDbEntity
  8
Default
  0
POLYLINE
  5
10C
330
1F
100
AcDbEntity
  8
Default
100
AcDb2dPolyline
 66
     1
 10
0.0
 20
0.0
 30
0.0
  0
VERTEX
  5
10D
330
10C
100
AcDbEntity
  8
Default
100
AcDbVertex
100
AcDb2dVertex
 10
464.6532967556345
 20
-1301.757308255302
 30
0.0
  0
VERTEX
  5
10E
330
10C
100
AcDbEntity
  8
Default
100
AcDbVertex
100
AcDb2dVertex
 10
470.7734324006867
 20
-1301.757308255302
 30
0.0
  0
SEQEND
  5
10F
330
10C
100
AcDbEntity
  8
Default
  0
POLYLINE
  5
110
330
1F
100
AcDbEntity
  8
Default
100
AcDb2dPolyline
 66
     1
 10
0.0
 20
0.0
 30
0.0
  0
VERTEX
  5
111
330
110
100
AcDbEntity
  8
Default
100
AcDbVertex
100
AcDb2dVertex
 10
462.6097196712546
 20
-1301.255350378602
 30
0.0
  0
VERTEX
  5
112
330
110
100
AcDbEntity
  8
Default
100
AcDbVertex
100
AcDb2dVertex
 10
462.6097196712544
 20
-1295.13521473355
 30
0.0
  0
SEQEND
  5
113
330
110
100
AcDbEntity
  8
Default
  0
POLYLINE
  5
114
330
1F
100
AcDbEntity
  8
Default
100
AcDb2dPolyline
 66
     1
 10
0.0
 20
0.0
 30
0.0
  0
VERTEX
  5
115
330
114
100
AcDbEntity
  8
Default
100
AcDbVertex
100
AcDb2dVertex
 10
521.5532152999908
 20
-1301.379605721454
 30
0.0
  0
VERTEX
  5
116
330
114
100
AcDbEntity
  8
Default
100
AcDbVertex
100
AcDb2dVertex
 10
521.5532152999906
 20
-1295.259470076401
 30
0.0
  0
SEQEND
  5
117
330
114
100
AcDbEntity
  8
Default
  0
POLYLINE
  5
118
330
1F
100
AcDbEntity
  8
Default
100
AcDb2dPolyline
 66
     1
 10
0.0
 20
0.0
 30
0.0
  0
VERTEX
  5
119
330
118
100
AcDbEntity
  8
Default
100
AcDbVertex
100
AcDb2dVertex
 10
513.4436862200903
 20
-1294.884664218276
 30
0.0
  0
VERTEX
  5
11A
330
118
100
AcDbEntity
  8
Default
100
AcDbVertex
100
AcDb2dVertex
 10
519.5638218651425
 20
-1294.884664218276
 30
0.0
  0
SEQEND
  5
11B
330
118
100
AcDbEntity
  8
Default
  0
POLYLINE
  5
11C
330
1F
100
AcDbEntity
  8
Default
100
AcDb2dPolyline
 66
     1
 10
0.0
 20
0.0
 30
0.0
  0
VERTEX
  5
11D
330
11C
100
AcDbEntity
  8
Default
100
AcDbVertex
100
AcDb2dVertex
 10
513.4436862200903
 20
-1301.936794252888
 30
0.0
  0
VERTEX
  5
11E
330
11C
100
AcDbEntity
  8
Default
100
AcDbVertex
100
AcDb2dVertex
 10
519.5638218651425
 20
-1301.936794252888
 30
0.0
  0
SEQEND
  5
11F
330
11C
100
AcDbEntity
  8
Default
  0
POLYLINE
  5
120
330
1F
100
AcDbEntity
  8
Default
100
AcDb2dPolyline
 66
     1
 10
0.0
 20
0.0
 30
0.0
  0
VERTEX
  5
121
330
120
100
AcDbEntity
  8
Default
100
AcDbVertex
100
AcDb2dVertex
 10
511.4001091357104
 20
-1301.434836376187
 30
0.0
  0
VERTEX
  5
122
330
120
100
AcDbEntity
  8
Default
100
AcDbVertex
100
AcDb2dVertex
 10
511.4001091357102
 20
-1295.314700731135
 30
0.0
  0
SEQEND
  5
123
330
120
100
AcDbEntity
  8
Default
  0
POLYLINE
  5
124
330
1F
100
AcDbEntity
  8
Default
100
AcDb2dPolyline
 66
     1
 10
0.0
 20
0.0
 30
0.0
  0
VERTEX
  5
125
330
124
100
AcDbEntity
  8
Default
100
AcDbVertex
100
AcDb2dVertex
 10
570.4135530266033
 20
-1301.530457424118
 30
0.0
  0
VERTEX
  5
126
330
124
100
AcDbEntity
  8
Default
100
AcDbVertex
100
AcDb2dVertex
 10
570.413553026603
 20
-1295.410321779066
 30
0.0
  0
SEQEND
  5
127
330
124
100
AcDbEntity
  8
Default
  0
POLYLINE
  5
128
330
1F
100
AcDbEntity
  8
Default
100
AcDb2dPolyline
 66
     1
 10
0.0
 20
0.0
 30
0.0
  0
VERTEX
  5
129
330
128
100
AcDbEntity
  8
Default
100
AcDbVertex
100
AcDb2dVertex
 10
562.3040239467027
 20
-1295.035515920941
 30
0.0
  0
VERTEX
  5
12A
330
128
100
AcDbEntity
  8
Default
100
AcDbVertex
100
AcDb2dVertex
 10
568.4241595917549
 20
-1295.035515920941
 30
0.0
  0
SEQEND
  5
12B
330
128
100
AcDbEntity
  8
Default
  0
POLYLINE
  5
12C
330
1F
100
AcDbEntity
  8
Default
100
AcDb2dPolyline
 66
     1
 10
0.0
 20
0.0
 30
0.0
  0
VERTEX
  5
12D
330
12C
100
AcDbEntity
  8
Default
100
AcDbVertex
100
AcDb2dVertex
 10
562.3040239467027
 20
-1302.087645955552
 30
0.0
  0
VERTEX
  5
12E
330
12C
100
AcDbEntity
  8
Default
100
AcDbVertex
100
AcDb2dVertex
 10
568.4241595917549
 20
-1302.087645955552
 30
0.0
  0
SEQEND
  5
12F
330
12C
100
AcDbEntity
  8
Default
  0
POLYLINE
  5
130
330
1F
100
AcDbEntity
  8
Default
100
AcDb2dPolyline
 66
     1
 10
0.0
 20
0.0
 30
0.0
  0
VERTEX
  5
131
330
130
100
AcDbEntity
  8
Default
100
AcDbVertex
100
AcDb2dVertex
 10
560.2604468623229
 20
-1301.585688078852
 30
0.0
  0
VERTEX
  5
132
330
130
100
AcDbEntity
  8
Default
100
AcDbVertex
100
AcDb2dVertex
 10
560.2604468623226
 20
-1295.4655524338
 30
0.0
  0
SEQEND
  5
133
330
130
100
AcDbEntity
  8
Default
  0
POLYLINE
  5
134
330
1F
100
AcDbEntity
  8
Default
100
AcDb2dPolyline
 66
     1
 10
0.0
 20
0.0
 30
0.0
  0
VERTEX
  5
135
330
134
100
AcDbEntity
  8
Default
100
AcDbVertex
100
AcDb2dVertex
 10
570.0939745385792
 20
-1252.775536502686
 30
0.0
  0
VERTEX
  5
136
330
134
100
AcDbEntity
  8
Default
100
AcDbVertex
100
AcDb2dVertex
 10
570.093974538579
 20
-1246.655400857634
 30
0.0
  0
SEQEND
  5
137
330
134
100
AcDbEntity
  8
Default
  0
POLYLINE
  5
138
330
1F
100
AcDbEntity
  8
Default
100
AcDb2dPolyline
 66
     1
 10
0.0
 20
0.0
 30
0.0
  0
VERTEX
  5
139
330
138
100
AcDbEntity
  8
Default
100
AcDbVertex
100
AcDb2dVertex
 10
561.9844454586787
 20
-1246.280594999509
 30
0.0
  0
VERTEX
  5
13A
330
138
100
AcDbEntity
  8
Default
100
AcDbVertex
100
AcDb2dVertex
 10
568.1045811037309
 20
-1246.280594999509
 30
0.0
  0
SEQEND
  5
13B
330
138
100
AcDbEntity
  8
Default
  0
POLYLINE
  5
13C
330
1F
100
AcDbEntity
  8
Default
100
AcDb2dPolyline
 66
     1
 10
0.0
 20
0.0
 30
0.0
  0
VERTEX
  5
13D
330
13C
100
AcDbEntity
  8
Default
100
AcDbVertex
100
AcDb2dVertex
 10
561.9844454586787
 20
-1253.33272503412
 30
0.0
  0
VERTEX
  5
13E
330
13C
100
AcDbEntity
  8
Default
100
AcDbVertex
100
AcDb2dVertex
 10
568.1045811037309
 20
-1253.33272503412
 30
0.0
  0
SEQEND
  5
13F
330
13C
100
AcDbEntity
  8
Default
  0
POLYLINE
  5
140
330
1F
100
AcDbEntity
  8
Default
100
AcDb2dPolyline
 66
     1
 10
0.0
 20
0.0
 30
0.0
  0
VERTEX
  5
141
330
140
100
AcDbEntity
  8
Default
100
AcDbVertex
100
AcDb2dVertex
 10
559.9408683742988
 20
-1252.83076715742
 30
0.0
  0
VERTEX
  5
142
330
140
100
AcDbEntity
  8
Default
100
AcDbVertex
100
AcDb2dVertex
 10
559.9408683742986
 20
-1246.710631512367
 30
0.0
  0
SEQEND
  5
143
330
140
100
AcDbEntity
  8
Default
  0
POLYLINE
  5
144
330
1F
100
AcDbEntity
  8
Default
100
AcDb2dPolyline
 66
     1
 10
0.0
 20
0.0
 30
0.0
  0
VERTEX
  5
145
330
144
100
AcDbEntity
  8
Default
100
AcDbVertex
100
AcDb2dVertex
 10
521.0139231165435
 20
-1252.64964043631
 30
0.0
  0
VERTEX
  5
146
330
144
100
AcDbEntity
  8
Default
100
AcDbVertex
100
AcDb2dVertex
 10
521.0139231165433
 20
-1246.529504791258
 30
0.0
  0
SEQEND
  5
147
330
144
100
AcDbEntity
  8
Default
  0
POLYLINE
  5
148
330
1F
100
AcDbEntity
  8
Default
100
AcDb2dPolyline
 66
     1
 10
0.0
 20
0.0
 30
0.0
  0
VERTEX
  5
149
330
148
100
AcDbEntity
  8
Default
100
AcDbVertex
100
AcDb2dVertex
 10
512.904394036643
 20
-1246.154698933133
 30
0.0
  0
VERTEX
  5
14A
330
148
100
AcDbEntity
  8
Default
100
AcDbVertex
100
AcDb2dVertex
 10
519.0245296816952
 20
-1246.154698933133
 30
0.0
  0
SEQEND
  5
14B
330
148
100
AcDbEntity
  8
Default
  0
POLYLINE
  5
14C
330
1F
100
AcDbEntity
  8
Default
100
AcDb2dPolyline
 66
     1
 10
0.0
 20
0.0
 30
0.0
  0
VERTEX
  5
14D
330
14C
100
AcDbEntity
  8
Default
100
AcDbVertex
100
AcDb2dVertex
 10
512.904394036643
 20
-1253.206828967744
 30
0.0
  0
VERTEX
  5
14E
330
14C
100
AcDbEntity
  8
Default
100
AcDbVertex
100
AcDb2dVertex
 10
519.0245296816952
 20
-1253.206828967744
 30
0.0
  0
SEQEND
  5
14F
330
14C
100
AcDbEntity
  8
Default
  0
POLYLINE
  5
150
330
1F
100
AcDbEntity
  8
Default
100
AcDb2dPolyline
 66
     1
 10
0.0
 20
0.0
 30
0.0
  0
VERTEX
  5
151
330
150
100
AcDbEntity
  8
Default
100
AcDbVertex
100
AcDb2dVertex
 10
510.8608169522631
 20
-1252.704871091044
 30
0.0
  0
VERTEX
  5
152
330
150
100
AcDbEntity
  8
Default
100
AcDbVertex
100
AcDb2dVertex
 10
510.8608169522629
 20
-1246.584735445992
 30
0.0
  0
SEQEND
  5
153
330
150
100
AcDbEntity
  8
Default
  0
POLYLINE
  5
154
330
1F
100
AcDbEntity
  8
Default
100
AcDb2dPolyline
 66
     1
 10
0.0
 20
0.0
 30
0.0
  0
VERTEX
  5
155
330
154
100
AcDbEntity
  8
Default
100
AcDbVertex
100
AcDb2dVertex
 10
472.223533652084
 20
-1252.470154438724
 30
0.0
  0
VERTEX
  5
156
330
154
100
AcDbEntity
  8
Default
100
AcDbVertex
100
AcDb2dVertex
 10
472.2235336520837
 20
-1246.350018793672
 30
0.0
  0
SEQEND
  5
157
330
154
100
AcDbEntity
  8
Default
  0
POLYLINE
  5
158
330
1F
100
AcDbEntity
  8
Default
100
AcDb2dPolyline
 66
     1
 10
0.0
 20
0.0
 30
0.0
  0
VERTEX
  5
159
330
158
100
AcDbEntity
  8
Default
100
AcDbVertex
100
AcDb2dVertex
 10
464.1140045721835
 20
-1245.975212935547
 30
0.0
  0
VERTEX
  5
15A
330
158
100
AcDbEntity
  8
Default
100
AcDbVertex
100
AcDb2dVertex
 10
470.2341402172357
 20
-1245.975212935547
 30
0.0
  0
SEQEND
  5
15B
330
158
100
AcDbEntity
  8
Default
  0
POLYLINE
  5
15C
330
1F
100
AcDbEntity
  8
Default
100
AcDb2dPolyline
 66
     1
 10
0.0
 20
0.0
 30
0.0
  0
VERTEX
  5
15D
330
15C
100
AcDbEntity
  8
Default
100
AcDbVertex
100
AcDb2dVertex
 10
464.1140045721835
 20
-1253.027342970158
 30
0.0
  0
VERTEX
  5
15E
330
15C
100
AcDbEntity
  8
Default
100
AcDbVertex
100
AcDb2dVertex
 10
470.2341402172357
 20
-1253.027342970158
 30
0.0
  0
SEQEND
  5
15F
330
15C
100
AcDbEntity
  8
Default
  0
POLYLINE
  5
160
330
1F
100
AcDbEntity
  8
Default
100
AcDb2dPolyline
 66
     1
 10
0.0
 20
0.0
 30
0.0
  0
VERTEX
  5
161
330
160
100
AcDbEntity
  8
Default
100
AcDbVertex
100
AcDb2dVertex
 10
462.0704274878036
 20
-1252.525385093458
 30
0.0
  0
VERTEX
  5
162
330
160
100
AcDbEntity
  8
Default
100
AcDbVertex
100
AcDb2dVertex
 10
462.0704274878034
 20
-1246.405249448406
 30
0.0
  0
SEQEND
  5
163
330
160
100
AcDbEntity
  8
Default
  0
POLYLINE
  5
164
330
1F
100
AcDbEntity
  8
Default
100
AcDb2dPolyline
 66
     1
 10
0.0
 20
0.0
 30
0.0
  0
VERTEX
  5
165
330
164
100
AcDbEntity
  8
Default
100
AcDbVertex
100
AcDb2dVertex
 10
422.1648045966469
 20
-1252.356225664575
 30
0.0
  0
VERTEX
  5
166
330
164
100
AcDbEntity
  8
Default
100
AcDbVertex
100
AcDb2dVertex
 10
422.1648045966467
 20
-1246.236090019523
 30
0.0
  0
SEQEND
  5
167
330
164
100
AcDbEntity
  8
Default
  0
POLYLINE
  5
168
330
1F
100
AcDbEntity
  8
Default
100
AcDb2dPolyline
 66
     1
 10
0.0
 20
0.0
 30
0.0
  0
VERTEX
  5
169
330
168
100
AcDbEntity
  8
Default
100
AcDbVertex
100
AcDb2dVertex
 10
414.0552755167464
 20
-1245.861284161398
 30
0.0
  0
VERTEX
  5
16A
330
168
100
AcDbEntity
  8
Default
100
AcDbVertex
100
AcDb2dVertex
 10
420.1754111617986
 20
-1245.861284161398
 30
0.0
  0
SEQEND
  5
16B
330
168
100
AcDbEntity
  8
Default
  0
POLYLINE
  5
16C
330
1F
100
AcDbEntity
  8
Default
100
AcDb2dPolyline
 66
     1
 10
0.0
 20
0.0
 30
0.0
  0
VERTEX
  5
16D
330
16C
100
AcDbEntity
  8
Default
100
AcDbVertex
100
AcDb2dVertex
 10
414.0552755167464
 20
-1252.913414196009
 30
0.0
  0
VERTEX
  5
16E
330
16C
100
AcDbEntity
  8
Default
100
AcDbVertex
100
AcDb2dVertex
 10
420.1754111617986
 20
-1252.913414196009
 30
0.0
  0
SEQEND
  5
16F
330
16C
100
AcDbEntity
  8
Default
  0
POLYLINE
  5
170
330
1F
100
AcDbEntity
  8
Default
100
AcDb2dPolyline
 66
     1
 10
0.0
 20
0.0
 30
0.0
  0
VERTEX
  5
171
330
170
100
AcDbEntity
  8
Default
100
AcDbVertex
100
AcDb2dVertex
 10
412.0116984323665
 20
-1252.411456319309
 30
0.0
  0
VERTEX
  5
172
330
170
100
AcDbEntity
  8
Default
100
AcDbVertex
100
AcDb2dVertex
 10
412.0116984323663
 20
-1246.291320674257
 30
0.0
  0
SEQEND
  5
173
330
170
100
AcDbEntity
  8
Default
  0
POLYLINE
  5
174
330
1F
100
AcDbEntity
  8
Default
100
AcDb2dPolyline
 66
     1
 10
0.0
 20
0.0
 30
0.0
  0
VERTEX
  5
175
330
174
100
AcDbEntity
  8
Default
100
AcDbVertex
100
AcDb2dVertex
 10
422.1648045966469
 20
-1203.565280912353
 30
0.0
  0
VERTEX
  5
176
330
174
100
AcDbEntity
  8
Default
100
AcDbVertex
100
AcDb2dVertex
 10
422.1648045966467
 20
-1197.445145267301
 30
0.0
  0
SEQEND
  5
177
330
174
100
AcDbEntity
  8
Default
  0
POLYLINE
  5
178
330
1F
100
AcDbEntity
  8
Default
100
AcDb2dPolyline
 66
     1
 10
0.0
 20
0.0
 30
0.0
  0
VERTEX
  5
179
330
178
100
AcDbEntity
  8
Default
100
AcDbVertex
100
AcDb2dVertex
 10
414.0552755167464
 20
-1197.070339409176
 30
0.0
  0
VERTEX
  5
17A
330
178
100
AcDbEntity
  8
Default
100
AcDbVertex
100
AcDb2dVertex
 10
420.1754111617986
 20
-1197.070339409176
 30
0.0
  0
SEQEND
  5
17B
330
178
100
AcDbEntity
  8
Default
  0
POLYLINE
  5
17C
330
1F
100
AcDbEntity
  8
Default
100
AcDb2dPolyline
 66
     1
 10
0.0
 20
0.0
 30
0.0
  0
VERTEX
  5
17D
330
17C
100
AcDbEntity
  8
Default
100
AcDbVertex
100
AcDb2dVertex
 10
414.0552755167464
 20
-1204.122469443787
 30
0.0
  0
VERTEX
  5
17E
330
17C
100
AcDbEntity
  8
Default
100
AcDbVertex
100
AcDb2dVertex
 10
420.1754111617986
 20
-1204.122469443787
 30
0.0
  0
SEQEND
  5
17F
330
17C
100
AcDbEntity
  8
Default
  0
POLYLINE
  5
180
330
1F
100
AcDbEntity
  8
Default
100
AcDb2dPolyline
 66
     1
 10
0.0
 20
0.0
 30
0.0
  0
VERTEX
  5
181
330
180
100
AcDbEntity
  8
Default
100
AcDbVertex
100
AcDb2dVertex
 10
412.0116984323665
 20
-1203.620511567087
 30
0.0
  0
VERTEX
  5
182
330
180
100
AcDbEntity
  8
Default
100
AcDbVertex
100
AcDb2dVertex
 10
412.0116984323663
 20
-1197.500375922034
 30
0.0
  0
SEQEND
  5
183
330
180
100
AcDbEntity
  8
Default
  0
POLYLINE
  5
184
330
1F
100
AcDbEntity
  8
Default
100
AcDb2dPolyline
 66
     1
 10
0.0
 20
0.0
 30
0.0
  0
VERTEX
  5
185
330
184
100
AcDbEntity
  8
Default
100
AcDbVertex
100
AcDb2dVertex
 10
472.223533652084
 20
-1203.679209686502
 30
0.0
  0
VERTEX
  5
186
330
184
100
AcDbEntity
  8
Default
100
AcDbVertex
100
AcDb2dVertex
 10
472.2235336520837
 20
-1197.559074041449
 30
0.0
  0
SEQEND
  5
187
330
184
100
AcDbEntity
  8
Default
  0
POLYLINE
  5
188
330
1F
100
AcDbEntity
  8
Default
100
AcDb2dPolyline
 66
     1
 10
0.0
 20
0.0
 30
0.0
  0
VERTEX
  5
189
330
188
100
AcDbEntity
  8
Default
100
AcDbVertex
100
AcDb2dVertex
 10
464.1140045721835
 20
-1197.184268183324
 30
0.0
  0
VERTEX
  5
18A
330
188
100
AcDbEntity
  8
Default
100
AcDbVertex
100
AcDb2dVertex
 10
470.2341402172357
 20
-1197.184268183324
 30
0.0
  0
SEQEND
  5
18B
330
188
100
AcDbEntity
  8
Default
  0
POLYLINE
  5
18C
330
1F
100
AcDbEntity
  8
Default
100
AcDb2dPolyline
 66
     1
 10
0.0
 20
0.0
 30
0.0
  0
VERTEX
  5
18D
330
18C
100
AcDbEntity
  8
Default
100
AcDbVertex
100
AcDb2dVertex
 10
464.1140045721835
 20
-1204.236398217936
 30
0.0
  0
VERTEX
  5
18E
330
18C
100
AcDbEntity
  8
Default
100
AcDbVertex
100
AcDb2dVertex
 10
470.2341402172357
 20
-1204.236398217936
 30
0.0
  0
SEQEND
  5
18F
330
18C
100
AcDbEntity
  8
Default
  0
POLYLINE
  5
190
330
1F
100
AcDbEntity
  8
Default
100
AcDb2dPolyline
 66
     1
 10
0.0
 20
0.0
 30
0.0
  0
VERTEX
  5
191
330
190
100
AcDbEntity
  8
Default
100
AcDbVertex
100
AcDb2dVertex
 10
462.0704274878036
 20
-1203.734440341235
 30
0.0
  0
VERTEX
  5
192
330
190
100
AcDbEntity
  8
Default
100
AcDbVertex
100
AcDb2dVertex
 10
462.0704274878034
 20
-1197.614304696183
 30
0.0
  0
SEQEND
  5
193
330
190
100
AcDbEntity
  8
Default
  0
POLYLINE
  5
194
330
1F
100
AcDbEntity
  8
Default
100
AcDb2dPolyline
 66
     1
 10
0.0
 20
0.0
 30
0.0
  0
VERTEX
  5
195
330
194
100
AcDbEntity
  8
Default
100
AcDbVertex
100
AcDb2dVertex
 10
521.0139231165435
 20
-1203.858695684087
 30
0.0
  0
VERTEX
  5
196
330
194
100
AcDbEntity
  8
Default
100
AcDbVertex
100
AcDb2dVertex
 10
521.0139231165433
 20
-1197.738560039035
 30
0.0
  0
SEQEND
  5
197
330
194
100
AcDbEntity
  8
Default
  0
POLYLINE
  5
198
330
1F
100
AcDbEntity
  8
Default
100
AcDb2dPolyline
 66
     1
 10
0.0
 20
0.0
 30
0.0
  0
VERTEX
  5
199
330
198
100
AcDbEntity
  8
Default
100
AcDbVertex
100
AcDb2dVertex
 10
512.904394036643
 20
-1197.36375418091
 30
0.0
  0
VERTEX
  5
19A
330
198
100
AcDbEntity
  8
Default
100
AcDbVertex
100
AcDb2dVertex
 10
519.0245296816952
 20
-1197.36375418091
 30
0.0
  0
SEQEND
  5
19B
330
198
100
AcDbEntity
  8
Default
  0
POLYLINE
  5
19C
330
1F
100
AcDbEntity
  8
Default
100
AcDb2dPolyline
 66
     1
 10
0.0
 20
0.0
 30
0.0
  0
VERTEX
  5
19D
330
19C
100
AcDbEntity
  8
Default
100
AcDbVertex
100
AcDb2dVertex
 10
512.904394036643
 20
-1204.415884215522
 30
0.0
  0
VERTEX
  5
19E
330
19C
100
AcDbEntity
  8
Default
100
AcDbVertex
100
AcDb2dVertex
 10
519.0245296816952
 20
-1204.415884215522
 30
0.0
  0
SEQEND
  5
19F
330
19C
100
AcDbEntity
  8
Default
  0
POLYLINE
  5
1A0
330
1F
100
AcDbEntity
  8
Default
100
AcDb2dPolyline
 66
     1
 10
0.0
 20
0.0
 30
0.0
  0
VERTEX
  5
1A1
330
1A0
100
AcDbEntity
  8
Default
100
AcDbVertex
100
AcDb2dVertex
 10
510.8608169522631
 20
-1203.913926338821
 30
0.0
  0
VERTEX
  5
1A2
330
1A0
100
AcDbEntity
  8
Default
100
AcDbVertex
100
AcDb2dVertex
 10
510.8608169522629
 20
-1197.793790693769
 30
0.0
  0
SEQEND
  5
1A3
330
1A0
100
AcDbEntity
  8
Default
  0
POLYLINE
  5
1A4
330
1F
100
AcDbEntity
  8
Default
100
AcDb2dPolyline
 66
     1
 10
0.0
 20
0.0
 30
0.0
  0
VERTEX
  5
1A5
330
1A4
100
AcDbEntity
  8
Default
100
AcDbVertex
100
AcDb2dVertex
 10
570.0939745385792
 20
-1203.984591750463
 30
0.0
  0
VERTEX
  5
1A6
330
1A4
100
AcDbEntity
  8
Default
100
AcDbVertex
100
AcDb2dVertex
 10
570.093974538579
 20
-1197.864456105411
 30
0.0
  0
SEQEND
  5
1A7
330
1A4
100
AcDbEntity
  8
Default
  0
POLYLINE
  5
1A8
330
1F
100
AcDbEntity
  8
Default
100
AcDb2dPolyline
 66
     1
 10
0.0
 20
0.0
 30
0.0
  0
VERTEX
  5
1A9
330
1A8
100
AcDbEntity
  8
Default
100
AcDbVertex
100
AcDb2dVertex
 10
561.9844454586787
 20
-1197.489650247286
 30
0.0
  0
VERTEX
  5
1AA
330
1A8
100
AcDbEntity
  8
Default
100
AcDbVertex
100
AcDb2dVertex
 10
568.1045811037309
 20
-1197.489650247286
 30
0.0
  0
SEQEND
  5
1AB
330
1A8
100
AcDbEntity
  8
Default
  0
POLYLINE
  5
1AC
330
1F
100
AcDbEntity
  8
Default
100
AcDb2dPolyline
 66
     1
 10
0.0
 20
0.0
 30
0.0
  0
VERTEX
  5
1AD
330
1AC
100
AcDbEntity
  8
Default
100
AcDbVertex
100
AcDb2dVertex
 10
561.9844454586787
 20
-1204.541780281897
 30
0.0
  0
VERTEX
  5
1AE
330
1AC
100
AcDbEntity
  8
Default
100
AcDbVertex
100
AcDb2dVertex
 10
568.1045811037309
 20
-1204.541780281897
 30
0.0
  0
SEQEND
  5
1AF
330
1AC
100
AcDbEntity
  8
Default
  0
POLYLINE
  5
1B0
330
1F
100
AcDbEntity
  8
Default
100
AcDb2dPolyline
 66
     1
 10
0.0
 20
0.0
 30
0.0
  0
VERTEX
  5
1B1
330
1B0
100
AcDbEntity
  8
Default
100
AcDbVertex
100
AcDb2dVertex
 10
559.9408683742988
 20
-1204.039822405197
 30
0.0
  0
VERTEX
  5
1B2
330
1B0
100
AcDbEntity
  8
Default
100
AcDbVertex
100
AcDb2dVertex
 10
559.9408683742986
 20
-1197.919686760145
 30
0.0
  0
SEQEND
  5
1B3
330
1B0
100
AcDbEntity
  8
Default
  0
POLYLINE
  5
1B4
330
1F
100
AcDbEntity
  8
Default
100
AcDb2dPolyline
 66
     1
 10
0.0
 20
0.0
 30
0.0
  0
VERTEX
  5
1B5
330
1B4
100
AcDbEntity
  8
Default
100
AcDbVertex
100
AcDb2dVertex
 10
569.8742608431439
 20
-1155.218602634529
 30
0.0
  0
VERTEX
  5
1B6
330
1B4
100
AcDbEntity
  8
Default
100
AcDbVertex
100
AcDb2dVertex
 10
569.8742608431437
 20
-1149.098466989476
 30
0.0
  0
SEQEND
  5
1B7
330
1B4
100
AcDbEntity
  8
Default
  0
POLYLINE
  5
1B8
330
1F
100
AcDbEntity
  8
Default
100
AcDb2dPolyline
 66
     1
 10
0.0
 20
0.0
 30
0.0
  0
VERTEX
  5
1B9
330
1B8
100
AcDbEntity
  8
Default
100
AcDbVertex
100
AcDb2dVertex
 10
561.7647317632434
 20
-1148.723661131351
 30
0.0
  0
VERTEX
  5
1BA
330
1B8
100
AcDbEntity
  8
Default
100
AcDbVertex
100
AcDb2dVertex
 10
567.8848674082956
 20
-1148.723661131351
 30
0.0
  0
SEQEND
  5
1BB
330
1B8
100
AcDbEntity
  8
Default
  0
POLYLINE
  5
1BC
330
1F
100
AcDbEntity
  8
Default
100
AcDb2dPolyline
 66
     1
 10
0.0
 20
0.0
 30
0.0
  0
VERTEX
  5
1BD
330
1BC
100
AcDbEntity
  8
Default
100
AcDbVertex
100
AcDb2dVertex
 10
561.7647317632434
 20
-1155.775791165963
 30
0.0
  0
VERTEX
  5
1BE
330
1BC
100
AcDbEntity
  8
Default
100
AcDbVertex
100
AcDb2dVertex
 10
567.8848674082956
 20
-1155.775791165963
 30
0.0
  0
SEQEND
  5
1BF
330
1BC
100
AcDbEntity
  8
Default
  0
POLYLINE
  5
1C0
330
1F
100
AcDbEntity
  8
Default
100
AcDb2dPolyline
 66
     1
 10
0.0
 20
0.0
 30
0.0
  0
VERTEX
  5
1C1
330
1C0
100
AcDbEntity
  8
Default
100
AcDbVertex
100
AcDb2dVertex
 10
559.7211546788635
 20
-1155.273833289262
 30
0.0
  0
VERTEX
  5
1C2
330
1C0
100
AcDbEntity
  8
Default
100
AcDbVertex
100
AcDb2dVertex
 10
559.7211546788633
 20
-1149.15369764421
 30
0.0
  0
SEQEND
  5
1C3
330
1C0
100
AcDbEntity
  8
Default
  0
POLYLINE
  5
1C4
330
1F
100
AcDbEntity
  8
Default
100
AcDb2dPolyline
 66
     1
 10
0.0
 20
0.0
 30
0.0
  0
VERTEX
  5
1C5
330
1C4
100
AcDbEntity
  8
Default
100
AcDbVertex
100
AcDb2dVertex
 10
521.0139231165435
 20
-1155.067750931865
 30
0.0
  0
VERTEX
  5
1C6
330
1C4
100
AcDbEntity
  8
Default
100
AcDbVertex
100
AcDb2dVertex
 10
521.0139231165433
 20
-1148.947615286813
 30
0.0
  0
SEQEND
  5
1C7
330
1C4
100
AcDbEntity
  8
Default
  0
POLYLINE
  5
1C8
330
1F
100
AcDbEntity
  8
Default
100
AcDb2dPolyline
 66
     1
 10
0.0
 20
0.0
 30
0.0
  0
VERTEX
  5
1C9
330
1C8
100
AcDbEntity
  8
Default
100
AcDbVertex
100
AcDb2dVertex
 10
512.904394036643
 20
-1148.572809428688
 30
0.0
  0
VERTEX
  5
1CA
330
1C8
100
AcDbEntity
  8
Default
100
AcDbVertex
100
AcDb2dVertex
 10
519.0245296816952
 20
-1148.572809428688
 30
0.0
  0
SEQEND
  5
1CB
330
1C8
100
AcDbEntity
  8
Default
  0
POLYLINE
  5
1CC
330
1F
100
AcDbEntity
  8
Default
100
AcDb2dPolyline
 66
     1
 10
0.0
 20
0.0
 30
0.0
  0
VERTEX
  5
1CD
330
1CC
100
AcDbEntity
  8
Default
100
AcDbVertex
100
AcDb2dVertex
 10
512.904394036643
 20
-1155.624939463299
 30
0.0
  0
VERTEX
  5
1CE
330
1CC
100
AcDbEntity
  8
Default
100
AcDbVertex
100
AcDb2dVertex
 10
519.0245296816952
 20
-1155.624939463299
 30
0.0
  0
SEQEND
  5
1CF
330
1CC
100
AcDbEntity
  8
Default
  0
POLYLINE
  5
1D0
330
1F
100
AcDbEntity
  8
Default
100
AcDb2dPolyline
 66
     1
 10
0.0
 20
0.0
 30
0.0
  0
VERTEX
  5
1D1
330
1D0
100
AcDbEntity
  8
Default
100
AcDbVertex
100
AcDb2dVertex
 10
510.8608169522631
 20
-1155.122981586599
 30
0.0
  0
VERTEX
  5
1D2
330
1D0
100
AcDbEntity
  8
Default
100
AcDbVertex
100
AcDb2dVertex
 10
510.8608169522629
 20
-1149.002845941547
 30
0.0
  0
SEQEND
  5
1D3
330
1D0
100
AcDbEntity
  8
Default
  0
POLYLINE
  5
1D4
330
1F
100
AcDbEntity
  8
Default
100
AcDb2dPolyline
 66
     1
 10
0.0
 20
0.0
 30
0.0
  0
VERTEX
  5
1D5
330
1D4
100
AcDbEntity
  8
Default
100
AcDbVertex
100
AcDb2dVertex
 10
472.223533652084
 20
-1154.888264934279
 30
0.0
  0
VERTEX
  5
1D6
330
1D4
100
AcDbEntity
  8
Default
100
AcDbVertex
100
AcDb2dVertex
 10
472.2235336520837
 20
-1148.768129289227
 30
0.0
  0
SEQEND
  5
1D7
330
1D4
100
AcDbEntity
  8
Default
  0
POLYLINE
  5
1D8
330
1F
100
AcDbEntity
  8
Default
100
AcDb2dPolyline
 66
     1
 10
0.0
 20
0.0
 30
0.0
  0
VERTEX
  5
1D9
330
1D8
100
AcDbEntity
  8
Default
100
AcDbVertex
100
AcDb2dVertex
 10
464.1140045721835
 20
-1148.393323431102
 30
0.0
  0
VERTEX
  5
1DA
330
1D8
100
AcDbEntity
  8
Default
100
AcDbVertex
100
AcDb2dVertex
 10
470.2341402172357
 20
-1148.393323431102
 30
0.0
  0
SEQEND
  5
1DB
330
1D8
100
AcDbEntity
  8
Default
  0
POLYLINE
  5
1DC
330
1F
100
AcDbEntity
  8
Default
100
AcDb2dPolyline
 66
     1
 10
0.0
 20
0.0
 30
0.0
  0
VERTEX
  5
1DD
330
1DC
100
AcDbEntity
  8
Default
100
AcDbVertex
100
AcDb2dVertex
 10
464.1140045721835
 20
-1155.445453465713
 30
0.0
  0
VERTEX
  5
1DE
330
1DC
100
AcDbEntity
  8
Default
100
AcDbVertex
100
AcDb2dVertex
 10
470.2341402172357
 20
-1155.445453465713
 30
0.0
  0
SEQEND
  5
1DF
330
1DC
100
AcDbEntity
  8
Default
  0
POLYLINE
  5
1E0
330
1F
100
AcDbEntity
  8
Default
100
AcDb2dPolyline
 66
     1
 10
0.0
 20
0.0
 30
0.0
  0
VERTEX
  5
1E1
330
1E0
100
AcDbEntity
  8
Default
100
AcDbVertex
100
AcDb2dVertex
 10
462.0704274878036
 20
-1154.943495589013
 30
0.0
  0
VERTEX
  5
1E2
330
1E0
100
AcDbEntity
  8
Default
100
AcDbVertex
100
AcDb2dVertex
 10
462.0704274878034
 20
-1148.823359943961
 30
0.0
  0
SEQEND
  5
1E3
330
1E0
100
AcDbEntity
  8
Default
  0
POLYLINE
  5
1E4
330
1F
100
AcDbEntity
  8
Default
100
AcDb2dPolyline
 66
     1
 10
0.0
 20
0.0
 30
0.0
  0
VERTEX
  5
1E5
330
1E4
100
AcDbEntity
  8
Default
100
AcDbVertex
100
AcDb2dVertex
 10
422.1648045966469
 20
-1154.77433616013
 30
0.0
  0
VERTEX
  5
1E6
330
1E4
100
AcDbEntity
  8
Default
100
AcDbVertex
100
AcDb2dVertex
 10
422.1648045966467
 20
-1148.654200515078
 30
0.0
  0
SEQEND
  5
1E7
330
1E4
100
AcDbEntity
  8
Default
  0
POLYLINE
  5
1E8
330
1F
100
AcDbEntity
  8
Default
100
AcDb2dPolyline
 66
     1
 10
0.0
 20
0.0
 30
0.0
  0
VERTEX
  5
1E9
330
1E8
100
AcDbEntity
  8
Default
100
AcDbVertex
100
AcDb2dVertex
 10
414.0552755167464
 20
-1148.279394656953
 30
0.0
  0
VERTEX
  5
1EA
330
1E8
100
AcDbEntity
  8
Default
100
AcDbVertex
100
AcDb2dVertex
 10
420.1754111617986
 20
-1148.279394656953
 30
0.0
  0
SEQEND
  5
1EB
330
1E8
100
AcDbEntity
  8
Default
  0
POLYLINE
  5
1EC
330
1F
100
AcDbEntity
  8
Default
100
AcDb2dPolyline
 66
     1
 10
0.0
 20
0.0
 30
0.0
  0
VERTEX
  5
1ED
330
1EC
100
AcDbEntity
  8
Default
100
AcDbVertex
100
AcDb2dVertex
 10
414.0552755167464
 20
-1155.331524691564
 30
0.0
  0
VERTEX
  5
1EE
330
1EC
100
AcDbEntity
  8
Default
100
AcDbVertex
100
AcDb2dVertex
 10
420.1754111617986
 20
-1155.331524691564
 30
0.0
  0
SEQEND
  5
1EF
330
1EC
100
AcDbEntity
  8
Default
  0
POLYLINE
  5
1F0
330
1F
100
AcDbEntity
  8
Default
100
AcDb2dPolyline
 66
     1
 10
0.0
 20
0.0
 30
0.0
  0
VERTEX
  5
1F1
330
1F0
100
AcDbEntity
  8
Default
100
AcDbVertex
100
AcDb2dVertex
 10
412.0116984323665
 20
-1154.829566814864
 30
0.0
  0
VERTEX
  5
1F2
330
1F0
100
AcDbEntity
  8
Default
100
AcDbVertex
100
AcDb2dVertex
 10
412.0116984323663
 20
-1148.709431169812
 30
0.0
  0
SEQEND
  5
1F3
330
1F0
100
AcDbEntity
  8
Default
  0
SPLINE
  5
1F4
330
1F
100
AcDbEntity
  8
Default
100
AcDbSpline
210
0.0
220
0.0
230
1.0
 70
     8
 71
     3
 72
    62
 73
    58
 74
     0
 42
0.0000000001
 43
0.0000000001
 40
104.559634002411
 40
104.559634002411
 40
104.559634002411
 40
104.559634002411
 40
105.9641654116074
 40
108.0319764890309
 40
108.9830809764746
 40
110.4097164299762
 40
111.8812645747505
 40
113.5464769138404
 40
115.9268410743758
 40
117.0752194373976
 40
118.8879030768784
 40
123.5431013313495
 40
125.6757081455153
 40
127.6350354465436
 40
131.313311662338
 40
133.8361672348869
 40
139.5078452262195
 40
142.4664339314026
 40
147.9892689890779
 40
148.3221327615754
 40
149.7138931479102
 40
150.3697439044162
 40
154.5783285180553
 40
155.0268113414275
 40
158.3409538905429
 40
159.3124262751747
 40
160.6700928701752
 40
161.6338793107188
 40
164.5749946063549
 40
166.7085833459903
 40
171.7745702519871
 40
174.6281496707398
 40
178.7214379135032
 40
180.7679559595395
 40
182.7890407920454
 40
184.0970575151245
 40
185.8843433400446
 40
187.4419532594871
 40
188.8095110978926
 40
191.0227114607838
 40
197.5095868048824
 40
199.8022691530899
 40
205.3750712767297
 40
208.1276777645597
 40
209.0303447002275
 40
212.2650573035647
 40
214.5788270798269
 40
215.8475194909415
 40
217.7906829776044
 40
219.5500666908482
 40
221.1408248574461
 40
222.4417673944473
 40
224.7999020960772
 40
226.3972111655959
 40
230.5254573270716
 40
233.3121280080586
 40
234.5528981507081
 40
234.5528981507081
 40
234.5528981507081
 40
234.5528981507081
 10
491.5375798967058
 20
-1371.916763805684
 30
0.0
 10
491.0573847389115
 20
-1371.724371589677
 30
0.0
 10
490.5121902766456
 20
-1371.259839417433
 30
0.0
 10
489.4678515562144
 20
-1370.910901790629
 30
0.0
 10
488.4372863810985
 20
-1370.542086660244
 30
0.0
 10
487.4349386058283
 20
-1370.345206547766
 30
0.0
 10
486.3775934791398
 20
-1370.921377242351
 30
0.0
 10
485.3481629170043
 20
-1371.858855440636
 30
0.0
 10
484.7245192874437
 20
-1373.03728956964
 30
0.0
 10
484.2527990329993
 20
-1374.298023582468
 30
0.0
 10
484.0069605372065
 20
-1376.209039473197
 30
0.0
 10
483.5879287788173
 20
-1378.330535750967
 30
0.0
 10
482.6654152112498
 20
-1380.38012760121
 30
0.0
 10
481.1624413318087
 20
-1381.675310067516
 30
0.0
 10
478.9278086192468
 20
-1382.254129329081
 30
0.0
 10
476.2738800960008
 20
-1380.636259696181
 30
0.0
 10
474.456524948625
 20
-1378.453586665318
 30
0.0
 10
472.7507760372594
 20
-1375.321267461161
 30
0.0
 10
471.5589580633107
 20
-1373.466113813927
 30
0.0
 10
470.6461090509339
 20
-1371.869302177017
 30
0.0
 10
470.0303482324934
 20
-1371.627368816675
 30
0.0
 10
468.5142297615861
 20
-1371.273629528785
 30
0.0
 10
467.1326328487131
 20
-1371.40664274458
 30
0.0
 10
465.1497253915982
 20
-1371.689686103706
 30
0.0
 10
463.9546633687964
 20
-1371.724126696004
 30
0.0
 10
462.5287945313025
 20
-1371.624327354264
 30
0.0
 10
461.7568644267417
 20
-1371.297191719284
 30
0.0
 10
460.5240206413543
 20
-1370.821539737383
 30
0.0
 10
459.313575527995
 20
-1369.77251921778
 30
0.0
 10
458.2041564211069
 20
-1367.457978620801
 30
0.0
 10
457.4645076183177
 20
-1365.035398723616
 30
0.0
 10
456.3431238887184
 20
-1362.232655155557
 30
0.0
 10
455.6249869582556
 20
-1360.066509844799
 30
0.0
 10
454.5700475347057
 20
-1358.314201689898
 30
0.0
 10
453.4155443818453
 20
-1357.395380720506
 30
0.0
 10
452.0308556443352
 20
-1357.5974137721
 30
0.0
 10
451.2475237316687
 20
-1358.594415078711
 30
0.0
 10
450.9423387300122
 20
-1359.741693065016
 30
0.0
 10
450.7747386879773
 20
-1361.026629887268
 30
0.0
 10
450.74220667719
 20
-1363.564190029088
 30
0.0
 10
451.2163897739075
 20
-1366.319700793437
 30
0.0
 10
452.2645694210124
 20
-1369.773665927525
 30
0.0
 10
453.0950812228044
 20
-1372.312446257606
 30
0.0
 10
453.63651290859
 20
-1374.57689348082
 30
0.0
 10
453.8319617437265
 20
-1376.300401136791
 30
0.0
 10
453.892750839189
 20
-1377.922422995733
 30
0.0
 10
453.654627699166
 20
-1379.651203611473
 30
0.0
 10
453.0023249753456
 20
-1380.896552332915
 30
0.0
 10
452.0376287529859
 20
-1381.766035137064
 30
0.0
 10
450.6918510906836
 20
-1382.107126758364
 30
0.0
 10
449.5221020933939
 20
-1381.834176085682
 30
0.0
 10
448.3639550698288
 20
-1381.17588222362
 30
0.0
 10
447.4570183901159
 20
-1380.185451358121
 30
0.0
 10
446.2572476175108
 20
-1378.546987694856
 30
0.0
 10
445.1273191632925
 20
-1376.725377331395
 30
0.0
 10
443.4934684486177
 20
-1372.259476359947
 30
0.0
 10
442.8577734390163
 20
-1371.879237203069
 30
0.0
 10
442.7320012034415
 20
-1371.727578195644
 30
0.0
  0
ENDSEC
  0
SECTION
  2
OBJECTS
  0
DICTIONARY
  5
C
330
0
100
AcDbDictionary
281
     1
  3
ACAD_DETAILVIEWSTYLE
350
230
  3
ACAD_GROUP
350
D
  3
ACAD_LAYOUT
350
1A
  3
ACAD_MATERIAL
350
43
  3
ACAD_MLEADERSTYLE
350
5B
  3
ACAD_MLINESTYLE
350
17
  3
ACAD_PLOTSETTINGS
350
19
  3
ACAD_PLOTSTYLENAME
350
E
  3
ACAD_SCALELIST
350
47
  3
ACAD_SECTIONVIEWSTYLE
350
231
  3
ACAD_TABLESTYLE
350
59
  3
ACAD_VISUALSTYLE
350
2A
  3
AcDbVariableDictionary
350
1F5
  3
ACDB_RECOMPOSE_DATA
350
22D
  0
SUN
  5
5D
330
29
100
AcDbSun
 90
        1
290
     0
 63
     7
421
 16777215
 40
1.0
291
     1
 91
  2455826
 92
 54000000
292
     0
 70
     2
 71
   256
280
     1
  0
DICTIONARY
  5
230
102
{ACAD_REACTORS
330
C
102
}
330
C
100
AcDbDictionary
281
     1
  0
DICTIONARY
  5
D
102
{ACAD_REACTORS
330
C
102
}
330
C
100
AcDbDictionary
281
     1
  0
DICTIONARY
  5
1A
102
{ACAD_REACTORS
330
C
102
}
330
C
100
AcDbDictionary
281
     1
  3
Layout1
350
1E
  3
Layout2
350
26
  3
Model
350
22
  0
DICTIONARY
  5
43
102
{ACAD_REACTORS
330
C
102
}
330
C
100
AcDbDictionary
281
     1
  3
ByBlock
350
45
  3
ByLayer
350
44
  3
Global
350
46
  0
DICTIONARY
  5
5B
102
{ACAD_REACTORS
330
C
102
}
330
C
100
AcDbDictionary
281
     1
  3
Standard
350
5C
  0
DICTIONARY
  5
17
102
{ACAD_REACTORS
330
C
102
}
330
C
100
AcDbDictionary
281
     1
  3
Standard
350
18
  0
DICTIONARY
  5
19
102
{ACAD_REACTORS
330
C
102
}
330
C
100
AcDbDictionary
281
     1
  0
ACDBDICTIONARYWDFLT
  5
E
102
{ACAD_REACTORS
330
C
102
}
330
C
100
AcDbDictionary
281
     1
  3
Normal
350
F
100
AcDbDictionaryWithDefault
340
F
  0
DICTIONARY
  5
47
102
{ACAD_REACTORS
330
C
102
}
330
C
100
AcDbDictionary
281
     1
  3
A0
350
48
  3
A1
350
49
  3
A2
350
4A
  3
A3
350
4B
  3
A4
350
4C
  3
A5
350
4D
  3
A6
350
4E
  3
A7
350
4F
  3
A8
350
50
  3
A9
350
51
  3
B1
350
52
  3
B2
350
53
  3
B3
350
54
  3
B4
350
55
  3
B5
350
56
  3
B6
350
57
  3
B7
350
58
  0
DICTIONARY
  5
231
102
{ACAD_REACTORS
330
C
102
}
330
C
100
AcDbDictionary
281
     1
  0
DICTIONARY
  5
59
102
{ACAD_REACTORS
330
C
102
}
330
C
100
AcDbDictionary
281
     1
  3
Standard
350
5A
  0
DICTIONARY
  5
2A
102
{ACAD_REACTORS
330
C
102
}
330
C
100
AcDbDictionary
281
     1
  3
2dWireframe
350
2F
  3
Basic
350
32
  3
Brighten
350
36
  3
ColorChange
350
3A
  3
Conceptual
350
34
  3
Dim
350
35
  3
EdgeColorOff
350
3D
  3
Facepattern
350
39
  3
Flat
350
2B
  3
FlatWithEdges
350
2C
  3
Gouraud
350
2D
  3
GouraudWithEdges
350
2E
  3
Hidden
350
31
  3
JitterOff
350
3B
  3
Linepattern
350
38
  3
OverhangOff
350
3C
  3
Realistic
350
33
  3
Shaded
350
42
  3
Shaded with edges
350
41
  3
Shades of Gray
350
3E
  3
Sketchy
350
3F
  3
Thicken
350
37
  3
Wireframe
350
30
  3
X-Ray
350
40
  0
DICTIONARY
  5
1F5
102
{ACAD_REACTORS
330
C
102
}
330
C
100
AcDbDictionary
281
     1
  3
CANNOSCALE
350
1F6
  3
CMLEADERSTYLE
350
22F
  3
CTABLESTYLE
350
22E
  3
XCLIPFRAME
350
1F7
  0
XRECORD
  5
22D
102
{ACAD_REACTORS
330
C
102
}
330
C
100
AcDbXrecord
280
     1
 90
        1
330
5A
  0
LAYOUT
  5
1E
102
{ACAD_REACTORS
330
1A
102
}
330
1A
100
AcDbPlotSettings
  1

  2
none_device
  4

  6

 40
0.0
 41
0.0
 42
0.0
 43
0.0
 44
0.0
 45
0.0
 46
0.0
 47
0.0
 48
0.0
 49
0.0
140
0.0
141
0.0
142
1.0
143
1.0
 70
   688
 72
     0
 73
     0
 74
     5
  7

 75
    16
 76
     0
 77
     2
 78
   300
147
1.0
148
0.0
149
0.0
100
AcDbLayout
  1
Layout1
 70
     1
 71
     1
 10
0.0
 20
0.0
 11
12.0
 21
9.0
 12
0.0
 22
0.0
 32
0.0
 14
1.000000000000000E+20
 24
1.000000000000000E+20
 34
1.000000000000000E+20
 15
-1.000000000000000E+20
 25
-1.000000000000000E+20
 35
-1.000000000000000E+20
146
0.0
 13
0.0
 23
0.0
 33
0.0
 16
1.0
 26
0.0
 36
0.0
 17
0.0
 27
1.0
 37
0.0
 76
     0
330
1B
  0
LAYOUT
  5
26
102
{ACAD_REACTORS
330
1A
102
}
330
1A
100
AcDbPlotSettings
  1

  2
none_device
  4

  6

 40
0.0
 41
0.0
 42
0.0
 43
0.0
 44
0.0
 45
0.0
 46
0.0
 47
0.0
 48
0.0
 49
0.0
140
0.0
141
0.0
142
1.0
143
1.0
 70
   688
 72
     0
 73
     0
 74
     5
  7

 75
    16
 76
     0
 77
     2
 78
   300
147
1.0
148
0.0
149
0.0
100
AcDbLayout
  1
Layout2
 70
     1
 71
     2
 10
0.0
 20
0.0
 11
0.0
 21
0.0
 12
0.0
 22
0.0
 32
0.0
 14
0.0
 24
0.0
 34
0.0
 15
0.0
 25
0.0
 35
0.0
146
0.0
 13
0.0
 23
0.0
 33
0.0
 16
1.0
 26
0.0
 36
0.0
 17
0.0
 27
1.0
 37
0.0
 76
     0
330
23
  0
LAYOUT
  5
22
102
{ACAD_REACTORS
330
1A
102
}
330
1A
100
AcDbPlotSettings
  1

  2
none_device
  4
Letter_(8.50_x_11.00_Inches)
  6

 40
6.35
 41
6.35
 42
6.35000508
 43
6.35000508
 44
215.9
 45
279.4
 46
0.0
 47
0.0
 48
0.0
 49
0.0
140
0.0
141
0.0
142
1.0
143
1.0
 70
  1712
 72
     0
 73
     0
 74
     0
  7

 75
     0
 76
     0
 77
     2
 78
   300
147
1.0
148
0.0
149
0.0
100
AcDbLayout
  1
Model
 70
     1
 71
     0
 10
0.0
 20
0.0
 11
12.0
 21
9.0
 12
0.0
 22
0.0
 32
0.0
 14
387.3646779107747
 24
-1394.611662036013
 34
0.0
 15
639.4964588197689
 25
-1097.825957646946
 35
0.0
146
0.0
 13
0.0
 23
0.0
 33
0.0
 16
1.0
 26
0.0
 36
0.0
 17
0.0
 27
1.0
 37
0.0
 76
     0
330
1F
331
29
  0
MATERIAL
  5
45
102
{ACAD_REACTORS
330
43
102
}
330
43
100
AcDbMaterial
  1
ByBlock
 72
     1
 94
      127
  0
MATERIAL
  5
44
102
{ACAD_REACTORS
330
43
102
}
330
43
100
AcDbMaterial
  1
ByLayer
 72
     1
 94
      127
  0
MATERIAL
  5
46
102
{ACAD_REACTORS
330
43
102
}
330
43
100
AcDbMaterial
  1
Global
 72
     1
 94
      127
  0
MLEADERSTYLE
  5
5C
102
{ACAD_REACTORS
330
5B
102
}
102
{ACAD_XDICTIONARY
360
22B
102
}
330
5B
100
AcDbMLeaderStyle
170
     2
171
     1
172
     0
 90
        2
 40
0.0
 41
0.0
173
     1
 91
-1056964608
340
14
 92
       -2
290
     1
 42
0.09
291
     1
 43
0.36
  3
Standard
341
0
 44
0.18
300

342
11
174
     1
178
     6
175
     1
176
     0
 93
-1056964608
 45
0.18
292
     0
297
     0
 46
0.18
343
0
 94
-1056964608
 47
1.0
 49
1.0
140
1.0
293
     1
141
0.0
294
     1
177
     0
142
1.0
295
     0
296
     0
143
0.125
1001
ACAD_MLEADERVER
1070
     2
  0
MLINESTYLE
  5
18
102
{ACAD_REACTORS
330
17
102
}
330
17
100
AcDbMlineStyle
  2
Standard
 70
     0
  3

 62
   256
 51
90.0
 52
90.0
 71
     2
 49
0.5
 62
   256
  6
BYLAYER
 49
-0.5
 62
   256
  6
BYLAYER
  0
ACDBPLACEHOLDER
  5
F
102
{ACAD_REACTORS
330
E
102
}
330
E
  0
SCALE
  5
48
102
{ACAD_REACTORS
330
47
102
}
330
47
100
AcDbScale
 70
     0
300
1:1
140
1.0
141
1.0
290
     1
  0
SCALE
  5
49
102
{ACAD_REACTORS
330
47
102
}
330
47
100
AcDbScale
 70
     0
300
1/128" = 1'-0"
140
0.0078125
141
12.0
290
     0
  0
SCALE
  5
4A
102
{ACAD_REACTORS
330
47
102
}
330
47
100
AcDbScale
 70
     0
300
1/64" = 1'-0"
140
0.015625
141
12.0
290
     0
  0
SCALE
  5
4B
102
{ACAD_REACTORS
330
47
102
}
330
47
100
AcDbScale
 70
     0
300
1/32" = 1'-0"
140
0.03125
141
12.0
290
     0
  0
SCALE
  5
4C
102
{ACAD_REACTORS
330
47
102
}
330
47
100
AcDbScale
 70
     0
300
1/16" = 1'-0"
140
0.0625
141
12.0
290
     0
  0
SCALE
  5
4D
102
{ACAD_REACTORS
330
47
102
}
330
47
100
AcDbScale
 70
     0
300
3/32" = 1'-0"
140
0.09375
141
12.0
290
     0
  0
SCALE
  5
4E
102
{ACAD_REACTORS
330
47
102
}
330
47
100
AcDbScale
 70
     0
300
1/8" = 1'-0"
140
0.125
141
12.0
290
     0
  0
SCALE
  5
4F
102
{ACAD_REACTORS
330
47
102
}
330
47
100
AcDbScale
 70
     0
300
3/16" = 1'-0"
140
0.1875
141
12.0
290
     0
  0
SCALE
  5
50
102
{ACAD_REACTORS
330
47
102
}
330
47
100
AcDbScale
 70
     0
300
1/4" = 1'-0"
140
0.25
141
12.0
290
     0
  0
SCALE
  5
51
102
{ACAD_REACTORS
330
47
102
}
330
47
100
AcDbScale
 70
     0
300
3/8" = 1'-0"
140
0.375
141
12.0
290
     0
  0
SCALE
  5
52
102
{ACAD_REACTORS
330
47
102
}
330
47
100
AcDbScale
 70
     0
300
1/2" = 1'-0"
140
0.5
141
12.0
290
     0
  0
SCALE
  5
53
102
{ACAD_REACTORS
330
47
102
}
330
47
100
AcDbScale
 70
     0
300
3/4" = 1'-0"
140
0.75
141
12.0
290
     0
  0
SCALE
  5
54
102
{ACAD_REACTORS
330
47
102
}
330
47
100
AcDbScale
 70
     0
300
1" = 1'-0"
140
1.0
141
12.0
290
     0
  0
SCALE
  5
55
102
{ACAD_REACTORS
330
47
102
}
330
47
100
AcDbScale
 70
     0
300
1-1/2" = 1'-0"
140
1.5
141
12.0
290
     0
  0
SCALE
  5
56
102
{ACAD_REACTORS
330
47
102
}
330
47
100
AcDbScale
 70
     0
300
3" = 1'-0"
140
3.0
141
12.0
290
     0
  0
SCALE
  5
57
102
{ACAD_REACTORS
330
47
102
}
330
47
100
AcDbScale
 70
     0
300
6" = 1'-0"
140
6.0
141
12.0
290
     0
  0
SCALE
  5
58
102
{ACAD_REACTORS
330
47
102
}
330
47
100
AcDbScale
 70
     0
300
1'-0" = 1'-0"
140
12.0
141
12.0
290
     0
  0
TABLESTYLE
  5
5A
102
{ACAD_REACTORS
330
59
102
}
102
{ACAD_XDICTIONARY
360
228
102
}
330
59
100
AcDbTableStyle
  3
Standard
 70
     0
 71
     0
 40
0.06
 41
0.06
280
     0
281
     0
  7
Standard
140
0.18
170
     2
 62
     0
 63
   257
283
     0
 90
        4
 91
        0
  1

274
    -2
284
     1
 64
     0
275
    -2
285
     1
 65
     0
276
    -2
286
     1
 66
     0
277
    -2
287
     1
 67
     0
278
    -2
288
     1
 68
     0
279
    -2
289
     1
 69
     0
  7
Standard
140
0.25
170
     5
 62
     0
 63
   257
283
     0
 90
        4
 91
        0
  1

274
    -2
284
     1
 64
     0
275
    -2
285
     1
 65
     0
276
    -2
286
     1
 66
     0
277
    -2
287
     1
 67
     0
278
    -2
288
     1
 68
     0
279
    -2
289
     1
 69
     0
  7
Standard
140
0.18
170
     5
 62
     0
 63
   257
283
     0
 90
        4
 91
        0
  1

274
    -2
284
     1
 64
     0
275
    -2
285
     1
 65
     0
276
    -2
286
     1
 66
     0
277
    -2
287
     1
 67
     0
278
    -2
288
     1
 68
     0
279
    -2
289
     1
 69
     0
  0
VISUALSTYLE
  5
2F
102
{ACAD_REACTORS
330
2A
102
}
102
{ACAD_XDICTIONARY
360
200
102
}
330
2A
100
AcDbVisualStyle
  2
2dWireframe
 70
     4
 71
     0
 72
     2
 73
     0
 90
        0
 40
0.6
 41
30.0
 62
     5
 63
     7
421
 16777215
 74
     1
 91
        4
 64
     7
 65
   257
 75
     1
175
     1
 42
1.0
 92
        0
 66
   257
 43
1.0
 76
     1
 77
     6
 78
     2
 67
     7
 79
     5
170
     0
171
     0
290
     0
174
     0
 93
        1
 44
0.0
173
     0
291
     0
 45
0.0
  0
VISUALSTYLE
  5
32
102
{ACAD_REACTORS
330
2A
102
}
102
{ACAD_XDICTIONARY
360
206
102
}
330
2A
100
AcDbVisualStyle
  2
Basic
 70
     7
 71
     1
 72
     0
 73
     1
 90
        0
 40
0.6
 41
30.0
 62
     5
 63
     7
421
 16777215
 74
     0
 91
        4
 64
     7
 65
   257
 75
     1
175
     1
 42
1.0
 92
        8
 66
     7
 43
1.0
 76
     1
 77
     6
 78
     2
 67
     7
 79
     5
170
     0
171
     0
290
     0
174
     0
 93
        1
 44
0.0
173
     0
291
     1
 45
0.0
  0
VISUALSTYLE
  5
36
102
{ACAD_REACTORS
330
2A
102
}
102
{ACAD_XDICTIONARY
360
20E
102
}
330
2A
100
AcDbVisualStyle
  2
Brighten
 70
    12
 71
     2
 72
     2
 73
     0
 90
        0
 40
0.6
 41
30.0
 62
     5
 63
     7
421
 16777215
 74
     1
 91
        4
 64
     7
 65
   257
 75
     1
175
     1
 42
1.0
 92
        8
 66
     7
 43
1.0
 76
     1
 77
     6
 78
     2
 67
     7
 79
     5
170
     0
171
     0
290
     0
174
     0
 93
        1
 44
50.0
173
     0
291
     1
 45
0.0
  0
VISUALSTYLE
  5
3A
102
{ACAD_REACTORS
330
2A
102
}
102
{ACAD_XDICTIONARY
360
216
102
}
330
2A
100
AcDbVisualStyle
  2
ColorChange
 70
    16
 71
     2
 72
     2
 73
     3
 90
        0
 40
0.6
 41
30.0
 62
     5
 63
     8
421
  8421504
 74
     1
 91
        4
 64
     7
 65
   257
 75
     1
175
     1
 42
1.0
 92
        8
 66
     8
424
  8421504
 43
1.0
 76
     1
 77
     6
 78
     2
 67
     7
 79
     5
170
     0
171
     0
290
     0
174
     0
 93
        1
 44
0.0
173
     0
291
     1
 45
0.0
  0
VISUALSTYLE
  5
34
102
{ACAD_REACTORS
330
2A
102
}
102
{ACAD_XDICTIONARY
360
20A
102
}
330
2A
100
AcDbVisualStyle
  2
Conceptual
 70
     9
 71
     3
 72
     2
 73
     0
 90
        0
 40
0.6
 41
30.0
 62
     5
 63
     7
421
 16777215
 74
     2
 91
        2
 64
     7
 65
   257
 75
     1
175
     1
 42
179.0
 92
        8
 66
     7
 43
1.0
 76
     1
 77
     6
 78
     2
 67
     7
 79
     3
170
     0
171
     0
290
     0
174
     0
 93
        1
 44
0.0
173
     0
291
     0
 45
0.0
  0
VISUALSTYLE
  5
35
102
{ACAD_REACTORS
330
2A
102
}
102
{ACAD_XDICTIONARY
360
20C
102
}
330
2A
100
AcDbVisualStyle
  2
Dim
 70
    11
 71
     2
 72
     2
 73
     0
 90
        0
 40
0.6
 41
30.0
 62
     5
 63
     7
421
 16777215
 74
     1
 91
        4
 64
     7
 65
   257
 75
     1
175
     1
 42
1.0
 92
        8
 66
     7
 43
1.0
 76
     1
 77
     6
 78
     2
 67
     7
 79
     5
170
     0
171
     0
290
     0
174
     0
 93
        1
 44
-50.0
173
     0
291
     1
 45
0.0
  0
VISUALSTYLE
  5
3D
102
{ACAD_REACTORS
330
2A
102
}
102
{ACAD_XDICTIONARY
360
21C
102
}
330
2A
100
AcDbVisualStyle
  2
EdgeColorOff
 70
    22
 71
     2
 72
     2
 73
     0
 90
        0
 40
0.6
 41
30.0
 62
     5
 63
     7
421
 16777215
 74
     1
 91
        4
 64
     7
 65
   257
 75
     1
175
     1
 42
1.0
 92
        8
 66
     7
 43
1.0
 76
     1
 77
     6
 78
     2
 67
     7
 79
     5
170
     0
171
     0
290
     0
174
     0
 93
        1
 44
0.0
173
     0
291
     1
 45
0.0
  0
VISUALSTYLE
  5
39
102
{ACAD_REACTORS
330
2A
102
}
102
{ACAD_XDICTIONARY
360
214
102
}
330
2A
100
AcDbVisualStyle
  2
Facepattern
 70
    15
 71
     2
 72
     2
 73
     0
 90
        0
 40
0.6
 41
30.0
 62
     5
 63
     7
421
 16777215
 74
     1
 91
        4
 64
     7
 65
   257
 75
     1
175
     1
 42
1.0
 92
        8
 66
     7
 43
1.0
 76
     1
 77
     6
 78
     2
 67
     7
 79
     5
170
     0
171
     0
290
     0
174
     0
 93
        1
 44
0.0
173
     0
291
     1
 45
0.0
  0
VISUALSTYLE
  5
2B
102
{ACAD_REACTORS
330
2A
102
}
102
{ACAD_XDICTIONARY
360
1F8
102
}
330
2A
100
AcDbVisualStyle
  2
Flat
 70
     0
 71
     2
 72
     1
 73
     1
 90
        2
 40
0.6
 41
30.0
 62
     5
 63
     7
421
 16777215
 74
     0
 91
        0
 64
     7
 65
   257
 75
     1
175
     1
 42
1.0
 92
        8
 66
     7
 43
1.0
 76
     1
 77
     6
 78
     2
 67
     7
 79
     5
170
     0
171
     0
290
     0
174
     0
 93
       13
 44
0.0
173
     0
291
     1
 45
0.0
  0
VISUALSTYLE
  5
2C
102
{ACAD_REACTORS
330
2A
102
}
102
{ACAD_XDICTIONARY
360
1FA
102
}
330
2A
100
AcDbVisualStyle
  2
FlatWithEdges
 70
     1
 71
     2
 72
     1
 73
     1
 90
        2
 40
0.6
 41
30.0
 62
     5
 63
     7
421
 16777215
 74
     1
 91
        0
 64
     7
 65
   257
 75
     1
175
     1
 42
1.0
 92
        0
 66
   257
 43
1.0
 76
     1
 77
     6
 78
     2
 67
     7
 79
     5
170
     0
171
     0
290
     0
174
     0
 93
       13
 44
0.0
173
     0
291
     1
 45
0.0
  0
VISUALSTYLE
  5
2D
102
{ACAD_REACTORS
330
2A
102
}
102
{ACAD_XDICTIONARY
360
1FC
102
}
330
2A
100
AcDbVisualStyle
  2
Gouraud
 70
     2
 71
     2
 72
     2
 73
     1
 90
        2
 40
0.6
 41
30.0
 62
     5
 63
     7
421
 16777215
 74
     0
 91
        0
 64
     7
 65
   257
 75
     1
175
     1
 42
1.0
 92
        0
 66
     7
 43
1.0
 76
     1
 77
     6
 78
     2
 67
     7
 79
     5
170
     0
171
     0
290
     0
174
     0
 93
       13
 44
0.0
173
     0
291
     1
 45
0.0
  0
VISUALSTYLE
  5
2E
102
{ACAD_REACTORS
330
2A
102
}
102
{ACAD_XDICTIONARY
360
1FE
102
}
330
2A
100
AcDbVisualStyle
  2
GouraudWithEdges
 70
     3
 71
     2
 72
     2
 73
     1
 90
        2
 40
0.6
 41
30.0
 62
     5
 63
     7
421
 16777215
 74
     1
 91
        0
 64
     7
 65
   257
 75
     1
175
     1
 42
1.0
 92
        0
 66
   257
 43
1.0
 76
     1
 77
     6
 78
     2
 67
     7
 79
     5
170
     0
171
     0
290
     0
174
     0
 93
       13
 44
0.0
173
     0
291
     1
 45
0.0
  0
VISUALSTYLE
  5
31
102
{ACAD_REACTORS
330
2A
102
}
102
{ACAD_XDICTIONARY
360
204
102
}
330
2A
100
AcDbVisualStyle
  2
Hidden
 70
     6
 71
     1
 72
     2
 73
     2
 90
        0
 40
0.6
 41
30.0
 62
     5
 63
     7
421
 16777215
 74
     2
 91
        2
 64
     7
 65
   257
 75
     2
175
     1
 42
40.0
 92
        0
 66
   257
 43
1.0
 76
     1
 77
     6
 78
     2
 67
     7
 79
     3
170
     0
171
     0
290
     0
174
     0
 93
        1
 44
0.0
173
     0
291
     0
 45
0.0
  0
VISUALSTYLE
  5
3B
102
{ACAD_REACTORS
330
2A
102
}
102
{ACAD_XDICTIONARY
360
218
102
}
330
2A
100
AcDbVisualStyle
  2
JitterOff
 70
    20
 71
     2
 72
     2
 73
     0
 90
        0
 40
0.6
 41
30.0
 62
     5
 63
     7
421
 16777215
 74
     1
 91
        4
 64
     7
 65
   257
 75
     1
175
     1
 42
1.0
 92
       10
 66
     7
 43
1.0
 76
     1
 77
     6
 78
     2
 67
     7
 79
     5
170
     0
171
     0
290
     0
174
     0
 93
        1
 44
0.0
173
     0
291
     1
 45
0.0
  0
VISUALSTYLE
  5
38
102
{ACAD_REACTORS
330
2A
102
}
102
{ACAD_XDICTIONARY
360
212
102
}
330
2A
100
AcDbVisualStyle
  2
Linepattern
 70
    14
 71
     2
 72
     2
 73
     0
 90
        0
 40
0.6
 41
30.0
 62
     5
 63
     7
421
 16777215
 74
     1
 91
        4
 64
     7
 65
   257
 75
     7
175
     7
 42
1.0
 92
        8
 66
     7
 43
1.0
 76
     1
 77
     6
 78
     2
 67
     7
 79
     5
170
     0
171
     0
290
     0
174
     0
 93
        1
 44
0.0
173
     0
291
     1
 45
0.0
  0
VISUALSTYLE
  5
3C
102
{ACAD_REACTORS
330
2A
102
}
102
{ACAD_XDICTIONARY
360
21A
102
}
330
2A
100
AcDbVisualStyle
  2
OverhangOff
 70
    21
 71
     2
 72
     2
 73
     0
 90
        0
 40
0.6
 41
30.0
 62
     5
 63
     7
421
 16777215
 74
     1
 91
        4
 64
     7
 65
   257
 75
     1
175
     1
 42
1.0
 92
        9
 66
     7
 43
1.0
 76
     1
 77
     6
 78
     2
 67
     7
 79
     5
170
     0
171
     0
290
     0
174
     0
 93
        1
 44
0.0
173
     0
291
     1
 45
0.0
  0
VISUALSTYLE
  5
33
102
{ACAD_REACTORS
330
2A
102
}
102
{ACAD_XDICTIONARY
360
208
102
}
330
2A
100
AcDbVisualStyle
  2
Realistic
 70
     8
 71
     2
 72
     3
 73
     0
 90
        2
 40
0.6
 41
30.0
 62
     5
 63
     7
421
 16777215
 74
     0
 91
        0
 64
     7
 65
   257
 75
     1
175
     1
 42
1.0
 92
        8
 66
   257
 43
1.0
 76
     1
 77
     6
 78
     2
 67
     7
 79
     3
170
     0
171
     0
290
     0
174
     0
 93
       13
 44
0.0
173
     0
291
     0
 45
0.0
  0
VISUALSTYLE
  5
42
102
{ACAD_REACTORS
330
2A
102
}
102
{ACAD_XDICTIONARY
360
226
102
}
330
2A
100
AcDbVisualStyle
  2
Shaded
 70
    27
 71
     2
 72
     2
 73
     1
 90
        2
 40
0.6
 41
30.0
 62
     5
 63
     7
421
 16777215
 74
     0
 91
        4
 64
     7
 65
   257
 75
     1
175
     1
 42
1.0
 92
        8
 66
   257
 43
1.0
 76
     1
 77
     6
 78
     2
 67
     8
425
  7895160
 79
     3
170
     0
171
     0
290
     0
174
     0
 93
        5
 44
0.0
173
     0
291
     0
 45
0.0
  0
VISUALSTYLE
  5
41
102
{ACAD_REACTORS
330
2A
102
}
102
{ACAD_XDICTIONARY
360
224
102
}
330
2A
100
AcDbVisualStyle
  2
Shaded with edges
 70
    26
 71
     2
 72
     2
 73
     1
 90
        2
 40
0.6
 41
30.0
 62
     5
 63
     7
421
 16777215
 74
     1
 91
       10
 64
     7
 65
   257
 75
     2
175
     1
 42
1.0
 92
        8
 66
   257
 43
1.0
 76
     1
 77
     6
 78
     2
 67
     7
 79
     3
170
     0
171
     0
290
     0
174
     0
 93
        5
 44
0.0
173
     0
291
     0
 45
0.0
  0
VISUALSTYLE
  5
3E
102
{ACAD_REACTORS
330
2A
102
}
102
{ACAD_XDICTIONARY
360
21E
102
}
330
2A
100
AcDbVisualStyle
  2
Shades of Gray
 70
    23
 71
     2
 72
     2
 73
     3
 90
        0
 40
0.6
 41
30.0
 62
     5
 63
     7
421
 16777215
 74
     2
 91
        2
 64
     7
 65
     7
 75
     1
175
     1
 42
40.0
 92
        8
 66
     7
 43
1.0
 76
     1
 77
     6
 78
     2
 67
     7
 79
     3
170
     0
171
     0
290
     0
174
     0
 93
        1
 44
0.0
173
     0
291
     0
 45
0.0
  0
VISUALSTYLE
  5
3F
102
{ACAD_REACTORS
330
2A
102
}
102
{ACAD_XDICTIONARY
360
220
102
}
330
2A
100
AcDbVisualStyle
  2
Sketchy
 70
    24
 71
     1
 72
     2
 73
     2
 90
        0
 40
0.6
 41
30.0
 62
     5
 63
     7
421
 16777215
 74
     2
 91
        2
 64
     7
 65
     7
 75
     1
175
     1
 42
40.0
 92
       11
 66
     7
 43
1.0
 76
     1
 77
     6
 78
     2
 67
     7
 79
     6
170
     0
171
     0
290
     0
174
     0
 93
        1
 44
0.0
173
     0
291
     0
 45
0.0
  0
VISUALSTYLE
  5
37
102
{ACAD_REACTORS
330
2A
102
}
102
{ACAD_XDICTIONARY
360
210
102
}
330
2A
100
AcDbVisualStyle
  2
Thicken
 70
    13
 71
     2
 72
     2
 73
     0
 90
        0
 40
0.6
 41
30.0
 62
     5
 63
     7
421
 16777215
 74
     1
 91
        4
 64
     7
 65
   257
 75
     1
175
     1
 42
1.0
 92
       12
 66
     7
 43
1.0
 76
     1
 77
     6
 78
     2
 67
     7
 79
     5
170
     0
171
     0
290
     0
174
     0
 93
        1
 44
0.0
173
     0
291
     1
 45
0.0
  0
VISUALSTYLE
  5
30
102
{ACAD_REACTORS
330
2A
102
}
102
{ACAD_XDICTIONARY
360
202
102
}
330
2A
100
AcDbVisualStyle
  2
Wireframe
 70
     5
 71
     0
 72
     2
 73
     0
 90
        0
 40
0.6
 41
30.0
 62
     5
 63
     7
421
 16777215
 74
     1
 91
        4
 64
     7
 65
   257
 75
     1
175
     1
 42
1.0
 92
        0
 66
   257
 43
1.0
 76
     1
 77
     6
 78
     2
 67
     7
 79
     3
170
     0
171
     0
290
     0
174
     0
 93
        1
 44
0.0
173
     0
291
     0
 45
0.0
  0
VISUALSTYLE
  5
40
102
{ACAD_REACTORS
330
2A
102
}
102
{ACAD_XDICTIONARY
360
222
102
}
330
2A
100
AcDbVisualStyle
  2
X-Ray
 70
    25
 71
     2
 72
     2
 73
     1
 90
        1
 40
0.5
 41
30.0
 62
     5
 63
     7
421
 16777215
 74
     1
 91
        0
 64
     7
 65
   257
 75
     1
175
     1
 42
1.0
 92
        8
 66
     7
 43
1.0
 76
     1
 77
     6
 78
     2
 67
     7
 79
     3
170
     0
171
     0
290
     0
174
     0
 93
       13
 44
0.0
173
     0
291
     0
 45
0.0
  0
DICTIONARYVAR
  5
1F6
102
{ACAD_REACTORS
330
1F5
102
}
330
1F5
100
DictionaryVariables
280
     0
  1
1:1
  0
DICTIONARYVAR
  5
22F
102
{ACAD_REACTORS
330
1F5
102
}
330
1F5
100
DictionaryVariables
280
     0
  1
Standard
  0
DICTIONARYVAR
  5
22E
102
{ACAD_REACTORS
330
1F5
102
}
330
1F5
100
DictionaryVariables
280
     0
  1
Standard
  0
DICTIONARYVAR
  5
1F7
102
{ACAD_REACTORS
330
1F5
102
}
330
1F5
100
DictionaryVariables
280
     0
  1
2
  0
DICTIONARY
  5
22B
330
5C
100
AcDbDictionary
280
     1
281
     1
  3
ACAD_XREC_ROUNDTRIP
360
22C
  0
DICTIONARY
  5
228
330
5A
100
AcDbDictionary
280
     1
281
     1
  3
ACAD_ROUNDTRIP_2008_TABLESTYLE_CELLSTYLEMAP
360
229
  0
DICTIONARY
  5
200
330
2F
100
AcDbDictionary
280
     1
281
     1
  3
ACAD_XREC_ROUNDTRIP
360
201
  0
DICTIONARY
  5
206
330
32
100
AcDbDictionary
280
     1
281
     1
  3
ACAD_XREC_ROUNDTRIP
360
207
  0
DICTIONARY
  5
20E
330
36
100
AcDbDictionary
280
     1
281
     1
  3
ACAD_XREC_ROUNDTRIP
360
20F
  0
DICTIONARY
  5
216
330
3A
100
AcDbDictionary
280
     1
281
     1
  3
ACAD_XREC_ROUNDTRIP
360
217
  0
DICTIONARY
  5
20A
330
34
100
AcDbDictionary
280
     1
281
     1
  3
ACAD_XREC_ROUNDTRIP
360
20B
  0
DICTIONARY
  5
20C
330
35
100
AcDbDictionary
280
     1
281
     1
  3
ACAD_XREC_ROUNDTRIP
360
20D
  0
DICTIONARY
  5
21C
330
3D
100
AcDbDictionary
280
     1
281
     1
  3
ACAD_XREC_ROUNDTRIP
360
21D
  0
DICTIONARY
  5
214
330
39
100
AcDbDictionary
280
     1
281
     1
  3
ACAD_XREC_ROUNDTRIP
360
215
  0
DICTIONARY
  5
1F8
330
2B
100
AcDbDictionary
280
     1
281
     1
  3
ACAD_XREC_ROUNDTRIP
360
1F9
  0
DICTIONARY
  5
1FA
330
2C
100
AcDbDictionary
280
     1
281
     1
  3
ACAD_XREC_ROUNDTRIP
360
1FB
  0
DICTIONARY
  5
1FC
330
2D
100
AcDbDictionary
280
     1
281
     1
  3
ACAD_XREC_ROUNDTRIP
360
1FD
  0
DICTIONARY
  5
1FE
330
2E
100
AcDbDictionary
280
     1
281
     1
  3
ACAD_XREC_ROUNDTRIP
360
1FF
  0
DICTIONARY
  5
204
330
31
100
AcDbDictionary
280
     1
281
     1
  3
ACAD_XREC_ROUNDTRIP
360
205
  0
DICTIONARY
  5
218
330
3B
100
AcDbDictionary
280
     1
281
     1
  3
ACAD_XREC_ROUNDTRIP
360
219
  0
DICTIONARY
  5
212
330
38
100
AcDbDictionary
280
     1
281
     1
  3
ACAD_XREC_ROUNDTRIP
360
213
  0
DICTIONARY
  5
21A
330
3C
100
AcDbDictionary
280
     1
281
     1
  3
ACAD_XREC_ROUNDTRIP
360
21B
  0
DICTIONARY
  5
208
330
33
100
AcDbDictionary
280
     1
281
     1
  3
ACAD_XREC_ROUNDTRIP
360
209
  0
DICTIONARY
  5
226
330
42
100
AcDbDictionary
280
     1
281
     1
  3
ACAD_XREC_ROUNDTRIP
360
227
  0
DICTIONARY
  5
224
330
41
100
AcDbDictionary
280
     1
281
     1
  3
ACAD_XREC_ROUNDTRIP
360
225
  0
DICTIONARY
  5
21E
330
3E
100
AcDbDictionary
280
     1
281
     1
  3
ACAD_XREC_ROUNDTRIP
360
21F
  0
DICTIONARY
  5
220
330
3F
100
AcDbDictionary
280
     1
281
     1
  3
ACAD_XREC_ROUNDTRIP
360
221
  0
DICTIONARY
  5
210
330
37
100
AcDbDictionary
280
     1
281
     1
  3
ACAD_XREC_ROUNDTRIP
360
211
  0
DICTIONARY
  5
202
330
30
100
AcDbDictionary
280
     1
281
     1
  3
ACAD_XREC_ROUNDTRIP
360
203
  0
DICTIONARY
  5
222
330
40
100
AcDbDictionary
280
     1
281
     1
  3
ACAD_XREC_ROUNDTRIP
360
223
  0
XRECORD
  5
22C
102
{ACAD_REACTORS
330
22B
102
}
330
22B
100
AcDbXrecord
280
     1
102
ACAD_ROUNDTRIP_2010_MLEADER_STYLE
  0
CELLSTYLEMAP
  5
229
102
{ACAD_REACTORS
330
228
102
}
330
228
100
AcDbCellStyleMap
 90
        3
300
CELLSTYLE
  1
TABLEFORMAT_BEGIN
 90
        5
170
     1
 91
        0
 92
    32768
 62
   257
 93
        1
300
CONTENTFORMAT
  1
CONTENTFORMAT_BEGIN
 90
        0
 91
        0
 92
        4
 93
        0
300

 40
0.0
140
1.0
 94
        5
 62
     0
340
11
144
0.25
309
CONTENTFORMAT_END
171
     1
301
MARGIN
  1
CELLMARGIN_BEGIN
 40
0.06
 40
0.06
 40
0.06
 40
0.06
 40
0.06
 40
0.06
309
CELLMARGIN_END
 94
        6
 95
        1
302
GRIDFORMAT
  1
GRIDFORMAT_BEGIN
 90
        0
 91
        1
 62
     0
 92
       -2
340
14
 93
        0
 40
0.045
309
GRIDFORMAT_END
 95
        2
302
GRIDFORMAT
  1
GRIDFORMAT_BEGIN
 90
        0
 91
        1
 62
     0
 92
       -2
340
14
 93
        0
 40
0.045
309
GRIDFORMAT_END
 95
        4
302
GRIDFORMAT
  1
GRIDFORMAT_BEGIN
 90
        0
 91
        1
 62
     0
 92
       -2
340
14
 93
        0
 40
0.045
309
GRIDFORMAT_END
 95
        8
302
GRIDFORMAT
  1
GRIDFORMAT_BEGIN
 90
        0
 91
        1
 62
     0
 92
       -2
340
14
 93
        0
 40
0.045
309
GRIDFORMAT_END
 95
       16
302
GRIDFORMAT
  1
GRIDFORMAT_BEGIN
 90
        0
 91
        1
 62
     0
 92
       -2
340
14
 93
        0
 40
0.045
309
GRIDFORMAT_END
 95
       32
302
GRIDFORMAT
  1
GRIDFORMAT_BEGIN
 90
        0
 91
        1
 62
     0
 92
       -2
340
14
 93
        0
 40
0.045
309
GRIDFORMAT_END
309
TABLEFORMAT_END
  1
CELLSTYLE_BEGIN
 90
        1
 91
        1
300
_TITLE
309
CELLSTYLE_END
300
CELLSTYLE
  1
TABLEFORMAT_BEGIN
 90
        5
170
     1
 91
        0
 92
        0
 62
   257
 93
        1
300
CONTENTFORMAT
  1
CONTENTFORMAT_BEGIN
 90
        0
 91
        0
 92
        4
 93
        0
300

 40
0.0
140
1.0
 94
        5
 62
     0
340
11
144
0.18
309
CONTENTFORMAT_END
171
     1
301
MARGIN
  1
CELLMARGIN_BEGIN
 40
0.06
 40
0.06
 40
0.06
 40
0.06
 40
0.06
 40
0.06
309
CELLMARGIN_END
 94
        6
 95
        1
302
GRIDFORMAT
  1
GRIDFORMAT_BEGIN
 90
        0
 91
        1
 62
     0
 92
       -2
340
14
 93
        0
 40
0.045
309
GRIDFORMAT_END
 95
        2
302
GRIDFORMAT
  1
GRIDFORMAT_BEGIN
 90
        0
 91
        1
 62
     0
 92
       -2
340
14
 93
        0
 40
0.045
309
GRIDFORMAT_END
 95
        4
302
GRIDFORMAT
  1
GRIDFORMAT_BEGIN
 90
        0
 91
        1
 62
     0
 92
       -2
340
14
 93
        0
 40
0.045
309
GRIDFORMAT_END
 95
        8
302
GRIDFORMAT
  1
GRIDFORMAT_BEGIN
 90
        0
 91
        1
 62
     0
 92
       -2
340
14
 93
        0
 40
0.045
309
GRIDFORMAT_END
 95
       16
302
GRIDFORMAT
  1
GRIDFORMAT_BEGIN
 90
        0
 91
        1
 62
     0
 92
       -2
340
14
 93
        0
 40
0.045
309
GRIDFORMAT_END
 95
       32
302
GRIDFORMAT
  1
GRIDFORMAT_BEGIN
 90
        0
 91
        1
 62
     0
 92
       -2
340
14
 93
        0
 40
0.045
309
GRIDFORMAT_END
309
TABLEFORMAT_END
  1
CELLSTYLE_BEGIN
 90
        2
 91
        1
300
_HEADER
309
CELLSTYLE_END
300
CELLSTYLE
  1
TABLEFORMAT_BEGIN
 90
        5
170
     1
 91
        0
 92
        0
 62
   257
 93
        1
300
CONTENTFORMAT
  1
CONTENTFORMAT_BEGIN
 90
        0
 91
        0
 92
        4
 93
        0
300

 40
0.0
140
1.0
 94
        2
 62
     0
340
11
144
0.18
309
CONTENTFORMAT_END
171
     1
301
MARGIN
  1
CELLMARGIN_BEGIN
 40
0.06
 40
0.06
 40
0.06
 40
0.06
 40
0.06
 40
0.06
309
CELLMARGIN_END
 94
        6
 95
        1
302
GRIDFORMAT
  1
GRIDFORMAT_BEGIN
 90
        0
 91
        1
 62
     0
 92
       -2
340
14
 93
        0
 40
0.045
309
GRIDFORMAT_END
 95
        2
302
GRIDFORMAT
  1
GRIDFORMAT_BEGIN
 90
        0
 91
        1
 62
     0
 92
       -2
340
14
 93
        0
 40
0.045
309
GRIDFORMAT_END
 95
        4
302
GRIDFORMAT
  1
GRIDFORMAT_BEGIN
 90
        0
 91
        1
 62
     0
 92
       -2
340
14
 93
        0
 40
0.045
309
GRIDFORMAT_END
 95
        8
302
GRIDFORMAT
  1
GRIDFORMAT_BEGIN
 90
        0
 91
        1
 62
     0
 92
       -2
340
14
 93
        0
 40
0.045
309
GRIDFORMAT_END
 95
       16
302
GRIDFORMAT
  1
GRIDFORMAT_BEGIN
 90
        0
 91
        1
 62
     0
 92
       -2
340
14
 93
        0
 40
0.045
309
GRIDFORMAT_END
 95
       32
302
GRIDFORMAT
  1
GRIDFORMAT_BEGIN
 90
        0
 91
        1
 62
     0
 92
       -2
340
14
 93
        0
 40
0.045
309
GRIDFORMAT_END
309
TABLEFORMAT_END
  1
CELLSTYLE_BEGIN
 90
        3
 91
        2
300
_DATA
309
CELLSTYLE_END
  0
XRECORD
  5
201
102
{ACAD_REACTORS
330
200
102
}
330
200
100
AcDbXrecord
280
     1
102
RTVSPropertyOp0
 70
     1
102
RTVSPropertyOp1
 70
     1
102
RTVSPropertyOp2
 70
     1
102
RTVSPropertyOp3
 70
     1
102
RTVSPropertyOp4
 70
     1
102
RTVSPropertyOp5
 70
     1
102
RTVSPropertyOp6
 70
     1
102
RTVSPropertyOp7
 70
     1
102
RTVSPropertyOp8
 70
     1
102
RTVSPropertyOp9
 70
     1
102
RTVSPropertyOp10
 70
     1
102
RTVSPropertyOp11
 70
     1
102
RTVSPropertyOp12
 70
     1
102
RTVSPropertyOp13
 70
     1
102
RTVSPropertyOp14
 70
     1
102
RTVSPropertyOp15
 70
     1
102
RTVSPropertyOp16
 70
     1
102
RTVSPropertyOp17
 70
     1
102
RTVSPropertyOp18
 70
     1
102
RTVSPropertyOp19
 70
     1
102
RTVSPropertyOp20
 70
     1
102
RTVSPropertyOp21
 70
     1
102
RTVSPropertyOp22
 70
     1
102
RTVSPropertyOp23
 70
     1
102
RTVSPropertyOp24
 70
     1
102
RTVSPropertyOp25
 70
     1
102
RTVSPropertyOp26
 70
     1
102
RTVSPropertyOp27
 70
     1
102
RTVSPropertyOp28
 70
     1
102
RTVSPropertyOp29
 70
     1
102
RTVSPropertyOp30
 70
     1
102
RTVSPropertyOp31
 70
     1
102
RTVSPropertyOp32
 70
     1
102
RTVSPropertyOp33
 70
     1
102
RTVSPropertyOp34
 70
     1
102
RTVSPropertyOp35
 70
     1
102
RTVSPropertyOp36
 70
     1
102
RTVSPropertyOp37
 70
     1
102
RTVSPropertyOp38
 70
     1
102
RTVSPropertyOp39
 70
     1
102
RTVSPropertyOp40
 70
     1
102
RTVSPropertyOp41
 70
     1
102
RTVSPropertyOp42
 70
     1
102
RTVSPropertyOp43
 70
     1
102
RTVSPropertyOp44
 70
     1
102
RTVSPropertyOp45
 70
     1
102
RTVSPropertyOp46
 70
     1
102
RTVSPropertyOp47
 70
     1
102
RTVSPropertyOp48
 70
     1
102
RTVSPropertyOp49
 70
     1
102
RTVSPropertyOp50
 70
     1
102
RTVSPropertyOp51
 70
     0
102
RTVSPropertyOp52
 70
     0
102
RTVSPropertyOp53
 70
     1
102
RTVSPropertyOp54
 70
     1
102
RTVSPropertyOp55
 70
     1
102
RTVSPropertyOp56
 70
     1
102
RTVSPropertyOp57
 70
     1
102
RTVSPost2010Prop28
280
     1
102
RTVSPost2010PropOp28
 70
     1
102
RTVSPost2010Prop29
280
     1
102
RTVSPost2010PropOp29
 70
     1
102
RTVSPost2010Prop30
280
     0
102
RTVSPost2010PropOp30
 70
     1
102
RTVSPost2010Prop31
280
     0
102
RTVSPost2010PropOp31
 70
     1
102
RTVSPost2010Prop32
280
     0
102
RTVSPost2010PropOp32
 70
     1
102
RTVSPost2010Prop33
280
     0
102
RTVSPost2010PropOp33
 70
     1
102
RTVSPost2010Prop34
280
     0
102
RTVSPost2010PropOp34
 70
     1
102
RTVSPost2010Prop35
280
     0
102
RTVSPost2010PropOp35
 70
     1
102
RTVSPost2010Prop36
280
     0
102
RTVSPost2010PropOp36
 70
     1
102
RTVSPost2010Prop37
 90
       50
102
RTVSPost2010PropOp37
 70
     1
102
RTVSPost2010Prop38
140
0.0
102
RTVSPost2010PropOp38
 70
     1
102
RTVSPost2010Prop39
140
1.0
102
RTVSPost2010PropOp39
 70
     1
102
RTVSPost2010Prop40
 90
        0
102
RTVSPost2010PropOp40
 70
     1
102
RTVSPost2010Prop41ColorIndex
 90
       18
102
RTVSPost2010Prop41ColorRGB
 90
        0
102
RTVSPost2010PropOp41
 70
     1
102
RTVSPost2010Prop42
 90
       50
102
RTVSPost2010PropOp42
 70
     1
102
RTVSPost2010Prop43
 90
        3
102
RTVSPost2010PropOp43
 70
     1
102
RTVSPost2010Prop44ColorIndex
 90
        5
102
RTVSPost2010Prop44ColorRGB
 90
      255
102
RTVSPost2010PropOp44
 70
     1
102
RTVSPost2010Prop45
280
     0
102
RTVSPost2010PropOp45
 70
     1
102
RTVSPost2010Prop46
 90
       50
102
RTVSPost2010PropOp46
 70
     1
102
RTVSPost2010Prop47
 90
       50
102
RTVSPost2010PropOp47
 70
     1
102
RTVSPost2010Prop48
 90
       50
102
RTVSPost2010PropOp48
 70
     1
102
RTVSPost2010Prop49
280
     0
102
RTVSPost2010PropOp49
 70
     1
102
RTVSPost2010Prop50
 90
       50
102
RTVSPost2010PropOp50
 70
     1
102
RTVSPost2010Prop51ColorIndex
 90
      256
102
RTVSPost2010Prop51ColorRGB
 90
-16777216
102
RTVSPost2010PropOp51
 70
     0
102
RTVSPost2010Prop52
140
1.0
102
RTVSPost2010PropOp52
 70
     0
102
RTVSPost2010Prop53
 90
        2
102
RTVSPost2010PropOp53
 70
     1
102
RTVSPost2010Prop54
  1
strokes_ogs.tif
102
RTVSPost2010PropOp54
 70
     1
102
RTVSPost2010Prop55
280
     0
102
RTVSPost2010PropOp55
 70
     1
102
RTVSPost2010Prop56
140
1.0
102
RTVSPost2010PropOp56
 70
     1
102
RTVSPost2010Prop57
140
1.0
102
RTVSPost2010PropOp57
 70
     1
  0
XRECORD
  5
207
102
{ACAD_REACTORS
330
206
102
}
330
206
100
AcDbXrecord
280
     1
102
RTVSPropertyOp0
 70
     1
102
RTVSPropertyOp1
 70
     1
102
RTVSPropertyOp2
 70
     1
102
RTVSPropertyOp3
 70
     1
102
RTVSPropertyOp4
 70
     1
102
RTVSPropertyOp5
 70
     1
102
RTVSPropertyOp6
 70
     1
102
RTVSPropertyOp7
 70
     1
102
RTVSPropertyOp8
 70
     1
102
RTVSPropertyOp9
 70
     1
102
RTVSPropertyOp10
 70
     1
102
RTVSPropertyOp11
 70
     1
102
RTVSPropertyOp12
 70
     1
102
RTVSPropertyOp13
 70
     1
102
RTVSPropertyOp14
 70
     1
102
RTVSPropertyOp15
 70
     1
102
RTVSPropertyOp16
 70
     1
102
RTVSPropertyOp17
 70
     1
102
RTVSPropertyOp18
 70
     1
102
RTVSPropertyOp19
 70
     1
102
RTVSPropertyOp20
 70
     1
102
RTVSPropertyOp21
 70
     1
102
RTVSPropertyOp22
 70
     1
102
RTVSPropertyOp23
 70
     1
102
RTVSPropertyOp24
 70
     1
102
RTVSPropertyOp25
 70
     1
102
RTVSPropertyOp26
 70
     1
102
RTVSPropertyOp27
 70
     1
102
RTVSPropertyOp28
 70
     1
102
RTVSPropertyOp29
 70
     1
102
RTVSPropertyOp30
 70
     1
102
RTVSPropertyOp31
 70
     1
102
RTVSPropertyOp32
 70
     1
102
RTVSPropertyOp33
 70
     1
102
RTVSPropertyOp34
 70
     1
102
RTVSPropertyOp35
 70
     1
102
RTVSPropertyOp36
 70
     1
102
RTVSPropertyOp37
 70
     1
102
RTVSPropertyOp38
 70
     1
102
RTVSPropertyOp39
 70
     1
102
RTVSPropertyOp40
 70
     1
102
RTVSPropertyOp41
 70
     1
102
RTVSPropertyOp42
 70
     1
102
RTVSPropertyOp43
 70
     1
102
RTVSPropertyOp44
 70
     1
102
RTVSPropertyOp45
 70
     1
102
RTVSPropertyOp46
 70
     1
102
RTVSPropertyOp47
 70
     1
102
RTVSPropertyOp48
 70
     1
102
RTVSPropertyOp49
 70
     1
102
RTVSPropertyOp50
 70
     1
102
RTVSPropertyOp51
 70
     0
102
RTVSPropertyOp52
 70
     0
102
RTVSPropertyOp53
 70
     1
102
RTVSPropertyOp54
 70
     1
102
RTVSPropertyOp55
 70
     1
102
RTVSPropertyOp56
 70
     1
102
RTVSPropertyOp57
 70
     1
102
RTVSPost2010Prop28
280
     0
102
RTVSPost2010PropOp28
 70
     1
102
RTVSPost2010Prop29
280
     1
102
RTVSPost2010PropOp29
 70
     1
102
RTVSPost2010Prop30
280
     1
102
RTVSPost2010PropOp30
 70
     1
102
RTVSPost2010Prop31
280
     0
102
RTVSPost2010PropOp31
 70
     1
102
RTVSPost2010Prop32
280
     0
102
RTVSPost2010PropOp32
 70
     1
102
RTVSPost2010Prop33
280
     0
102
RTVSPost2010PropOp33
 70
     1
102
RTVSPost2010Prop34
280
     0
102
RTVSPost2010PropOp34
 70
     1
102
RTVSPost2010Prop35
280
     0
102
RTVSPost2010PropOp35
 70
     1
102
RTVSPost2010Prop36
280
     0
102
RTVSPost2010PropOp36
 70
     1
102
RTVSPost2010Prop37
 90
       50
102
RTVSPost2010PropOp37
 70
     1
102
RTVSPost2010Prop38
140
0.0
102
RTVSPost2010PropOp38
 70
     1
102
RTVSPost2010Prop39
140
1.0
102
RTVSPost2010PropOp39
 70
     1
102
RTVSPost2010Prop40
 90
        0
102
RTVSPost2010PropOp40
 70
     1
102
RTVSPost2010Prop41ColorIndex
 90
       18
102
RTVSPost2010Prop41ColorRGB
 90
        0
102
RTVSPost2010PropOp41
 70
     1
102
RTVSPost2010Prop42
 90
       50
102
RTVSPost2010PropOp42
 70
     1
102
RTVSPost2010Prop43
 90
        3
102
RTVSPost2010PropOp43
 70
     1
102
RTVSPost2010Prop44ColorIndex
 90
        5
102
RTVSPost2010Prop44ColorRGB
 90
      255
102
RTVSPost2010PropOp44
 70
     1
102
RTVSPost2010Prop45
280
     0
102
RTVSPost2010PropOp45
 70
     1
102
RTVSPost2010Prop46
 90
       50
102
RTVSPost2010PropOp46
 70
     1
102
RTVSPost2010Prop47
 90
       50
102
RTVSPost2010PropOp47
 70
     1
102
RTVSPost2010Prop48
 90
       50
102
RTVSPost2010PropOp48
 70
     1
102
RTVSPost2010Prop49
280
     0
102
RTVSPost2010PropOp49
 70
     1
102
RTVSPost2010Prop50
 90
       50
102
RTVSPost2010PropOp50
 70
     1
102
RTVSPost2010Prop51ColorIndex
 90
      256
102
RTVSPost2010Prop51ColorRGB
 90
-16777216
102
RTVSPost2010PropOp51
 70
     0
102
RTVSPost2010Prop52
140
1.0
102
RTVSPost2010PropOp52
 70
     0
102
RTVSPost2010Prop53
 90
        2
102
RTVSPost2010PropOp53
 70
     1
102
RTVSPost2010Prop54
  1
strokes_ogs.tif
102
RTVSPost2010PropOp54
 70
     1
102
RTVSPost2010Prop55
280
     0
102
RTVSPost2010PropOp55
 70
     1
102
RTVSPost2010Prop56
140
1.0
102
RTVSPost2010PropOp56
 70
     1
102
RTVSPost2010Prop57
140
1.0
102
RTVSPost2010PropOp57
 70
     1
  0
XRECORD
  5
20F
102
{ACAD_REACTORS
330
20E
102
}
330
20E
100
AcDbXrecord
280
     1
102
RTVSPropertyOp0
 70
     1
102
RTVSPropertyOp1
 70
     1
102
RTVSPropertyOp2
 70
     1
102
RTVSPropertyOp3
 70
     1
102
RTVSPropertyOp4
 70
     1
102
RTVSPropertyOp5
 70
     1
102
RTVSPropertyOp6
 70
     1
102
RTVSPropertyOp7
 70
     1
102
RTVSPropertyOp8
 70
     1
102
RTVSPropertyOp9
 70
     1
102
RTVSPropertyOp10
 70
     1
102
RTVSPropertyOp11
 70
     1
102
RTVSPropertyOp12
 70
     1
102
RTVSPropertyOp13
 70
     1
102
RTVSPropertyOp14
 70
     1
102
RTVSPropertyOp15
 70
     1
102
RTVSPropertyOp16
 70
     1
102
RTVSPropertyOp17
 70
     1
102
RTVSPropertyOp18
 70
     1
102
RTVSPropertyOp19
 70
     1
102
RTVSPropertyOp20
 70
     1
102
RTVSPropertyOp21
 70
     1
102
RTVSPropertyOp22
 70
     1
102
RTVSPropertyOp23
 70
     1
102
RTVSPropertyOp24
 70
     1
102
RTVSPropertyOp25
 70
     1
102
RTVSPropertyOp26
 70
     1
102
RTVSPropertyOp27
 70
     1
102
RTVSPropertyOp28
 70
     1
102
RTVSPropertyOp29
 70
     1
102
RTVSPropertyOp30
 70
     1
102
RTVSPropertyOp31
 70
     1
102
RTVSPropertyOp32
 70
     1
102
RTVSPropertyOp33
 70
     1
102
RTVSPropertyOp34
 70
     1
102
RTVSPropertyOp35
 70
     1
102
RTVSPropertyOp36
 70
     1
102
RTVSPropertyOp37
 70
     1
102
RTVSPropertyOp38
 70
     1
102
RTVSPropertyOp39
 70
     1
102
RTVSPropertyOp40
 70
     1
102
RTVSPropertyOp41
 70
     1
102
RTVSPropertyOp42
 70
     1
102
RTVSPropertyOp43
 70
     1
102
RTVSPropertyOp44
 70
     1
102
RTVSPropertyOp45
 70
     1
102
RTVSPropertyOp46
 70
     1
102
RTVSPropertyOp47
 70
     1
102
RTVSPropertyOp48
 70
     1
102
RTVSPropertyOp49
 70
     1
102
RTVSPropertyOp50
 70
     1
102
RTVSPropertyOp51
 70
     0
102
RTVSPropertyOp52
 70
     0
102
RTVSPropertyOp53
 70
     1
102
RTVSPropertyOp54
 70
     1
102
RTVSPropertyOp55
 70
     1
102
RTVSPropertyOp56
 70
     1
102
RTVSPropertyOp57
 70
     1
102
RTVSPost2010Prop28
280
     0
102
RTVSPost2010PropOp28
 70
     1
102
RTVSPost2010Prop29
280
     1
102
RTVSPost2010PropOp29
 70
     1
102
RTVSPost2010Prop30
280
     1
102
RTVSPost2010PropOp30
 70
     1
102
RTVSPost2010Prop31
280
     0
102
RTVSPost2010PropOp31
 70
     1
102
RTVSPost2010Prop32
280
     0
102
RTVSPost2010PropOp32
 70
     1
102
RTVSPost2010Prop33
280
     0
102
RTVSPost2010PropOp33
 70
     1
102
RTVSPost2010Prop34
280
     0
102
RTVSPost2010PropOp34
 70
     1
102
RTVSPost2010Prop35
280
     0
102
RTVSPost2010PropOp35
 70
     1
102
RTVSPost2010Prop36
280
     0
102
RTVSPost2010PropOp36
 70
     1
102
RTVSPost2010Prop37
 90
       50
102
RTVSPost2010PropOp37
 70
     1
102
RTVSPost2010Prop38
140
0.0
102
RTVSPost2010PropOp38
 70
     1
102
RTVSPost2010Prop39
140
1.0
102
RTVSPost2010PropOp39
 70
     1
102
RTVSPost2010Prop40
 90
        0
102
RTVSPost2010PropOp40
 70
     1
102
RTVSPost2010Prop41ColorIndex
 90
       18
102
RTVSPost2010Prop41ColorRGB
 90
        0
102
RTVSPost2010PropOp41
 70
     1
102
RTVSPost2010Prop42
 90
       50
102
RTVSPost2010PropOp42
 70
     1
102
RTVSPost2010Prop43
 90
        3
102
RTVSPost2010PropOp43
 70
     1
102
RTVSPost2010Prop44ColorIndex
 90
        5
102
RTVSPost2010Prop44ColorRGB
 90
      255
102
RTVSPost2010PropOp44
 70
     1
102
RTVSPost2010Prop45
280
     0
102
RTVSPost2010PropOp45
 70
     1
102
RTVSPost2010Prop46
 90
       50
102
RTVSPost2010PropOp46
 70
     1
102
RTVSPost2010Prop47
 90
       50
102
RTVSPost2010PropOp47
 70
     1
102
RTVSPost2010Prop48
 90
       50
102
RTVSPost2010PropOp48
 70
     1
102
RTVSPost2010Prop49
280
     0
102
RTVSPost2010PropOp49
 70
     1
102
RTVSPost2010Prop50
 90
       50
102
RTVSPost2010PropOp50
 70
     1
102
RTVSPost2010Prop51ColorIndex
 90
      256
102
RTVSPost2010Prop51ColorRGB
 90
-16777216
102
RTVSPost2010PropOp51
 70
     0
102
RTVSPost2010Prop52
140
1.0
102
RTVSPost2010PropOp52
 70
     0
102
RTVSPost2010Prop53
 90
        2
102
RTVSPost2010PropOp53
 70
     1
102
RTVSPost2010Prop54
  1
strokes_ogs.tif
102
RTVSPost2010PropOp54
 70
     1
102
RTVSPost2010Prop55
280
     0
102
RTVSPost2010PropOp55
 70
     1
102
RTVSPost2010Prop56
140
1.0
102
RTVSPost2010PropOp56
 70
     1
102
RTVSPost2010Prop57
140
1.0
102
RTVSPost2010PropOp57
 70
     1
  0
XRECORD
  5
217
102
{ACAD_REACTORS
330
216
102
}
330
216
100
AcDbXrecord
280
     1
102
RTVSPropertyOp0
 70
     1
102
RTVSPropertyOp1
 70
     1
102
RTVSPropertyOp2
 70
     1
102
RTVSPropertyOp3
 70
     1
102
RTVSPropertyOp4
 70
     1
102
RTVSPropertyOp5
 70
     1
102
RTVSPropertyOp6
 70
     1
102
RTVSPropertyOp7
 70
     1
102
RTVSPropertyOp8
 70
     1
102
RTVSPropertyOp9
 70
     1
102
RTVSPropertyOp10
 70
     1
102
RTVSPropertyOp11
 70
     1
102
RTVSPropertyOp12
 70
     1
102
RTVSPropertyOp13
 70
     1
102
RTVSPropertyOp14
 70
     1
102
RTVSPropertyOp15
 70
     1
102
RTVSPropertyOp16
 70
     1
102
RTVSPropertyOp17
 70
     1
102
RTVSPropertyOp18
 70
     1
102
RTVSPropertyOp19
 70
     1
102
RTVSPropertyOp20
 70
     1
102
RTVSPropertyOp21
 70
     1
102
RTVSPropertyOp22
 70
     1
102
RTVSPropertyOp23
 70
     1
102
RTVSPropertyOp24
 70
     1
102
RTVSPropertyOp25
 70
     1
102
RTVSPropertyOp26
 70
     1
102
RTVSPropertyOp27
 70
     1
102
RTVSPropertyOp28
 70
     1
102
RTVSPropertyOp29
 70
     1
102
RTVSPropertyOp30
 70
     1
102
RTVSPropertyOp31
 70
     1
102
RTVSPropertyOp32
 70
     1
102
RTVSPropertyOp33
 70
     1
102
RTVSPropertyOp34
 70
     1
102
RTVSPropertyOp35
 70
     1
102
RTVSPropertyOp36
 70
     1
102
RTVSPropertyOp37
 70
     1
102
RTVSPropertyOp38
 70
     1
102
RTVSPropertyOp39
 70
     1
102
RTVSPropertyOp40
 70
     1
102
RTVSPropertyOp41
 70
     1
102
RTVSPropertyOp42
 70
     1
102
RTVSPropertyOp43
 70
     1
102
RTVSPropertyOp44
 70
     1
102
RTVSPropertyOp45
 70
     1
102
RTVSPropertyOp46
 70
     1
102
RTVSPropertyOp47
 70
     1
102
RTVSPropertyOp48
 70
     1
102
RTVSPropertyOp49
 70
     1
102
RTVSPropertyOp50
 70
     1
102
RTVSPropertyOp51
 70
     0
102
RTVSPropertyOp52
 70
     0
102
RTVSPropertyOp53
 70
     1
102
RTVSPropertyOp54
 70
     1
102
RTVSPropertyOp55
 70
     1
102
RTVSPropertyOp56
 70
     1
102
RTVSPropertyOp57
 70
     1
102
RTVSPost2010Prop28
280
     0
102
RTVSPost2010PropOp28
 70
     1
102
RTVSPost2010Prop29
280
     1
102
RTVSPost2010PropOp29
 70
     1
102
RTVSPost2010Prop30
280
     1
102
RTVSPost2010PropOp30
 70
     1
102
RTVSPost2010Prop31
280
     0
102
RTVSPost2010PropOp31
 70
     1
102
RTVSPost2010Prop32
280
     0
102
RTVSPost2010PropOp32
 70
     1
102
RTVSPost2010Prop33
280
     0
102
RTVSPost2010PropOp33
 70
     1
102
RTVSPost2010Prop34
280
     0
102
RTVSPost2010PropOp34
 70
     1
102
RTVSPost2010Prop35
280
     0
102
RTVSPost2010PropOp35
 70
     1
102
RTVSPost2010Prop36
280
     0
102
RTVSPost2010PropOp36
 70
     1
102
RTVSPost2010Prop37
 90
       50
102
RTVSPost2010PropOp37
 70
     1
102
RTVSPost2010Prop38
140
0.0
102
RTVSPost2010PropOp38
 70
     1
102
RTVSPost2010Prop39
140
1.0
102
RTVSPost2010PropOp39
 70
     1
102
RTVSPost2010Prop40
 90
        0
102
RTVSPost2010PropOp40
 70
     1
102
RTVSPost2010Prop41ColorIndex
 90
       18
102
RTVSPost2010Prop41ColorRGB
 90
        0
102
RTVSPost2010PropOp41
 70
     1
102
RTVSPost2010Prop42
 90
       50
102
RTVSPost2010PropOp42
 70
     1
102
RTVSPost2010Prop43
 90
        3
102
RTVSPost2010PropOp43
 70
     1
102
RTVSPost2010Prop44ColorIndex
 90
        5
102
RTVSPost2010Prop44ColorRGB
 90
      255
102
RTVSPost2010PropOp44
 70
     1
102
RTVSPost2010Prop45
280
     0
102
RTVSPost2010PropOp45
 70
     1
102
RTVSPost2010Prop46
 90
       50
102
RTVSPost2010PropOp46
 70
     1
102
RTVSPost2010Prop47
 90
       50
102
RTVSPost2010PropOp47
 70
     1
102
RTVSPost2010Prop48
 90
       50
102
RTVSPost2010PropOp48
 70
     1
102
RTVSPost2010Prop49
280
     0
102
RTVSPost2010PropOp49
 70
     1
102
RTVSPost2010Prop50
 90
       50
102
RTVSPost2010PropOp50
 70
     1
102
RTVSPost2010Prop51ColorIndex
 90
      256
102
RTVSPost2010Prop51ColorRGB
 90
-16777216
102
RTVSPost2010PropOp51
 70
     0
102
RTVSPost2010Prop52
140
1.0
102
RTVSPost2010PropOp52
 70
     0
102
RTVSPost2010Prop53
 90
        2
102
RTVSPost2010PropOp53
 70
     1
102
RTVSPost2010Prop54
  1
strokes_ogs.tif
102
RTVSPost2010PropOp54
 70
     1
102
RTVSPost2010Prop55
280
     0
102
RTVSPost2010PropOp55
 70
     1
102
RTVSPost2010Prop56
140
1.0
102
RTVSPost2010PropOp56
 70
     1
102
RTVSPost2010Prop57
140
1.0
102
RTVSPost2010PropOp57
 70
     1
  0
XRECORD
  5
20B
102
{ACAD_REACTORS
330
20A
102
}
330
20A
100
AcDbXrecord
280
     1
102
RTVSPropertyOp0
 70
     1
102
RTVSPropertyOp1
 70
     1
102
RTVSPropertyOp2
 70
     1
102
RTVSPropertyOp3
 70
     1
102
RTVSPropertyOp4
 70
     1
102
RTVSPropertyOp5
 70
     1
102
RTVSPropertyOp6
 70
     1
102
RTVSPropertyOp7
 70
     1
102
RTVSPropertyOp8
 70
     1
102
RTVSPropertyOp9
 70
     1
102
RTVSPropertyOp10
 70
     1
102
RTVSPropertyOp11
 70
     1
102
RTVSPropertyOp12
 70
     1
102
RTVSPropertyOp13
 70
     1
102
RTVSPropertyOp14
 70
     1
102
RTVSPropertyOp15
 70
     1
102
RTVSPropertyOp16
 70
     1
102
RTVSPropertyOp17
 70
     1
102
RTVSPropertyOp18
 70
     1
102
RTVSPropertyOp19
 70
     1
102
RTVSPropertyOp20
 70
     1
102
RTVSPropertyOp21
 70
     1
102
RTVSPropertyOp22
 70
     1
102
RTVSPropertyOp23
 70
     1
102
RTVSPropertyOp24
 70
     1
102
RTVSPropertyOp25
 70
     1
102
RTVSPropertyOp26
 70
     1
102
RTVSPropertyOp27
 70
     1
102
RTVSPropertyOp28
 70
     1
102
RTVSPropertyOp29
 70
     1
102
RTVSPropertyOp30
 70
     1
102
RTVSPropertyOp31
 70
     1
102
RTVSPropertyOp32
 70
     1
102
RTVSPropertyOp33
 70
     1
102
RTVSPropertyOp34
 70
     1
102
RTVSPropertyOp35
 70
     1
102
RTVSPropertyOp36
 70
     1
102
RTVSPropertyOp37
 70
     1
102
RTVSPropertyOp38
 70
     1
102
RTVSPropertyOp39
 70
     1
102
RTVSPropertyOp40
 70
     1
102
RTVSPropertyOp41
 70
     1
102
RTVSPropertyOp42
 70
     1
102
RTVSPropertyOp43
 70
     1
102
RTVSPropertyOp44
 70
     1
102
RTVSPropertyOp45
 70
     1
102
RTVSPropertyOp46
 70
     1
102
RTVSPropertyOp47
 70
     1
102
RTVSPropertyOp48
 70
     1
102
RTVSPropertyOp49
 70
     1
102
RTVSPropertyOp50
 70
     1
102
RTVSPropertyOp51
 70
     0
102
RTVSPropertyOp52
 70
     0
102
RTVSPropertyOp53
 70
     1
102
RTVSPropertyOp54
 70
     1
102
RTVSPropertyOp55
 70
     1
102
RTVSPropertyOp56
 70
     1
102
RTVSPropertyOp57
 70
     1
102
RTVSPost2010Prop28
280
     0
102
RTVSPost2010PropOp28
 70
     1
102
RTVSPost2010Prop29
280
     1
102
RTVSPost2010PropOp29
 70
     1
102
RTVSPost2010Prop30
280
     1
102
RTVSPost2010PropOp30
 70
     1
102
RTVSPost2010Prop31
280
     0
102
RTVSPost2010PropOp31
 70
     1
102
RTVSPost2010Prop32
280
     0
102
RTVSPost2010PropOp32
 70
     1
102
RTVSPost2010Prop33
280
     0
102
RTVSPost2010PropOp33
 70
     1
102
RTVSPost2010Prop34
280
     0
102
RTVSPost2010PropOp34
 70
     1
102
RTVSPost2010Prop35
280
     0
102
RTVSPost2010PropOp35
 70
     1
102
RTVSPost2010Prop36
280
     0
102
RTVSPost2010PropOp36
 70
     1
102
RTVSPost2010Prop37
 90
       50
102
RTVSPost2010PropOp37
 70
     1
102
RTVSPost2010Prop38
140
0.0
102
RTVSPost2010PropOp38
 70
     1
102
RTVSPost2010Prop39
140
1.0
102
RTVSPost2010PropOp39
 70
     1
102
RTVSPost2010Prop40
 90
        0
102
RTVSPost2010PropOp40
 70
     1
102
RTVSPost2010Prop41ColorIndex
 90
       18
102
RTVSPost2010Prop41ColorRGB
 90
        0
102
RTVSPost2010PropOp41
 70
     1
102
RTVSPost2010Prop42
 90
       50
102
RTVSPost2010PropOp42
 70
     1
102
RTVSPost2010Prop43
 90
        3
102
RTVSPost2010PropOp43
 70
     1
102
RTVSPost2010Prop44ColorIndex
 90
        5
102
RTVSPost2010Prop44ColorRGB
 90
      255
102
RTVSPost2010PropOp44
 70
     1
102
RTVSPost2010Prop45
280
     0
102
RTVSPost2010PropOp45
 70
     1
102
RTVSPost2010Prop46
 90
       50
102
RTVSPost2010PropOp46
 70
     1
102
RTVSPost2010Prop47
 90
       50
102
RTVSPost2010PropOp47
 70
     1
102
RTVSPost2010Prop48
 90
       50
102
RTVSPost2010PropOp48
 70
     1
102
RTVSPost2010Prop49
280
     0
102
RTVSPost2010PropOp49
 70
     1
102
RTVSPost2010Prop50
 90
       50
102
RTVSPost2010PropOp50
 70
     1
102
RTVSPost2010Prop51ColorIndex
 90
      256
102
RTVSPost2010Prop51ColorRGB
 90
-16777216
102
RTVSPost2010PropOp51
 70
     0
102
RTVSPost2010Prop52
140
1.0
102
RTVSPost2010PropOp52
 70
     0
102
RTVSPost2010Prop53
 90
        2
102
RTVSPost2010PropOp53
 70
     1
102
RTVSPost2010Prop54
  1
strokes_ogs.tif
102
RTVSPost2010PropOp54
 70
     1
102
RTVSPost2010Prop55
280
     0
102
RTVSPost2010PropOp55
 70
     1
102
RTVSPost2010Prop56
140
1.0
102
RTVSPost2010PropOp56
 70
     1
102
RTVSPost2010Prop57
140
1.0
102
RTVSPost2010PropOp57
 70
     1
  0
XRECORD
  5
20D
102
{ACAD_REACTORS
330
20C
102
}
330
20C
100
AcDbXrecord
280
     1
102
RTVSPropertyOp0
 70
     1
102
RTVSPropertyOp1
 70
     1
102
RTVSPropertyOp2
 70
     1
102
RTVSPropertyOp3
 70
     1
102
RTVSPropertyOp4
 70
     1
102
RTVSPropertyOp5
 70
     1
102
RTVSPropertyOp6
 70
     1
102
RTVSPropertyOp7
 70
     1
102
RTVSPropertyOp8
 70
     1
102
RTVSPropertyOp9
 70
     1
102
RTVSPropertyOp10
 70
     1
102
RTVSPropertyOp11
 70
     1
102
RTVSPropertyOp12
 70
     1
102
RTVSPropertyOp13
 70
     1
102
RTVSPropertyOp14
 70
     1
102
RTVSPropertyOp15
 70
     1
102
RTVSPropertyOp16
 70
     1
102
RTVSPropertyOp17
 70
     1
102
RTVSPropertyOp18
 70
     1
102
RTVSPropertyOp19
 70
     1
102
RTVSPropertyOp20
 70
     1
102
RTVSPropertyOp21
 70
     1
102
RTVSPropertyOp22
 70
     1
102
RTVSPropertyOp23
 70
     1
102
RTVSPropertyOp24
 70
     1
102
RTVSPropertyOp25
 70
     1
102
RTVSPropertyOp26
 70
     1
102
RTVSPropertyOp27
 70
     1
102
RTVSPropertyOp28
 70
     1
102
RTVSPropertyOp29
 70
     1
102
RTVSPropertyOp30
 70
     1
102
RTVSPropertyOp31
 70
     1
102
RTVSPropertyOp32
 70
     1
102
RTVSPropertyOp33
 70
     1
102
RTVSPropertyOp34
 70
     1
102
RTVSPropertyOp35
 70
     1
102
RTVSPropertyOp36
 70
     1
102
RTVSPropertyOp37
 70
     1
102
RTVSPropertyOp38
 70
     1
102
RTVSPropertyOp39
 70
     1
102
RTVSPropertyOp40
 70
     1
102
RTVSPropertyOp41
 70
     1
102
RTVSPropertyOp42
 70
     1
102
RTVSPropertyOp43
 70
     1
102
RTVSPropertyOp44
 70
     1
102
RTVSPropertyOp45
 70
     1
102
RTVSPropertyOp46
 70
     1
102
RTVSPropertyOp47
 70
     1
102
RTVSPropertyOp48
 70
     1
102
RTVSPropertyOp49
 70
     1
102
RTVSPropertyOp50
 70
     1
102
RTVSPropertyOp51
 70
     0
102
RTVSPropertyOp52
 70
     0
102
RTVSPropertyOp53
 70
     1
102
RTVSPropertyOp54
 70
     1
102
RTVSPropertyOp55
 70
     1
102
RTVSPropertyOp56
 70
     1
102
RTVSPropertyOp57
 70
     1
102
RTVSPost2010Prop28
280
     0
102
RTVSPost2010PropOp28
 70
     1
102
RTVSPost2010Prop29
280
     1
102
RTVSPost2010PropOp29
 70
     1
102
RTVSPost2010Prop30
280
     1
102
RTVSPost2010PropOp30
 70
     1
102
RTVSPost2010Prop31
280
     0
102
RTVSPost2010PropOp31
 70
     1
102
RTVSPost2010Prop32
280
     0
102
RTVSPost2010PropOp32
 70
     1
102
RTVSPost2010Prop33
280
     0
102
RTVSPost2010PropOp33
 70
     1
102
RTVSPost2010Prop34
280
     0
102
RTVSPost2010PropOp34
 70
     1
102
RTVSPost2010Prop35
280
     0
102
RTVSPost2010PropOp35
 70
     1
102
RTVSPost2010Prop36
280
     0
102
RTVSPost2010PropOp36
 70
     1
102
RTVSPost2010Prop37
 90
       50
102
RTVSPost2010PropOp37
 70
     1
102
RTVSPost2010Prop38
140
0.0
102
RTVSPost2010PropOp38
 70
     1
102
RTVSPost2010Prop39
140
1.0
102
RTVSPost2010PropOp39
 70
     1
102
RTVSPost2010Prop40
 90
        0
102
RTVSPost2010PropOp40
 70
     1
102
RTVSPost2010Prop41ColorIndex
 90
       18
102
RTVSPost2010Prop41ColorRGB
 90
        0
102
RTVSPost2010PropOp41
 70
     1
102
RTVSPost2010Prop42
 90
       50
102
RTVSPost2010PropOp42
 70
     1
102
RTVSPost2010Prop43
 90
        3
102
RTVSPost2010PropOp43
 70
     1
102
RTVSPost2010Prop44ColorIndex
 90
        5
102
RTVSPost2010Prop44ColorRGB
 90
      255
102
RTVSPost2010PropOp44
 70
     1
102
RTVSPost2010Prop45
280
     0
102
RTVSPost2010PropOp45
 70
     1
102
RTVSPost2010Prop46
 90
       50
102
RTVSPost2010PropOp46
 70
     1
102
RTVSPost2010Prop47
 90
       50
102
RTVSPost2010PropOp47
 70
     1
102
RTVSPost2010Prop48
 90
       50
102
RTVSPost2010PropOp48
 70
     1
102
RTVSPost2010Prop49
280
     0
102
RTVSPost2010PropOp49
 70
     1
102
RTVSPost2010Prop50
 90
       50
102
RTVSPost2010PropOp50
 70
     1
102
RTVSPost2010Prop51ColorIndex
 90
      256
102
RTVSPost2010Prop51ColorRGB
 90
-16777216
102
RTVSPost2010PropOp51
 70
     0
102
RTVSPost2010Prop52
140
1.0
102
RTVSPost2010PropOp52
 70
     0
102
RTVSPost2010Prop53
 90
        2
102
RTVSPost2010PropOp53
 70
     1
102
RTVSPost2010Prop54
  1
strokes_ogs.tif
102
RTVSPost2010PropOp54
 70
     1
102
RTVSPost2010Prop55
280
     0
102
RTVSPost2010PropOp55
 70
     1
102
RTVSPost2010Prop56
140
1.0
102
RTVSPost2010PropOp56
 70
     1
102
RTVSPost2010Prop57
140
1.0
102
RTVSPost2010PropOp57
 70
     1
  0
XRECORD
  5
21D
102
{ACAD_REACTORS
330
21C
102
}
330
21C
100
AcDbXrecord
280
     1
102
RTVSPropertyOp0
 70
     0
102
RTVSPropertyOp1
 70
     0
102
RTVSPropertyOp2
 70
     0
102
RTVSPropertyOp3
 70
     0
102
RTVSPropertyOp4
 70
     0
102
RTVSPropertyOp5
 70
     0
102
RTVSPropertyOp6
 70
     0
102
RTVSPropertyOp7
 70
     0
102
RTVSPropertyOp8
 70
     0
102
RTVSPropertyOp9
 70
     0
102
RTVSPropertyOp10
 70
     0
102
RTVSPropertyOp11
 70
     0
102
RTVSPropertyOp12
 70
     0
102
RTVSPropertyOp13
 70
     0
102
RTVSPropertyOp14
 70
     2
102
RTVSPropertyOp15
 70
     0
102
RTVSPropertyOp16
 70
     0
102
RTVSPropertyOp17
 70
     0
102
RTVSPropertyOp18
 70
     0
102
RTVSPropertyOp19
 70
     0
102
RTVSPropertyOp20
 70
     0
102
RTVSPropertyOp21
 70
     0
102
RTVSPropertyOp22
 70
     0
102
RTVSPropertyOp23
 70
     0
102
RTVSPropertyOp24
 70
     0
102
RTVSPropertyOp25
 70
     0
102
RTVSPropertyOp26
 70
     0
102
RTVSPropertyOp27
 70
     0
102
RTVSPropertyOp28
 70
     0
102
RTVSPropertyOp29
 70
     0
102
RTVSPropertyOp30
 70
     0
102
RTVSPropertyOp31
 70
     0
102
RTVSPropertyOp32
 70
     0
102
RTVSPropertyOp33
 70
     0
102
RTVSPropertyOp34
 70
     0
102
RTVSPropertyOp35
 70
     0
102
RTVSPropertyOp36
 70
     0
102
RTVSPropertyOp37
 70
     0
102
RTVSPropertyOp38
 70
     0
102
RTVSPropertyOp39
 70
     0
102
RTVSPropertyOp40
 70
     0
102
RTVSPropertyOp41
 70
     0
102
RTVSPropertyOp42
 70
     0
102
RTVSPropertyOp43
 70
     0
102
RTVSPropertyOp44
 70
     0
102
RTVSPropertyOp45
 70
     0
102
RTVSPropertyOp46
 70
     0
102
RTVSPropertyOp47
 70
     0
102
RTVSPropertyOp48
 70
     0
102
RTVSPropertyOp49
 70
     0
102
RTVSPropertyOp50
 70
     0
102
RTVSPropertyOp51
 70
     0
102
RTVSPropertyOp52
 70
     0
102
RTVSPropertyOp53
 70
     0
102
RTVSPropertyOp54
 70
     0
102
RTVSPropertyOp55
 70
     0
102
RTVSPropertyOp56
 70
     0
102
RTVSPropertyOp57
 70
     0
102
RTVSPost2010Prop28
280
     0
102
RTVSPost2010PropOp28
 70
     0
102
RTVSPost2010Prop29
280
     1
102
RTVSPost2010PropOp29
 70
     0
102
RTVSPost2010Prop30
280
     1
102
RTVSPost2010PropOp30
 70
     0
102
RTVSPost2010Prop31
280
     0
102
RTVSPost2010PropOp31
 70
     0
102
RTVSPost2010Prop32
280
     0
102
RTVSPost2010PropOp32
 70
     0
102
RTVSPost2010Prop33
280
     0
102
RTVSPost2010PropOp33
 70
     0
102
RTVSPost2010Prop34
280
     0
102
RTVSPost2010PropOp34
 70
     0
102
RTVSPost2010Prop35
280
     0
102
RTVSPost2010PropOp35
 70
     0
102
RTVSPost2010Prop36
280
     0
102
RTVSPost2010PropOp36
 70
     0
102
RTVSPost2010Prop37
 90
       50
102
RTVSPost2010PropOp37
 70
     0
102
RTVSPost2010Prop38
140
0.0
102
RTVSPost2010PropOp38
 70
     0
102
RTVSPost2010Prop39
140
1.0
102
RTVSPost2010PropOp39
 70
     0
102
RTVSPost2010Prop40
 90
        0
102
RTVSPost2010PropOp40
 70
     0
102
RTVSPost2010Prop41ColorIndex
 90
       18
102
RTVSPost2010Prop41ColorRGB
 90
        0
102
RTVSPost2010PropOp41
 70
     0
102
RTVSPost2010Prop42
 90
       50
102
RTVSPost2010PropOp42
 70
     0
102
RTVSPost2010Prop43
 90
        3
102
RTVSPost2010PropOp43
 70
     0
102
RTVSPost2010Prop44ColorIndex
 90
        5
102
RTVSPost2010Prop44ColorRGB
 90
      255
102
RTVSPost2010PropOp44
 70
     0
102
RTVSPost2010Prop45
280
     0
102
RTVSPost2010PropOp45
 70
     0
102
RTVSPost2010Prop46
 90
       50
102
RTVSPost2010PropOp46
 70
     0
102
RTVSPost2010Prop47
 90
       50
102
RTVSPost2010PropOp47
 70
     0
102
RTVSPost2010Prop48
 90
       50
102
RTVSPost2010PropOp48
 70
     0
102
RTVSPost2010Prop49
280
     0
102
RTVSPost2010PropOp49
 70
     0
102
RTVSPost2010Prop50
 90
       50
102
RTVSPost2010PropOp50
 70
     0
102
RTVSPost2010Prop51ColorIndex
 90
      256
102
RTVSPost2010Prop51ColorRGB
 90
-16777216
102
RTVSPost2010PropOp51
 70
     0
102
RTVSPost2010Prop52
140
1.0
102
RTVSPost2010PropOp52
 70
     0
102
RTVSPost2010Prop53
 90
        2
102
RTVSPost2010PropOp53
 70
     0
102
RTVSPost2010Prop54
  1
strokes_ogs.tif
102
RTVSPost2010PropOp54
 70
     0
102
RTVSPost2010Prop55
280
     0
102
RTVSPost2010PropOp55
 70
     0
102
RTVSPost2010Prop56
140
1.0
102
RTVSPost2010PropOp56
 70
     0
102
RTVSPost2010Prop57
140
1.0
102
RTVSPost2010PropOp57
 70
     0
  0
XRECORD
  5
215
102
{ACAD_REACTORS
330
214
102
}
330
214
100
AcDbXrecord
280
     1
102
RTVSPropertyOp0
 70
     1
102
RTVSPropertyOp1
 70
     1
102
RTVSPropertyOp2
 70
     1
102
RTVSPropertyOp3
 70
     1
102
RTVSPropertyOp4
 70
     1
102
RTVSPropertyOp5
 70
     1
102
RTVSPropertyOp6
 70
     1
102
RTVSPropertyOp7
 70
     1
102
RTVSPropertyOp8
 70
     1
102
RTVSPropertyOp9
 70
     1
102
RTVSPropertyOp10
 70
     1
102
RTVSPropertyOp11
 70
     1
102
RTVSPropertyOp12
 70
     1
102
RTVSPropertyOp13
 70
     1
102
RTVSPropertyOp14
 70
     1
102
RTVSPropertyOp15
 70
     1
102
RTVSPropertyOp16
 70
     1
102
RTVSPropertyOp17
 70
     1
102
RTVSPropertyOp18
 70
     1
102
RTVSPropertyOp19
 70
     1
102
RTVSPropertyOp20
 70
     1
102
RTVSPropertyOp21
 70
     1
102
RTVSPropertyOp22
 70
     1
102
RTVSPropertyOp23
 70
     1
102
RTVSPropertyOp24
 70
     1
102
RTVSPropertyOp25
 70
     1
102
RTVSPropertyOp26
 70
     1
102
RTVSPropertyOp27
 70
     1
102
RTVSPropertyOp28
 70
     1
102
RTVSPropertyOp29
 70
     1
102
RTVSPropertyOp30
 70
     1
102
RTVSPropertyOp31
 70
     1
102
RTVSPropertyOp32
 70
     1
102
RTVSPropertyOp33
 70
     1
102
RTVSPropertyOp34
 70
     1
102
RTVSPropertyOp35
 70
     1
102
RTVSPropertyOp36
 70
     1
102
RTVSPropertyOp37
 70
     1
102
RTVSPropertyOp38
 70
     1
102
RTVSPropertyOp39
 70
     1
102
RTVSPropertyOp40
 70
     1
102
RTVSPropertyOp41
 70
     1
102
RTVSPropertyOp42
 70
     1
102
RTVSPropertyOp43
 70
     1
102
RTVSPropertyOp44
 70
     1
102
RTVSPropertyOp45
 70
     1
102
RTVSPropertyOp46
 70
     1
102
RTVSPropertyOp47
 70
     1
102
RTVSPropertyOp48
 70
     1
102
RTVSPropertyOp49
 70
     1
102
RTVSPropertyOp50
 70
     1
102
RTVSPropertyOp51
 70
     0
102
RTVSPropertyOp52
 70
     0
102
RTVSPropertyOp53
 70
     1
102
RTVSPropertyOp54
 70
     1
102
RTVSPropertyOp55
 70
     1
102
RTVSPropertyOp56
 70
     1
102
RTVSPropertyOp57
 70
     1
102
RTVSPost2010Prop28
280
     0
102
RTVSPost2010PropOp28
 70
     1
102
RTVSPost2010Prop29
280
     1
102
RTVSPost2010PropOp29
 70
     1
102
RTVSPost2010Prop30
280
     1
102
RTVSPost2010PropOp30
 70
     1
102
RTVSPost2010Prop31
280
     0
102
RTVSPost2010PropOp31
 70
     1
102
RTVSPost2010Prop32
280
     0
102
RTVSPost2010PropOp32
 70
     1
102
RTVSPost2010Prop33
280
     0
102
RTVSPost2010PropOp33
 70
     1
102
RTVSPost2010Prop34
280
     0
102
RTVSPost2010PropOp34
 70
     1
102
RTVSPost2010Prop35
280
     0
102
RTVSPost2010PropOp35
 70
     1
102
RTVSPost2010Prop36
280
     0
102
RTVSPost2010PropOp36
 70
     1
102
RTVSPost2010Prop37
 90
       50
102
RTVSPost2010PropOp37
 70
     1
102
RTVSPost2010Prop38
140
0.0
102
RTVSPost2010PropOp38
 70
     1
102
RTVSPost2010Prop39
140
1.0
102
RTVSPost2010PropOp39
 70
     1
102
RTVSPost2010Prop40
 90
        0
102
RTVSPost2010PropOp40
 70
     1
102
RTVSPost2010Prop41ColorIndex
 90
       18
102
RTVSPost2010Prop41ColorRGB
 90
        0
102
RTVSPost2010PropOp41
 70
     1
102
RTVSPost2010Prop42
 90
       50
102
RTVSPost2010PropOp42
 70
     1
102
RTVSPost2010Prop43
 90
        3
102
RTVSPost2010PropOp43
 70
     1
102
RTVSPost2010Prop44ColorIndex
 90
        5
102
RTVSPost2010Prop44ColorRGB
 90
      255
102
RTVSPost2010PropOp44
 70
     1
102
RTVSPost2010Prop45
280
     0
102
RTVSPost2010PropOp45
 70
     1
102
RTVSPost2010Prop46
 90
       50
102
RTVSPost2010PropOp46
 70
     1
102
RTVSPost2010Prop47
 90
       50
102
RTVSPost2010PropOp47
 70
     1
102
RTVSPost2010Prop48
 90
       50
102
RTVSPost2010PropOp48
 70
     1
102
RTVSPost2010Prop49
280
     0
102
RTVSPost2010PropOp49
 70
     1
102
RTVSPost2010Prop50
 90
       50
102
RTVSPost2010PropOp50
 70
     1
102
RTVSPost2010Prop51ColorIndex
 90
      256
102
RTVSPost2010Prop51ColorRGB
 90
-16777216
102
RTVSPost2010PropOp51
 70
     0
102
RTVSPost2010Prop52
140
1.0
102
RTVSPost2010PropOp52
 70
     0
102
RTVSPost2010Prop53
 90
        2
102
RTVSPost2010PropOp53
 70
     1
102
RTVSPost2010Prop54
  1
strokes_ogs.tif
102
RTVSPost2010PropOp54
 70
     1
102
RTVSPost2010Prop55
280
     0
102
RTVSPost2010PropOp55
 70
     1
102
RTVSPost2010Prop56
140
1.0
102
RTVSPost2010PropOp56
 70
     1
102
RTVSPost2010Prop57
140
1.0
102
RTVSPost2010PropOp57
 70
     1
  0
XRECORD
  5
1F9
102
{ACAD_REACTORS
330
1F8
102
}
330
1F8
100
AcDbXrecord
280
     1
102
RTVSPropertyOp0
 70
     1
102
RTVSPropertyOp1
 70
     1
102
RTVSPropertyOp2
 70
     1
102
RTVSPropertyOp3
 70
     1
102
RTVSPropertyOp4
 70
     1
102
RTVSPropertyOp5
 70
     1
102
RTVSPropertyOp6
 70
     1
102
RTVSPropertyOp7
 70
     1
102
RTVSPropertyOp8
 70
     1
102
RTVSPropertyOp9
 70
     1
102
RTVSPropertyOp10
 70
     1
102
RTVSPropertyOp11
 70
     1
102
RTVSPropertyOp12
 70
     1
102
RTVSPropertyOp13
 70
     1
102
RTVSPropertyOp14
 70
     1
102
RTVSPropertyOp15
 70
     1
102
RTVSPropertyOp16
 70
     1
102
RTVSPropertyOp17
 70
     1
102
RTVSPropertyOp18
 70
     1
102
RTVSPropertyOp19
 70
     1
102
RTVSPropertyOp20
 70
     1
102
RTVSPropertyOp21
 70
     1
102
RTVSPropertyOp22
 70
     1
102
RTVSPropertyOp23
 70
     1
102
RTVSPropertyOp24
 70
     1
102
RTVSPropertyOp25
 70
     1
102
RTVSPropertyOp26
 70
     1
102
RTVSPropertyOp27
 70
     1
102
RTVSPropertyOp28
 70
     1
102
RTVSPropertyOp29
 70
     1
102
RTVSPropertyOp30
 70
     1
102
RTVSPropertyOp31
 70
     1
102
RTVSPropertyOp32
 70
     1
102
RTVSPropertyOp33
 70
     1
102
RTVSPropertyOp34
 70
     1
102
RTVSPropertyOp35
 70
     1
102
RTVSPropertyOp36
 70
     1
102
RTVSPropertyOp37
 70
     1
102
RTVSPropertyOp38
 70
     1
102
RTVSPropertyOp39
 70
     1
102
RTVSPropertyOp40
 70
     1
102
RTVSPropertyOp41
 70
     1
102
RTVSPropertyOp42
 70
     1
102
RTVSPropertyOp43
 70
     1
102
RTVSPropertyOp44
 70
     1
102
RTVSPropertyOp45
 70
     1
102
RTVSPropertyOp46
 70
     1
102
RTVSPropertyOp47
 70
     1
102
RTVSPropertyOp48
 70
     1
102
RTVSPropertyOp49
 70
     1
102
RTVSPropertyOp50
 70
     1
102
RTVSPropertyOp51
 70
     0
102
RTVSPropertyOp52
 70
     0
102
RTVSPropertyOp53
 70
     1
102
RTVSPropertyOp54
 70
     1
102
RTVSPropertyOp55
 70
     1
102
RTVSPropertyOp56
 70
     1
102
RTVSPropertyOp57
 70
     1
102
RTVSPost2010Prop28
280
     0
102
RTVSPost2010PropOp28
 70
     1
102
RTVSPost2010Prop29
280
     1
102
RTVSPost2010PropOp29
 70
     1
102
RTVSPost2010Prop30
280
     1
102
RTVSPost2010PropOp30
 70
     1
102
RTVSPost2010Prop31
280
     0
102
RTVSPost2010PropOp31
 70
     1
102
RTVSPost2010Prop32
280
     0
102
RTVSPost2010PropOp32
 70
     1
102
RTVSPost2010Prop33
280
     0
102
RTVSPost2010PropOp33
 70
     1
102
RTVSPost2010Prop34
280
     0
102
RTVSPost2010PropOp34
 70
     1
102
RTVSPost2010Prop35
280
     0
102
RTVSPost2010PropOp35
 70
     1
102
RTVSPost2010Prop36
280
     0
102
RTVSPost2010PropOp36
 70
     1
102
RTVSPost2010Prop37
 90
       50
102
RTVSPost2010PropOp37
 70
     1
102
RTVSPost2010Prop38
140
0.0
102
RTVSPost2010PropOp38
 70
     1
102
RTVSPost2010Prop39
140
1.0
102
RTVSPost2010PropOp39
 70
     1
102
RTVSPost2010Prop40
 90
        0
102
RTVSPost2010PropOp40
 70
     1
102
RTVSPost2010Prop41ColorIndex
 90
       18
102
RTVSPost2010Prop41ColorRGB
 90
        0
102
RTVSPost2010PropOp41
 70
     1
102
RTVSPost2010Prop42
 90
       50
102
RTVSPost2010PropOp42
 70
     1
102
RTVSPost2010Prop43
 90
        3
102
RTVSPost2010PropOp43
 70
     1
102
RTVSPost2010Prop44ColorIndex
 90
        5
102
RTVSPost2010Prop44ColorRGB
 90
      255
102
RTVSPost2010PropOp44
 70
     1
102
RTVSPost2010Prop45
280
     0
102
RTVSPost2010PropOp45
 70
     1
102
RTVSPost2010Prop46
 90
       50
102
RTVSPost2010PropOp46
 70
     1
102
RTVSPost2010Prop47
 90
       50
102
RTVSPost2010PropOp47
 70
     1
102
RTVSPost2010Prop48
 90
       50
102
RTVSPost2010PropOp48
 70
     1
102
RTVSPost2010Prop49
280
     0
102
RTVSPost2010PropOp49
 70
     1
102
RTVSPost2010Prop50
 90
       50
102
RTVSPost2010PropOp50
 70
     1
102
RTVSPost2010Prop51ColorIndex
 90
      256
102
RTVSPost2010Prop51ColorRGB
 90
-16777216
102
RTVSPost2010PropOp51
 70
     0
102
RTVSPost2010Prop52
140
1.0
102
RTVSPost2010PropOp52
 70
     0
102
RTVSPost2010Prop53
 90
        2
102
RTVSPost2010PropOp53
 70
     1
102
RTVSPost2010Prop54
  1
strokes_ogs.tif
102
RTVSPost2010PropOp54
 70
     1
102
RTVSPost2010Prop55
280
     0
102
RTVSPost2010PropOp55
 70
     1
102
RTVSPost2010Prop56
140
1.0
102
RTVSPost2010PropOp56
 70
     1
102
RTVSPost2010Prop57
140
1.0
102
RTVSPost2010PropOp57
 70
     1
  0
XRECORD
  5
1FB
102
{ACAD_REACTORS
330
1FA
102
}
330
1FA
100
AcDbXrecord
280
     1
102
RTVSPropertyOp0
 70
     1
102
RTVSPropertyOp1
 70
     1
102
RTVSPropertyOp2
 70
     1
102
RTVSPropertyOp3
 70
     1
102
RTVSPropertyOp4
 70
     1
102
RTVSPropertyOp5
 70
     1
102
RTVSPropertyOp6
 70
     1
102
RTVSPropertyOp7
 70
     1
102
RTVSPropertyOp8
 70
     1
102
RTVSPropertyOp9
 70
     1
102
RTVSPropertyOp10
 70
     1
102
RTVSPropertyOp11
 70
     1
102
RTVSPropertyOp12
 70
     1
102
RTVSPropertyOp13
 70
     1
102
RTVSPropertyOp14
 70
     1
102
RTVSPropertyOp15
 70
     1
102
RTVSPropertyOp16
 70
     1
102
RTVSPropertyOp17
 70
     1
102
RTVSPropertyOp18
 70
     1
102
RTVSPropertyOp19
 70
     1
102
RTVSPropertyOp20
 70
     1
102
RTVSPropertyOp21
 70
     1
102
RTVSPropertyOp22
 70
     1
102
RTVSPropertyOp23
 70
     1
102
RTVSPropertyOp24
 70
     1
102
RTVSPropertyOp25
 70
     1
102
RTVSPropertyOp26
 70
     1
102
RTVSPropertyOp27
 70
     1
102
RTVSPropertyOp28
 70
     1
102
RTVSPropertyOp29
 70
     1
102
RTVSPropertyOp30
 70
     1
102
RTVSPropertyOp31
 70
     1
102
RTVSPropertyOp32
 70
     1
102
RTVSPropertyOp33
 70
     1
102
RTVSPropertyOp34
 70
     1
102
RTVSPropertyOp35
 70
     1
102
RTVSPropertyOp36
 70
     1
102
RTVSPropertyOp37
 70
     1
102
RTVSPropertyOp38
 70
     1
102
RTVSPropertyOp39
 70
     1
102
RTVSPropertyOp40
 70
     1
102
RTVSPropertyOp41
 70
     1
102
RTVSPropertyOp42
 70
     1
102
RTVSPropertyOp43
 70
     1
102
RTVSPropertyOp44
 70
     1
102
RTVSPropertyOp45
 70
     1
102
RTVSPropertyOp46
 70
     1
102
RTVSPropertyOp47
 70
     1
102
RTVSPropertyOp48
 70
     1
102
RTVSPropertyOp49
 70
     1
102
RTVSPropertyOp50
 70
     1
102
RTVSPropertyOp51
 70
     0
102
RTVSPropertyOp52
 70
     0
102
RTVSPropertyOp53
 70
     1
102
RTVSPropertyOp54
 70
     1
102
RTVSPropertyOp55
 70
     1
102
RTVSPropertyOp56
 70
     1
102
RTVSPropertyOp57
 70
     1
102
RTVSPost2010Prop28
280
     0
102
RTVSPost2010PropOp28
 70
     1
102
RTVSPost2010Prop29
280
     1
102
RTVSPost2010PropOp29
 70
     1
102
RTVSPost2010Prop30
280
     1
102
RTVSPost2010PropOp30
 70
     1
102
RTVSPost2010Prop31
280
     0
102
RTVSPost2010PropOp31
 70
     1
102
RTVSPost2010Prop32
280
     0
102
RTVSPost2010PropOp32
 70
     1
102
RTVSPost2010Prop33
280
     0
102
RTVSPost2010PropOp33
 70
     1
102
RTVSPost2010Prop34
280
     0
102
RTVSPost2010PropOp34
 70
     1
102
RTVSPost2010Prop35
280
     0
102
RTVSPost2010PropOp35
 70
     1
102
RTVSPost2010Prop36
280
     0
102
RTVSPost2010PropOp36
 70
     1
102
RTVSPost2010Prop37
 90
       50
102
RTVSPost2010PropOp37
 70
     1
102
RTVSPost2010Prop38
140
0.0
102
RTVSPost2010PropOp38
 70
     1
102
RTVSPost2010Prop39
140
1.0
102
RTVSPost2010PropOp39
 70
     1
102
RTVSPost2010Prop40
 90
        0
102
RTVSPost2010PropOp40
 70
     1
102
RTVSPost2010Prop41ColorIndex
 90
       18
102
RTVSPost2010Prop41ColorRGB
 90
        0
102
RTVSPost2010PropOp41
 70
     1
102
RTVSPost2010Prop42
 90
       50
102
RTVSPost2010PropOp42
 70
     1
102
RTVSPost2010Prop43
 90
        3
102
RTVSPost2010PropOp43
 70
     1
102
RTVSPost2010Prop44ColorIndex
 90
        5
102
RTVSPost2010Prop44ColorRGB
 90
      255
102
RTVSPost2010PropOp44
 70
     1
102
RTVSPost2010Prop45
280
     0
102
RTVSPost2010PropOp45
 70
     1
102
RTVSPost2010Prop46
 90
       50
102
RTVSPost2010PropOp46
 70
     1
102
RTVSPost2010Prop47
 90
       50
102
RTVSPost2010PropOp47
 70
     1
102
RTVSPost2010Prop48
 90
       50
102
RTVSPost2010PropOp48
 70
     1
102
RTVSPost2010Prop49
280
     0
102
RTVSPost2010PropOp49
 70
     1
102
RTVSPost2010Prop50
 90
       50
102
RTVSPost2010PropOp50
 70
     1
102
RTVSPost2010Prop51ColorIndex
 90
      256
102
RTVSPost2010Prop51ColorRGB
 90
-16777216
102
RTVSPost2010PropOp51
 70
     0
102
RTVSPost2010Prop52
140
1.0
102
RTVSPost2010PropOp52
 70
     0
102
RTVSPost2010Prop53
 90
        2
102
RTVSPost2010PropOp53
 70
     1
102
RTVSPost2010Prop54
  1
strokes_ogs.tif
102
RTVSPost2010PropOp54
 70
     1
102
RTVSPost2010Prop55
280
     0
102
RTVSPost2010PropOp55
 70
     1
102
RTVSPost2010Prop56
140
1.0
102
RTVSPost2010PropOp56
 70
     1
102
RTVSPost2010Prop57
140
1.0
102
RTVSPost2010PropOp57
 70
     1
  0
XRECORD
  5
1FD
102
{ACAD_REACTORS
330
1FC
102
}
330
1FC
100
AcDbXrecord
280
     1
102
RTVSPropertyOp0
 70
     1
102
RTVSPropertyOp1
 70
     1
102
RTVSPropertyOp2
 70
     1
102
RTVSPropertyOp3
 70
     1
102
RTVSPropertyOp4
 70
     1
102
RTVSPropertyOp5
 70
     1
102
RTVSPropertyOp6
 70
     1
102
RTVSPropertyOp7
 70
     1
102
RTVSPropertyOp8
 70
     1
102
RTVSPropertyOp9
 70
     1
102
RTVSPropertyOp10
 70
     1
102
RTVSPropertyOp11
 70
     1
102
RTVSPropertyOp12
 70
     1
102
RTVSPropertyOp13
 70
     1
102
RTVSPropertyOp14
 70
     1
102
RTVSPropertyOp15
 70
     1
102
RTVSPropertyOp16
 70
     1
102
RTVSPropertyOp17
 70
     1
102
RTVSPropertyOp18
 70
     1
102
RTVSPropertyOp19
 70
     1
102
RTVSPropertyOp20
 70
     1
102
RTVSPropertyOp21
 70
     1
102
RTVSPropertyOp22
 70
     1
102
RTVSPropertyOp23
 70
     1
102
RTVSPropertyOp24
 70
     1
102
RTVSPropertyOp25
 70
     1
102
RTVSPropertyOp26
 70
     1
102
RTVSPropertyOp27
 70
     1
102
RTVSPropertyOp28
 70
     1
102
RTVSPropertyOp29
 70
     1
102
RTVSPropertyOp30
 70
     1
102
RTVSPropertyOp31
 70
     1
102
RTVSPropertyOp32
 70
     1
102
RTVSPropertyOp33
 70
     1
102
RTVSPropertyOp34
 70
     1
102
RTVSPropertyOp35
 70
     1
102
RTVSPropertyOp36
 70
     1
102
RTVSPropertyOp37
 70
     1
102
RTVSPropertyOp38
 70
     1
102
RTVSPropertyOp39
 70
     1
102
RTVSPropertyOp40
 70
     1
102
RTVSPropertyOp41
 70
     1
102
RTVSPropertyOp42
 70
     1
102
RTVSPropertyOp43
 70
     1
102
RTVSPropertyOp44
 70
     1
102
RTVSPropertyOp45
 70
     1
102
RTVSPropertyOp46
 70
     1
102
RTVSPropertyOp47
 70
     1
102
RTVSPropertyOp48
 70
     1
102
RTVSPropertyOp49
 70
     1
102
RTVSPropertyOp50
 70
     1
102
RTVSPropertyOp51
 70
     0
102
RTVSPropertyOp52
 70
     0
102
RTVSPropertyOp53
 70
     1
102
RTVSPropertyOp54
 70
     1
102
RTVSPropertyOp55
 70
     1
102
RTVSPropertyOp56
 70
     1
102
RTVSPropertyOp57
 70
     1
102
RTVSPost2010Prop28
280
     0
102
RTVSPost2010PropOp28
 70
     1
102
RTVSPost2010Prop29
280
     1
102
RTVSPost2010PropOp29
 70
     1
102
RTVSPost2010Prop30
280
     1
102
RTVSPost2010PropOp30
 70
     1
102
RTVSPost2010Prop31
280
     0
102
RTVSPost2010PropOp31
 70
     1
102
RTVSPost2010Prop32
280
     0
102
RTVSPost2010PropOp32
 70
     1
102
RTVSPost2010Prop33
280
     0
102
RTVSPost2010PropOp33
 70
     1
102
RTVSPost2010Prop34
280
     0
102
RTVSPost2010PropOp34
 70
     1
102
RTVSPost2010Prop35
280
     0
102
RTVSPost2010PropOp35
 70
     1
102
RTVSPost2010Prop36
280
     0
102
RTVSPost2010PropOp36
 70
     1
102
RTVSPost2010Prop37
 90
       50
102
RTVSPost2010PropOp37
 70
     1
102
RTVSPost2010Prop38
140
0.0
102
RTVSPost2010PropOp38
 70
     1
102
RTVSPost2010Prop39
140
1.0
102
RTVSPost2010PropOp39
 70
     1
102
RTVSPost2010Prop40
 90
        0
102
RTVSPost2010PropOp40
 70
     1
102
RTVSPost2010Prop41ColorIndex
 90
       18
102
RTVSPost2010Prop41ColorRGB
 90
        0
102
RTVSPost2010PropOp41
 70
     1
102
RTVSPost2010Prop42
 90
       50
102
RTVSPost2010PropOp42
 70
     1
102
RTVSPost2010Prop43
 90
        3
102
RTVSPost2010PropOp43
 70
     1
102
RTVSPost2010Prop44ColorIndex
 90
        5
102
RTVSPost2010Prop44ColorRGB
 90
      255
102
RTVSPost2010PropOp44
 70
     1
102
RTVSPost2010Prop45
280
     0
102
RTVSPost2010PropOp45
 70
     1
102
RTVSPost2010Prop46
 90
       50
102
RTVSPost2010PropOp46
 70
     1
102
RTVSPost2010Prop47
 90
       50
102
RTVSPost2010PropOp47
 70
     1
102
RTVSPost2010Prop48
 90
       50
102
RTVSPost2010PropOp48
 70
     1
102
RTVSPost2010Prop49
280
     0
102
RTVSPost2010PropOp49
 70
     1
102
RTVSPost2010Prop50
 90
       50
102
RTVSPost2010PropOp50
 70
     1
102
RTVSPost2010Prop51ColorIndex
 90
      256
102
RTVSPost2010Prop51ColorRGB
 90
-16777216
102
RTVSPost2010PropOp51
 70
     0
102
RTVSPost2010Prop52
140
1.0
102
RTVSPost2010PropOp52
 70
     0
102
RTVSPost2010Prop53
 90
        2
102
RTVSPost2010PropOp53
 70
     1
102
RTVSPost2010Prop54
  1
strokes_ogs.tif
102
RTVSPost2010PropOp54
 70
     1
102
RTVSPost2010Prop55
280
     0
102
RTVSPost2010PropOp55
 70
     1
102
RTVSPost2010Prop56
140
1.0
102
RTVSPost2010PropOp56
 70
     1
102
RTVSPost2010Prop57
140
1.0
102
RTVSPost2010PropOp57
 70
     1
  0
XRECORD
  5
1FF
102
{ACAD_REACTORS
330
1FE
102
}
330
1FE
100
AcDbXrecord
280
     1
102
RTVSPropertyOp0
 70
     1
102
RTVSPropertyOp1
 70
     1
102
RTVSPropertyOp2
 70
     1
102
RTVSPropertyOp3
 70
     1
102
RTVSPropertyOp4
 70
     1
102
RTVSPropertyOp5
 70
     1
102
RTVSPropertyOp6
 70
     1
102
RTVSPropertyOp7
 70
     1
102
RTVSPropertyOp8
 70
     1
102
RTVSPropertyOp9
 70
     1
102
RTVSPropertyOp10
 70
     1
102
RTVSPropertyOp11
 70
     1
102
RTVSPropertyOp12
 70
     1
102
RTVSPropertyOp13
 70
     1
102
RTVSPropertyOp14
 70
     1
102
RTVSPropertyOp15
 70
     1
102
RTVSPropertyOp16
 70
     1
102
RTVSPropertyOp17
 70
     1
102
RTVSPropertyOp18
 70
     1
102
RTVSPropertyOp19
 70
     1
102
RTVSPropertyOp20
 70
     1
102
RTVSPropertyOp21
 70
     1
102
RTVSPropertyOp22
 70
     1
102
RTVSPropertyOp23
 70
     1
102
RTVSPropertyOp24
 70
     1
102
RTVSPropertyOp25
 70
     1
102
RTVSPropertyOp26
 70
     1
102
RTVSPropertyOp27
 70
     1
102
RTVSPropertyOp28
 70
     1
102
RTVSPropertyOp29
 70
     1
102
RTVSPropertyOp30
 70
     1
102
RTVSPropertyOp31
 70
     1
102
RTVSPropertyOp32
 70
     1
102
RTVSPropertyOp33
 70
     1
102
RTVSPropertyOp34
 70
     1
102
RTVSPropertyOp35
 70
     1
102
RTVSPropertyOp36
 70
     1
102
RTVSPropertyOp37
 70
     1
102
RTVSPropertyOp38
 70
     1
102
RTVSPropertyOp39
 70
     1
102
RTVSPropertyOp40
 70
     1
102
RTVSPropertyOp41
 70
     1
102
RTVSPropertyOp42
 70
     1
102
RTVSPropertyOp43
 70
     1
102
RTVSPropertyOp44
 70
     1
102
RTVSPropertyOp45
 70
     1
102
RTVSPropertyOp46
 70
     1
102
RTVSPropertyOp47
 70
     1
102
RTVSPropertyOp48
 70
     1
102
RTVSPropertyOp49
 70
     1
102
RTVSPropertyOp50
 70
     1
102
RTVSPropertyOp51
 70
     0
102
RTVSPropertyOp52
 70
     0
102
RTVSPropertyOp53
 70
     1
102
RTVSPropertyOp54
 70
     1
102
RTVSPropertyOp55
 70
     1
102
RTVSPropertyOp56
 70
     1
102
RTVSPropertyOp57
 70
     1
102
RTVSPost2010Prop28
280
     0
102
RTVSPost2010PropOp28
 70
     1
102
RTVSPost2010Prop29
280
     1
102
RTVSPost2010PropOp29
 70
     1
102
RTVSPost2010Prop30
280
     1
102
RTVSPost2010PropOp30
 70
     1
102
RTVSPost2010Prop31
280
     0
102
RTVSPost2010PropOp31
 70
     1
102
RTVSPost2010Prop32
280
     0
102
RTVSPost2010PropOp32
 70
     1
102
RTVSPost2010Prop33
280
     0
102
RTVSPost2010PropOp33
 70
     1
102
RTVSPost2010Prop34
280
     0
102
RTVSPost2010PropOp34
 70
     1
102
RTVSPost2010Prop35
280
     0
102
RTVSPost2010PropOp35
 70
     1
102
RTVSPost2010Prop36
280
     0
102
RTVSPost2010PropOp36
 70
     1
102
RTVSPost2010Prop37
 90
       50
102
RTVSPost2010PropOp37
 70
     1
102
RTVSPost2010Prop38
140
0.0
102
RTVSPost2010PropOp38
 70
     1
102
RTVSPost2010Prop39
140
1.0
102
RTVSPost2010PropOp39
 70
     1
102
RTVSPost2010Prop40
 90
        0
102
RTVSPost2010PropOp40
 70
     1
102
RTVSPost2010Prop41ColorIndex
 90
       18
102
RTVSPost2010Prop41ColorRGB
 90
        0
102
RTVSPost2010PropOp41
 70
     1
102
RTVSPost2010Prop42
 90
       50
102
RTVSPost2010PropOp42
 70
     1
102
RTVSPost2010Prop43
 90
        3
102
RTVSPost2010PropOp43
 70
     1
102
RTVSPost2010Prop44ColorIndex
 90
        5
102
RTVSPost2010Prop44ColorRGB
 90
      255
102
RTVSPost2010PropOp44
 70
     1
102
RTVSPost2010Prop45
280
     0
102
RTVSPost2010PropOp45
 70
     1
102
RTVSPost2010Prop46
 90
       50
102
RTVSPost2010PropOp46
 70
     1
102
RTVSPost2010Prop47
 90
       50
102
RTVSPost2010PropOp47
 70
     1
102
RTVSPost2010Prop48
 90
       50
102
RTVSPost2010PropOp48
 70
     1
102
RTVSPost2010Prop49
280
     0
102
RTVSPost2010PropOp49
 70
     1
102
RTVSPost2010Prop50
 90
       50
102
RTVSPost2010PropOp50
 70
     1
102
RTVSPost2010Prop51ColorIndex
 90
      256
102
RTVSPost2010Prop51ColorRGB
 90
-16777216
102
RTVSPost2010PropOp51
 70
     0
102
RTVSPost2010Prop52
140
1.0
102
RTVSPost2010PropOp52
 70
     0
102
RTVSPost2010Prop53
 90
        2
102
RTVSPost2010PropOp53
 70
     1
102
RTVSPost2010Prop54
  1
strokes_ogs.tif
102
RTVSPost2010PropOp54
 70
     1
102
RTVSPost2010Prop55
280
     0
102
RTVSPost2010PropOp55
 70
     1
102
RTVSPost2010Prop56
140
1.0
102
RTVSPost2010PropOp56
 70
     1
102
RTVSPost2010Prop57
140
1.0
102
RTVSPost2010PropOp57
 70
     1
  0
XRECORD
  5
205
102
{ACAD_REACTORS
330
204
102
}
330
204
100
AcDbXrecord
280
     1
102
RTVSPropertyOp0
 70
     1
102
RTVSPropertyOp1
 70
     1
102
RTVSPropertyOp2
 70
     1
102
RTVSPropertyOp3
 70
     1
102
RTVSPropertyOp4
 70
     1
102
RTVSPropertyOp5
 70
     1
102
RTVSPropertyOp6
 70
     1
102
RTVSPropertyOp7
 70
     1
102
RTVSPropertyOp8
 70
     1
102
RTVSPropertyOp9
 70
     1
102
RTVSPropertyOp10
 70
     1
102
RTVSPropertyOp11
 70
     1
102
RTVSPropertyOp12
 70
     1
102
RTVSPropertyOp13
 70
     1
102
RTVSPropertyOp14
 70
     1
102
RTVSPropertyOp15
 70
     1
102
RTVSPropertyOp16
 70
     1
102
RTVSPropertyOp17
 70
     1
102
RTVSPropertyOp18
 70
     1
102
RTVSPropertyOp19
 70
     1
102
RTVSPropertyOp20
 70
     1
102
RTVSPropertyOp21
 70
     1
102
RTVSPropertyOp22
 70
     1
102
RTVSPropertyOp23
 70
     1
102
RTVSPropertyOp24
 70
     1
102
RTVSPropertyOp25
 70
     1
102
RTVSPropertyOp26
 70
     1
102
RTVSPropertyOp27
 70
     1
102
RTVSPropertyOp28
 70
     1
102
RTVSPropertyOp29
 70
     1
102
RTVSPropertyOp30
 70
     1
102
RTVSPropertyOp31
 70
     1
102
RTVSPropertyOp32
 70
     1
102
RTVSPropertyOp33
 70
     1
102
RTVSPropertyOp34
 70
     1
102
RTVSPropertyOp35
 70
     1
102
RTVSPropertyOp36
 70
     1
102
RTVSPropertyOp37
 70
     1
102
RTVSPropertyOp38
 70
     1
102
RTVSPropertyOp39
 70
     1
102
RTVSPropertyOp40
 70
     1
102
RTVSPropertyOp41
 70
     1
102
RTVSPropertyOp42
 70
     1
102
RTVSPropertyOp43
 70
     1
102
RTVSPropertyOp44
 70
     1
102
RTVSPropertyOp45
 70
     1
102
RTVSPropertyOp46
 70
     1
102
RTVSPropertyOp47
 70
     1
102
RTVSPropertyOp48
 70
     1
102
RTVSPropertyOp49
 70
     1
102
RTVSPropertyOp50
 70
     1
102
RTVSPropertyOp51
 70
     0
102
RTVSPropertyOp52
 70
     0
102
RTVSPropertyOp53
 70
     1
102
RTVSPropertyOp54
 70
     1
102
RTVSPropertyOp55
 70
     1
102
RTVSPropertyOp56
 70
     1
102
RTVSPropertyOp57
 70
     1
102
RTVSPost2010Prop28
280
     0
102
RTVSPost2010PropOp28
 70
     1
102
RTVSPost2010Prop29
280
     1
102
RTVSPost2010PropOp29
 70
     1
102
RTVSPost2010Prop30
280
     1
102
RTVSPost2010PropOp30
 70
     1
102
RTVSPost2010Prop31
280
     0
102
RTVSPost2010PropOp31
 70
     1
102
RTVSPost2010Prop32
280
     0
102
RTVSPost2010PropOp32
 70
     1
102
RTVSPost2010Prop33
280
     0
102
RTVSPost2010PropOp33
 70
     1
102
RTVSPost2010Prop34
280
     0
102
RTVSPost2010PropOp34
 70
     1
102
RTVSPost2010Prop35
280
     0
102
RTVSPost2010PropOp35
 70
     1
102
RTVSPost2010Prop36
280
     0
102
RTVSPost2010PropOp36
 70
     1
102
RTVSPost2010Prop37
 90
       50
102
RTVSPost2010PropOp37
 70
     1
102
RTVSPost2010Prop38
140
0.0
102
RTVSPost2010PropOp38
 70
     1
102
RTVSPost2010Prop39
140
1.0
102
RTVSPost2010PropOp39
 70
     1
102
RTVSPost2010Prop40
 90
        0
102
RTVSPost2010PropOp40
 70
     1
102
RTVSPost2010Prop41ColorIndex
 90
       18
102
RTVSPost2010Prop41ColorRGB
 90
        0
102
RTVSPost2010PropOp41
 70
     1
102
RTVSPost2010Prop42
 90
       50
102
RTVSPost2010PropOp42
 70
     1
102
RTVSPost2010Prop43
 90
        3
102
RTVSPost2010PropOp43
 70
     1
102
RTVSPost2010Prop44ColorIndex
 90
        5
102
RTVSPost2010Prop44ColorRGB
 90
      255
102
RTVSPost2010PropOp44
 70
     1
102
RTVSPost2010Prop45
280
     0
102
RTVSPost2010PropOp45
 70
     1
102
RTVSPost2010Prop46
 90
       50
102
RTVSPost2010PropOp46
 70
     1
102
RTVSPost2010Prop47
 90
       50
102
RTVSPost2010PropOp47
 70
     1
102
RTVSPost2010Prop48
 90
       50
102
RTVSPost2010PropOp48
 70
     1
102
RTVSPost2010Prop49
280
     0
102
RTVSPost2010PropOp49
 70
     1
102
RTVSPost2010Prop50
 90
       50
102
RTVSPost2010PropOp50
 70
     1
102
RTVSPost2010Prop51ColorIndex
 90
      256
102
RTVSPost2010Prop51ColorRGB
 90
-16777216
102
RTVSPost2010PropOp51
 70
     0
102
RTVSPost2010Prop52
140
1.0
102
RTVSPost2010PropOp52
 70
     0
102
RTVSPost2010Prop53
 90
        2
102
RTVSPost2010PropOp53
 70
     1
102
RTVSPost2010Prop54
  1
strokes_ogs.tif
102
RTVSPost2010PropOp54
 70
     1
102
RTVSPost2010Prop55
280
     0
102
RTVSPost2010PropOp55
 70
     1
102
RTVSPost2010Prop56
140
1.0
102
RTVSPost2010PropOp56
 70
     1
102
RTVSPost2010Prop57
140
1.0
102
RTVSPost2010PropOp57
 70
     1
  0
XRECORD
  5
219
102
{ACAD_REACTORS
330
218
102
}
330
218
100
AcDbXrecord
280
     1
102
RTVSPropertyOp0
 70
     0
102
RTVSPropertyOp1
 70
     0
102
RTVSPropertyOp2
 70
     0
102
RTVSPropertyOp3
 70
     0
102
RTVSPropertyOp4
 70
     0
102
RTVSPropertyOp5
 70
     0
102
RTVSPropertyOp6
 70
     0
102
RTVSPropertyOp7
 70
     0
102
RTVSPropertyOp8
 70
     0
102
RTVSPropertyOp9
 70
     0
102
RTVSPropertyOp10
 70
     0
102
RTVSPropertyOp11
 70
     0
102
RTVSPropertyOp12
 70
     0
102
RTVSPropertyOp13
 70
     0
102
RTVSPropertyOp14
 70
     2
102
RTVSPropertyOp15
 70
     0
102
RTVSPropertyOp16
 70
     0
102
RTVSPropertyOp17
 70
     0
102
RTVSPropertyOp18
 70
     0
102
RTVSPropertyOp19
 70
     0
102
RTVSPropertyOp20
 70
     0
102
RTVSPropertyOp21
 70
     0
102
RTVSPropertyOp22
 70
     0
102
RTVSPropertyOp23
 70
     0
102
RTVSPropertyOp24
 70
     0
102
RTVSPropertyOp25
 70
     0
102
RTVSPropertyOp26
 70
     0
102
RTVSPropertyOp27
 70
     0
102
RTVSPropertyOp28
 70
     0
102
RTVSPropertyOp29
 70
     0
102
RTVSPropertyOp30
 70
     0
102
RTVSPropertyOp31
 70
     0
102
RTVSPropertyOp32
 70
     0
102
RTVSPropertyOp33
 70
     0
102
RTVSPropertyOp34
 70
     0
102
RTVSPropertyOp35
 70
     0
102
RTVSPropertyOp36
 70
     0
102
RTVSPropertyOp37
 70
     0
102
RTVSPropertyOp38
 70
     0
102
RTVSPropertyOp39
 70
     0
102
RTVSPropertyOp40
 70
     0
102
RTVSPropertyOp41
 70
     0
102
RTVSPropertyOp42
 70
     0
102
RTVSPropertyOp43
 70
     0
102
RTVSPropertyOp44
 70
     0
102
RTVSPropertyOp45
 70
     0
102
RTVSPropertyOp46
 70
     0
102
RTVSPropertyOp47
 70
     0
102
RTVSPropertyOp48
 70
     0
102
RTVSPropertyOp49
 70
     0
102
RTVSPropertyOp50
 70
     0
102
RTVSPropertyOp51
 70
     0
102
RTVSPropertyOp52
 70
     0
102
RTVSPropertyOp53
 70
     0
102
RTVSPropertyOp54
 70
     0
102
RTVSPropertyOp55
 70
     0
102
RTVSPropertyOp56
 70
     0
102
RTVSPropertyOp57
 70
     0
102
RTVSPost2010Prop28
280
     0
102
RTVSPost2010PropOp28
 70
     0
102
RTVSPost2010Prop29
280
     1
102
RTVSPost2010PropOp29
 70
     0
102
RTVSPost2010Prop30
280
     1
102
RTVSPost2010PropOp30
 70
     0
102
RTVSPost2010Prop31
280
     0
102
RTVSPost2010PropOp31
 70
     0
102
RTVSPost2010Prop32
280
     0
102
RTVSPost2010PropOp32
 70
     0
102
RTVSPost2010Prop33
280
     0
102
RTVSPost2010PropOp33
 70
     0
102
RTVSPost2010Prop34
280
     0
102
RTVSPost2010PropOp34
 70
     0
102
RTVSPost2010Prop35
280
     0
102
RTVSPost2010PropOp35
 70
     0
102
RTVSPost2010Prop36
280
     0
102
RTVSPost2010PropOp36
 70
     0
102
RTVSPost2010Prop37
 90
       50
102
RTVSPost2010PropOp37
 70
     0
102
RTVSPost2010Prop38
140
0.0
102
RTVSPost2010PropOp38
 70
     0
102
RTVSPost2010Prop39
140
1.0
102
RTVSPost2010PropOp39
 70
     0
102
RTVSPost2010Prop40
 90
        0
102
RTVSPost2010PropOp40
 70
     0
102
RTVSPost2010Prop41ColorIndex
 90
       18
102
RTVSPost2010Prop41ColorRGB
 90
        0
102
RTVSPost2010PropOp41
 70
     0
102
RTVSPost2010Prop42
 90
       50
102
RTVSPost2010PropOp42
 70
     0
102
RTVSPost2010Prop43
 90
        3
102
RTVSPost2010PropOp43
 70
     0
102
RTVSPost2010Prop44ColorIndex
 90
        5
102
RTVSPost2010Prop44ColorRGB
 90
      255
102
RTVSPost2010PropOp44
 70
     0
102
RTVSPost2010Prop45
280
     0
102
RTVSPost2010PropOp45
 70
     0
102
RTVSPost2010Prop46
 90
       50
102
RTVSPost2010PropOp46
 70
     0
102
RTVSPost2010Prop47
 90
       50
102
RTVSPost2010PropOp47
 70
     0
102
RTVSPost2010Prop48
 90
       50
102
RTVSPost2010PropOp48
 70
     0
102
RTVSPost2010Prop49
280
     0
102
RTVSPost2010PropOp49
 70
     0
102
RTVSPost2010Prop50
 90
       50
102
RTVSPost2010PropOp50
 70
     0
102
RTVSPost2010Prop51ColorIndex
 90
      256
102
RTVSPost2010Prop51ColorRGB
 90
-16777216
102
RTVSPost2010PropOp51
 70
     0
102
RTVSPost2010Prop52
140
1.0
102
RTVSPost2010PropOp52
 70
     0
102
RTVSPost2010Prop53
 90
        2
102
RTVSPost2010PropOp53
 70
     0
102
RTVSPost2010Prop54
  1
strokes_ogs.tif
102
RTVSPost2010PropOp54
 70
     0
102
RTVSPost2010Prop55
280
     0
102
RTVSPost2010PropOp55
 70
     0
102
RTVSPost2010Prop56
140
1.0
102
RTVSPost2010PropOp56
 70
     0
102
RTVSPost2010Prop57
140
1.0
102
RTVSPost2010PropOp57
 70
     0
  0
XRECORD
  5
213
102
{ACAD_REACTORS
330
212
102
}
330
212
100
AcDbXrecord
280
     1
102
RTVSPropertyOp0
 70
     1
102
RTVSPropertyOp1
 70
     1
102
RTVSPropertyOp2
 70
     1
102
RTVSPropertyOp3
 70
     1
102
RTVSPropertyOp4
 70
     1
102
RTVSPropertyOp5
 70
     1
102
RTVSPropertyOp6
 70
     1
102
RTVSPropertyOp7
 70
     1
102
RTVSPropertyOp8
 70
     1
102
RTVSPropertyOp9
 70
     1
102
RTVSPropertyOp10
 70
     1
102
RTVSPropertyOp11
 70
     1
102
RTVSPropertyOp12
 70
     1
102
RTVSPropertyOp13
 70
     1
102
RTVSPropertyOp14
 70
     1
102
RTVSPropertyOp15
 70
     1
102
RTVSPropertyOp16
 70
     1
102
RTVSPropertyOp17
 70
     1
102
RTVSPropertyOp18
 70
     1
102
RTVSPropertyOp19
 70
     1
102
RTVSPropertyOp20
 70
     1
102
RTVSPropertyOp21
 70
     1
102
RTVSPropertyOp22
 70
     1
102
RTVSPropertyOp23
 70
     1
102
RTVSPropertyOp24
 70
     1
102
RTVSPropertyOp25
 70
     1
102
RTVSPropertyOp26
 70
     1
102
RTVSPropertyOp27
 70
     1
102
RTVSPropertyOp28
 70
     1
102
RTVSPropertyOp29
 70
     1
102
RTVSPropertyOp30
 70
     1
102
RTVSPropertyOp31
 70
     1
102
RTVSPropertyOp32
 70
     1
102
RTVSPropertyOp33
 70
     1
102
RTVSPropertyOp34
 70
     1
102
RTVSPropertyOp35
 70
     1
102
RTVSPropertyOp36
 70
     1
102
RTVSPropertyOp37
 70
     1
102
RTVSPropertyOp38
 70
     1
102
RTVSPropertyOp39
 70
     1
102
RTVSPropertyOp40
 70
     1
102
RTVSPropertyOp41
 70
     1
102
RTVSPropertyOp42
 70
     1
102
RTVSPropertyOp43
 70
     1
102
RTVSPropertyOp44
 70
     1
102
RTVSPropertyOp45
 70
     1
102
RTVSPropertyOp46
 70
     1
102
RTVSPropertyOp47
 70
     1
102
RTVSPropertyOp48
 70
     1
102
RTVSPropertyOp49
 70
     1
102
RTVSPropertyOp50
 70
     1
102
RTVSPropertyOp51
 70
     0
102
RTVSPropertyOp52
 70
     0
102
RTVSPropertyOp53
 70
     1
102
RTVSPropertyOp54
 70
     1
102
RTVSPropertyOp55
 70
     1
102
RTVSPropertyOp56
 70
     1
102
RTVSPropertyOp57
 70
     1
102
RTVSPost2010Prop28
280
     0
102
RTVSPost2010PropOp28
 70
     1
102
RTVSPost2010Prop29
280
     1
102
RTVSPost2010PropOp29
 70
     1
102
RTVSPost2010Prop30
280
     1
102
RTVSPost2010PropOp30
 70
     1
102
RTVSPost2010Prop31
280
     0
102
RTVSPost2010PropOp31
 70
     1
102
RTVSPost2010Prop32
280
     0
102
RTVSPost2010PropOp32
 70
     1
102
RTVSPost2010Prop33
280
     0
102
RTVSPost2010PropOp33
 70
     1
102
RTVSPost2010Prop34
280
     0
102
RTVSPost2010PropOp34
 70
     1
102
RTVSPost2010Prop35
280
     0
102
RTVSPost2010PropOp35
 70
     1
102
RTVSPost2010Prop36
280
     0
102
RTVSPost2010PropOp36
 70
     1
102
RTVSPost2010Prop37
 90
       50
102
RTVSPost2010PropOp37
 70
     1
102
RTVSPost2010Prop38
140
0.0
102
RTVSPost2010PropOp38
 70
     1
102
RTVSPost2010Prop39
140
1.0
102
RTVSPost2010PropOp39
 70
     1
102
RTVSPost2010Prop40
 90
        0
102
RTVSPost2010PropOp40
 70
     1
102
RTVSPost2010Prop41ColorIndex
 90
       18
102
RTVSPost2010Prop41ColorRGB
 90
        0
102
RTVSPost2010PropOp41
 70
     1
102
RTVSPost2010Prop42
 90
       50
102
RTVSPost2010PropOp42
 70
     1
102
RTVSPost2010Prop43
 90
        3
102
RTVSPost2010PropOp43
 70
     1
102
RTVSPost2010Prop44ColorIndex
 90
        5
102
RTVSPost2010Prop44ColorRGB
 90
      255
102
RTVSPost2010PropOp44
 70
     1
102
RTVSPost2010Prop45
280
     0
102
RTVSPost2010PropOp45
 70
     1
102
RTVSPost2010Prop46
 90
       50
102
RTVSPost2010PropOp46
 70
     1
102
RTVSPost2010Prop47
 90
       50
102
RTVSPost2010PropOp47
 70
     1
102
RTVSPost2010Prop48
 90
       50
102
RTVSPost2010PropOp48
 70
     1
102
RTVSPost2010Prop49
280
     0
102
RTVSPost2010PropOp49
 70
     1
102
RTVSPost2010Prop50
 90
       50
102
RTVSPost2010PropOp50
 70
     1
102
RTVSPost2010Prop51ColorIndex
 90
      256
102
RTVSPost2010Prop51ColorRGB
 90
-16777216
102
RTVSPost2010PropOp51
 70
     0
102
RTVSPost2010Prop52
140
1.0
102
RTVSPost2010PropOp52
 70
     0
102
RTVSPost2010Prop53
 90
        2
102
RTVSPost2010PropOp53
 70
     1
102
RTVSPost2010Prop54
  1
strokes_ogs.tif
102
RTVSPost2010PropOp54
 70
     1
102
RTVSPost2010Prop55
280
     0
102
RTVSPost2010PropOp55
 70
     1
102
RTVSPost2010Prop56
140
1.0
102
RTVSPost2010PropOp56
 70
     1
102
RTVSPost2010Prop57
140
1.0
102
RTVSPost2010PropOp57
 70
     1
  0
XRECORD
  5
21B
102
{ACAD_REACTORS
330
21A
102
}
330
21A
100
AcDbXrecord
280
     1
102
RTVSPropertyOp0
 70
     0
102
RTVSPropertyOp1
 70
     0
102
RTVSPropertyOp2
 70
     0
102
RTVSPropertyOp3
 70
     0
102
RTVSPropertyOp4
 70
     0
102
RTVSPropertyOp5
 70
     0
102
RTVSPropertyOp6
 70
     0
102
RTVSPropertyOp7
 70
     0
102
RTVSPropertyOp8
 70
     0
102
RTVSPropertyOp9
 70
     0
102
RTVSPropertyOp10
 70
     0
102
RTVSPropertyOp11
 70
     0
102
RTVSPropertyOp12
 70
     0
102
RTVSPropertyOp13
 70
     0
102
RTVSPropertyOp14
 70
     2
102
RTVSPropertyOp15
 70
     0
102
RTVSPropertyOp16
 70
     0
102
RTVSPropertyOp17
 70
     0
102
RTVSPropertyOp18
 70
     0
102
RTVSPropertyOp19
 70
     0
102
RTVSPropertyOp20
 70
     0
102
RTVSPropertyOp21
 70
     0
102
RTVSPropertyOp22
 70
     0
102
RTVSPropertyOp23
 70
     0
102
RTVSPropertyOp24
 70
     0
102
RTVSPropertyOp25
 70
     0
102
RTVSPropertyOp26
 70
     0
102
RTVSPropertyOp27
 70
     0
102
RTVSPropertyOp28
 70
     0
102
RTVSPropertyOp29
 70
     0
102
RTVSPropertyOp30
 70
     0
102
RTVSPropertyOp31
 70
     0
102
RTVSPropertyOp32
 70
     0
102
RTVSPropertyOp33
 70
     0
102
RTVSPropertyOp34
 70
     0
102
RTVSPropertyOp35
 70
     0
102
RTVSPropertyOp36
 70
     0
102
RTVSPropertyOp37
 70
     0
102
RTVSPropertyOp38
 70
     0
102
RTVSPropertyOp39
 70
     0
102
RTVSPropertyOp40
 70
     0
102
RTVSPropertyOp41
 70
     0
102
RTVSPropertyOp42
 70
     0
102
RTVSPropertyOp43
 70
     0
102
RTVSPropertyOp44
 70
     0
102
RTVSPropertyOp45
 70
     0
102
RTVSPropertyOp46
 70
     0
102
RTVSPropertyOp47
 70
     0
102
RTVSPropertyOp48
 70
     0
102
RTVSPropertyOp49
 70
     0
102
RTVSPropertyOp50
 70
     0
102
RTVSPropertyOp51
 70
     0
102
RTVSPropertyOp52
 70
     0
102
RTVSPropertyOp53
 70
     0
102
RTVSPropertyOp54
 70
     0
102
RTVSPropertyOp55
 70
     0
102
RTVSPropertyOp56
 70
     0
102
RTVSPropertyOp57
 70
     0
102
RTVSPost2010Prop28
280
     0
102
RTVSPost2010PropOp28
 70
     0
102
RTVSPost2010Prop29
280
     1
102
RTVSPost2010PropOp29
 70
     0
102
RTVSPost2010Prop30
280
     1
102
RTVSPost2010PropOp30
 70
     0
102
RTVSPost2010Prop31
280
     0
102
RTVSPost2010PropOp31
 70
     0
102
RTVSPost2010Prop32
280
     0
102
RTVSPost2010PropOp32
 70
     0
102
RTVSPost2010Prop33
280
     0
102
RTVSPost2010PropOp33
 70
     0
102
RTVSPost2010Prop34
280
     0
102
RTVSPost2010PropOp34
 70
     0
102
RTVSPost2010Prop35
280
     0
102
RTVSPost2010PropOp35
 70
     0
102
RTVSPost2010Prop36
280
     0
102
RTVSPost2010PropOp36
 70
     0
102
RTVSPost2010Prop37
 90
       50
102
RTVSPost2010PropOp37
 70
     0
102
RTVSPost2010Prop38
140
0.0
102
RTVSPost2010PropOp38
 70
     0
102
RTVSPost2010Prop39
140
1.0
102
RTVSPost2010PropOp39
 70
     0
102
RTVSPost2010Prop40
 90
        0
102
RTVSPost2010PropOp40
 70
     0
102
RTVSPost2010Prop41ColorIndex
 90
       18
102
RTVSPost2010Prop41ColorRGB
 90
        0
102
RTVSPost2010PropOp41
 70
     0
102
RTVSPost2010Prop42
 90
       50
102
RTVSPost2010PropOp42
 70
     0
102
RTVSPost2010Prop43
 90
        3
102
RTVSPost2010PropOp43
 70
     0
102
RTVSPost2010Prop44ColorIndex
 90
        5
102
RTVSPost2010Prop44ColorRGB
 90
      255
102
RTVSPost2010PropOp44
 70
     0
102
RTVSPost2010Prop45
280
     0
102
RTVSPost2010PropOp45
 70
     0
102
RTVSPost2010Prop46
 90
       50
102
RTVSPost2010PropOp46
 70
     0
102
RTVSPost2010Prop47
 90
       50
102
RTVSPost2010PropOp47
 70
     0
102
RTVSPost2010Prop48
 90
       50
102
RTVSPost2010PropOp48
 70
     0
102
RTVSPost2010Prop49
280
     0
102
RTVSPost2010PropOp49
 70
     0
102
RTVSPost2010Prop50
 90
       50
102
RTVSPost2010PropOp50
 70
     0
102
RTVSPost2010Prop51ColorIndex
 90
      256
102
RTVSPost2010Prop51ColorRGB
 90
-16777216
102
RTVSPost2010PropOp51
 70
     0
102
RTVSPost2010Prop52
140
1.0
102
RTVSPost2010PropOp52
 70
     0
102
RTVSPost2010Prop53
 90
        2
102
RTVSPost2010PropOp53
 70
     0
102
RTVSPost2010Prop54
  1
strokes_ogs.tif
102
RTVSPost2010PropOp54
 70
     0
102
RTVSPost2010Prop55
280
     0
102
RTVSPost2010PropOp55
 70
     0
102
RTVSPost2010Prop56
140
1.0
102
RTVSPost2010PropOp56
 70
     0
102
RTVSPost2010Prop57
140
1.0
102
RTVSPost2010PropOp57
 70
     0
  0
XRECORD
  5
209
102
{ACAD_REACTORS
330
208
102
}
330
208
100
AcDbXrecord
280
     1
102
RTVSPropertyOp0
 70
     1
102
RTVSPropertyOp1
 70
     1
102
RTVSPropertyOp2
 70
     1
102
RTVSPropertyOp3
 70
     1
102
RTVSPropertyOp4
 70
     1
102
RTVSPropertyOp5
 70
     1
102
RTVSPropertyOp6
 70
     1
102
RTVSPropertyOp7
 70
     1
102
RTVSPropertyOp8
 70
     1
102
RTVSPropertyOp9
 70
     1
102
RTVSPropertyOp10
 70
     1
102
RTVSPropertyOp11
 70
     1
102
RTVSPropertyOp12
 70
     1
102
RTVSPropertyOp13
 70
     1
102
RTVSPropertyOp14
 70
     1
102
RTVSPropertyOp15
 70
     1
102
RTVSPropertyOp16
 70
     1
102
RTVSPropertyOp17
 70
     1
102
RTVSPropertyOp18
 70
     1
102
RTVSPropertyOp19
 70
     1
102
RTVSPropertyOp20
 70
     1
102
RTVSPropertyOp21
 70
     1
102
RTVSPropertyOp22
 70
     1
102
RTVSPropertyOp23
 70
     1
102
RTVSPropertyOp24
 70
     1
102
RTVSPropertyOp25
 70
     1
102
RTVSPropertyOp26
 70
     1
102
RTVSPropertyOp27
 70
     1
102
RTVSPropertyOp28
 70
     1
102
RTVSPropertyOp29
 70
     1
102
RTVSPropertyOp30
 70
     1
102
RTVSPropertyOp31
 70
     1
102
RTVSPropertyOp32
 70
     1
102
RTVSPropertyOp33
 70
     1
102
RTVSPropertyOp34
 70
     1
102
RTVSPropertyOp35
 70
     1
102
RTVSPropertyOp36
 70
     1
102
RTVSPropertyOp37
 70
     1
102
RTVSPropertyOp38
 70
     1
102
RTVSPropertyOp39
 70
     1
102
RTVSPropertyOp40
 70
     1
102
RTVSPropertyOp41
 70
     1
102
RTVSPropertyOp42
 70
     1
102
RTVSPropertyOp43
 70
     1
102
RTVSPropertyOp44
 70
     1
102
RTVSPropertyOp45
 70
     1
102
RTVSPropertyOp46
 70
     1
102
RTVSPropertyOp47
 70
     1
102
RTVSPropertyOp48
 70
     1
102
RTVSPropertyOp49
 70
     1
102
RTVSPropertyOp50
 70
     1
102
RTVSPropertyOp51
 70
     0
102
RTVSPropertyOp52
 70
     0
102
RTVSPropertyOp53
 70
     1
102
RTVSPropertyOp54
 70
     1
102
RTVSPropertyOp55
 70
     1
102
RTVSPropertyOp56
 70
     1
102
RTVSPropertyOp57
 70
     1
102
RTVSPost2010Prop28
280
     0
102
RTVSPost2010PropOp28
 70
     1
102
RTVSPost2010Prop29
280
     1
102
RTVSPost2010PropOp29
 70
     1
102
RTVSPost2010Prop30
280
     1
102
RTVSPost2010PropOp30
 70
     1
102
RTVSPost2010Prop31
280
     0
102
RTVSPost2010PropOp31
 70
     1
102
RTVSPost2010Prop32
280
     0
102
RTVSPost2010PropOp32
 70
     1
102
RTVSPost2010Prop33
280
     0
102
RTVSPost2010PropOp33
 70
     1
102
RTVSPost2010Prop34
280
     0
102
RTVSPost2010PropOp34
 70
     1
102
RTVSPost2010Prop35
280
     0
102
RTVSPost2010PropOp35
 70
     1
102
RTVSPost2010Prop36
280
     0
102
RTVSPost2010PropOp36
 70
     1
102
RTVSPost2010Prop37
 90
       50
102
RTVSPost2010PropOp37
 70
     1
102
RTVSPost2010Prop38
140
0.0
102
RTVSPost2010PropOp38
 70
     1
102
RTVSPost2010Prop39
140
1.0
102
RTVSPost2010PropOp39
 70
     1
102
RTVSPost2010Prop40
 90
        0
102
RTVSPost2010PropOp40
 70
     1
102
RTVSPost2010Prop41ColorIndex
 90
       18
102
RTVSPost2010Prop41ColorRGB
 90
        0
102
RTVSPost2010PropOp41
 70
     1
102
RTVSPost2010Prop42
 90
       50
102
RTVSPost2010PropOp42
 70
     1
102
RTVSPost2010Prop43
 90
        3
102
RTVSPost2010PropOp43
 70
     1
102
RTVSPost2010Prop44ColorIndex
 90
        5
102
RTVSPost2010Prop44ColorRGB
 90
      255
102
RTVSPost2010PropOp44
 70
     1
102
RTVSPost2010Prop45
280
     0
102
RTVSPost2010PropOp45
 70
     1
102
RTVSPost2010Prop46
 90
       50
102
RTVSPost2010PropOp46
 70
     1
102
RTVSPost2010Prop47
 90
       50
102
RTVSPost2010PropOp47
 70
     1
102
RTVSPost2010Prop48
 90
       50
102
RTVSPost2010PropOp48
 70
     1
102
RTVSPost2010Prop49
280
     0
102
RTVSPost2010PropOp49
 70
     1
102
RTVSPost2010Prop50
 90
       50
102
RTVSPost2010PropOp50
 70
     1
102
RTVSPost2010Prop51ColorIndex
 90
      256
102
RTVSPost2010Prop51ColorRGB
 90
-16777216
102
RTVSPost2010PropOp51
 70
     0
102
RTVSPost2010Prop52
140
1.0
102
RTVSPost2010PropOp52
 70
     0
102
RTVSPost2010Prop53
 90
        2
102
RTVSPost2010PropOp53
 70
     1
102
RTVSPost2010Prop54
  1
strokes_ogs.tif
102
RTVSPost2010PropOp54
 70
     1
102
RTVSPost2010Prop55
280
     0
102
RTVSPost2010PropOp55
 70
     1
102
RTVSPost2010Prop56
140
1.0
102
RTVSPost2010PropOp56
 70
     1
102
RTVSPost2010Prop57
140
1.0
102
RTVSPost2010PropOp57
 70
     1
  0
XRECORD
  5
227
102
{ACAD_REACTORS
330
226
102
}
330
226
100
AcDbXrecord
280
     1
102
RTVSPropertyOp0
 70
     1
102
RTVSPropertyOp1
 70
     1
102
RTVSPropertyOp2
 70
     1
102
RTVSPropertyOp3
 70
     1
102
RTVSPropertyOp4
 70
     1
102
RTVSPropertyOp5
 70
     1
102
RTVSPropertyOp6
 70
     1
102
RTVSPropertyOp7
 70
     1
102
RTVSPropertyOp8
 70
     1
102
RTVSPropertyOp9
 70
     1
102
RTVSPropertyOp10
 70
     1
102
RTVSPropertyOp11
 70
     1
102
RTVSPropertyOp12
 70
     1
102
RTVSPropertyOp13
 70
     1
102
RTVSPropertyOp14
 70
     1
102
RTVSPropertyOp15
 70
     1
102
RTVSPropertyOp16
 70
     1
102
RTVSPropertyOp17
 70
     1
102
RTVSPropertyOp18
 70
     1
102
RTVSPropertyOp19
 70
     1
102
RTVSPropertyOp20
 70
     1
102
RTVSPropertyOp21
 70
     1
102
RTVSPropertyOp22
 70
     1
102
RTVSPropertyOp23
 70
     1
102
RTVSPropertyOp24
 70
     1
102
RTVSPropertyOp25
 70
     1
102
RTVSPropertyOp26
 70
     1
102
RTVSPropertyOp27
 70
     1
102
RTVSPropertyOp28
 70
     1
102
RTVSPropertyOp29
 70
     1
102
RTVSPropertyOp30
 70
     1
102
RTVSPropertyOp31
 70
     1
102
RTVSPropertyOp32
 70
     1
102
RTVSPropertyOp33
 70
     1
102
RTVSPropertyOp34
 70
     1
102
RTVSPropertyOp35
 70
     1
102
RTVSPropertyOp36
 70
     1
102
RTVSPropertyOp37
 70
     1
102
RTVSPropertyOp38
 70
     1
102
RTVSPropertyOp39
 70
     1
102
RTVSPropertyOp40
 70
     1
102
RTVSPropertyOp41
 70
     1
102
RTVSPropertyOp42
 70
     1
102
RTVSPropertyOp43
 70
     1
102
RTVSPropertyOp44
 70
     1
102
RTVSPropertyOp45
 70
     1
102
RTVSPropertyOp46
 70
     1
102
RTVSPropertyOp47
 70
     1
102
RTVSPropertyOp48
 70
     1
102
RTVSPropertyOp49
 70
     1
102
RTVSPropertyOp50
 70
     1
102
RTVSPropertyOp51
 70
     0
102
RTVSPropertyOp52
 70
     0
102
RTVSPropertyOp53
 70
     1
102
RTVSPropertyOp54
 70
     1
102
RTVSPropertyOp55
 70
     1
102
RTVSPropertyOp56
 70
     1
102
RTVSPropertyOp57
 70
     1
102
RTVSPost2010Prop28
280
     0
102
RTVSPost2010PropOp28
 70
     1
102
RTVSPost2010Prop29
280
     1
102
RTVSPost2010PropOp29
 70
     1
102
RTVSPost2010Prop30
280
     1
102
RTVSPost2010PropOp30
 70
     1
102
RTVSPost2010Prop31
280
     0
102
RTVSPost2010PropOp31
 70
     1
102
RTVSPost2010Prop32
280
     0
102
RTVSPost2010PropOp32
 70
     1
102
RTVSPost2010Prop33
280
     0
102
RTVSPost2010PropOp33
 70
     1
102
RTVSPost2010Prop34
280
     0
102
RTVSPost2010PropOp34
 70
     1
102
RTVSPost2010Prop35
280
     0
102
RTVSPost2010PropOp35
 70
     1
102
RTVSPost2010Prop36
280
     0
102
RTVSPost2010PropOp36
 70
     1
102
RTVSPost2010Prop37
 90
       50
102
RTVSPost2010PropOp37
 70
     1
102
RTVSPost2010Prop38
140
0.0
102
RTVSPost2010PropOp38
 70
     1
102
RTVSPost2010Prop39
140
1.0
102
RTVSPost2010PropOp39
 70
     1
102
RTVSPost2010Prop40
 90
        0
102
RTVSPost2010PropOp40
 70
     1
102
RTVSPost2010Prop41ColorIndex
 90
       18
102
RTVSPost2010Prop41ColorRGB
 90
        0
102
RTVSPost2010PropOp41
 70
     1
102
RTVSPost2010Prop42
 90
       50
102
RTVSPost2010PropOp42
 70
     1
102
RTVSPost2010Prop43
 90
        3
102
RTVSPost2010PropOp43
 70
     1
102
RTVSPost2010Prop44ColorIndex
 90
        5
102
RTVSPost2010Prop44ColorRGB
 90
      255
102
RTVSPost2010PropOp44
 70
     1
102
RTVSPost2010Prop45
280
     0
102
RTVSPost2010PropOp45
 70
     1
102
RTVSPost2010Prop46
 90
       50
102
RTVSPost2010PropOp46
 70
     1
102
RTVSPost2010Prop47
 90
       50
102
RTVSPost2010PropOp47
 70
     1
102
RTVSPost2010Prop48
 90
       50
102
RTVSPost2010PropOp48
 70
     1
102
RTVSPost2010Prop49
280
     0
102
RTVSPost2010PropOp49
 70
     1
102
RTVSPost2010Prop50
 90
       50
102
RTVSPost2010PropOp50
 70
     1
102
RTVSPost2010Prop51ColorIndex
 90
      256
102
RTVSPost2010Prop51ColorRGB
 90
-16777216
102
RTVSPost2010PropOp51
 70
     0
102
RTVSPost2010Prop52
140
1.0
102
RTVSPost2010PropOp52
 70
     0
102
RTVSPost2010Prop53
 90
        2
102
RTVSPost2010PropOp53
 70
     1
102
RTVSPost2010Prop54
  1
strokes_ogs.tif
102
RTVSPost2010PropOp54
 70
     1
102
RTVSPost2010Prop55
280
     0
102
RTVSPost2010PropOp55
 70
     1
102
RTVSPost2010Prop56
140
1.0
102
RTVSPost2010PropOp56
 70
     1
102
RTVSPost2010Prop57
140
1.0
102
RTVSPost2010PropOp57
 70
     1
  0
XRECORD
  5
225
102
{ACAD_REACTORS
330
224
102
}
330
224
100
AcDbXrecord
280
     1
102
RTVSPropertyOp0
 70
     1
102
RTVSPropertyOp1
 70
     1
102
RTVSPropertyOp2
 70
     1
102
RTVSPropertyOp3
 70
     1
102
RTVSPropertyOp4
 70
     1
102
RTVSPropertyOp5
 70
     1
102
RTVSPropertyOp6
 70
     1
102
RTVSPropertyOp7
 70
     1
102
RTVSPropertyOp8
 70
     1
102
RTVSPropertyOp9
 70
     1
102
RTVSPropertyOp10
 70
     1
102
RTVSPropertyOp11
 70
     1
102
RTVSPropertyOp12
 70
     1
102
RTVSPropertyOp13
 70
     1
102
RTVSPropertyOp14
 70
     1
102
RTVSPropertyOp15
 70
     1
102
RTVSPropertyOp16
 70
     1
102
RTVSPropertyOp17
 70
     1
102
RTVSPropertyOp18
 70
     1
102
RTVSPropertyOp19
 70
     1
102
RTVSPropertyOp20
 70
     1
102
RTVSPropertyOp21
 70
     1
102
RTVSPropertyOp22
 70
     1
102
RTVSPropertyOp23
 70
     1
102
RTVSPropertyOp24
 70
     1
102
RTVSPropertyOp25
 70
     1
102
RTVSPropertyOp26
 70
     1
102
RTVSPropertyOp27
 70
     1
102
RTVSPropertyOp28
 70
     1
102
RTVSPropertyOp29
 70
     1
102
RTVSPropertyOp30
 70
     1
102
RTVSPropertyOp31
 70
     1
102
RTVSPropertyOp32
 70
     1
102
RTVSPropertyOp33
 70
     1
102
RTVSPropertyOp34
 70
     1
102
RTVSPropertyOp35
 70
     1
102
RTVSPropertyOp36
 70
     1
102
RTVSPropertyOp37
 70
     1
102
RTVSPropertyOp38
 70
     1
102
RTVSPropertyOp39
 70
     1
102
RTVSPropertyOp40
 70
     1
102
RTVSPropertyOp41
 70
     1
102
RTVSPropertyOp42
 70
     1
102
RTVSPropertyOp43
 70
     1
102
RTVSPropertyOp44
 70
     1
102
RTVSPropertyOp45
 70
     1
102
RTVSPropertyOp46
 70
     1
102
RTVSPropertyOp47
 70
     1
102
RTVSPropertyOp48
 70
     1
102
RTVSPropertyOp49
 70
     1
102
RTVSPropertyOp50
 70
     1
102
RTVSPropertyOp51
 70
     0
102
RTVSPropertyOp52
 70
     0
102
RTVSPropertyOp53
 70
     1
102
RTVSPropertyOp54
 70
     1
102
RTVSPropertyOp55
 70
     1
102
RTVSPropertyOp56
 70
     1
102
RTVSPropertyOp57
 70
     1
102
RTVSPost2010Prop28
280
     0
102
RTVSPost2010PropOp28
 70
     1
102
RTVSPost2010Prop29
280
     1
102
RTVSPost2010PropOp29
 70
     1
102
RTVSPost2010Prop30
280
     1
102
RTVSPost2010PropOp30
 70
     1
102
RTVSPost2010Prop31
280
     0
102
RTVSPost2010PropOp31
 70
     1
102
RTVSPost2010Prop32
280
     0
102
RTVSPost2010PropOp32
 70
     1
102
RTVSPost2010Prop33
280
     0
102
RTVSPost2010PropOp33
 70
     1
102
RTVSPost2010Prop34
280
     0
102
RTVSPost2010PropOp34
 70
     1
102
RTVSPost2010Prop35
280
     0
102
RTVSPost2010PropOp35
 70
     1
102
RTVSPost2010Prop36
280
     0
102
RTVSPost2010PropOp36
 70
     1
102
RTVSPost2010Prop37
 90
       50
102
RTVSPost2010PropOp37
 70
     1
102
RTVSPost2010Prop38
140
0.0
102
RTVSPost2010PropOp38
 70
     1
102
RTVSPost2010Prop39
140
1.0
102
RTVSPost2010PropOp39
 70
     1
102
RTVSPost2010Prop40
 90
        0
102
RTVSPost2010PropOp40
 70
     1
102
RTVSPost2010Prop41ColorIndex
 90
       18
102
RTVSPost2010Prop41ColorRGB
 90
        0
102
RTVSPost2010PropOp41
 70
     1
102
RTVSPost2010Prop42
 90
       50
102
RTVSPost2010PropOp42
 70
     1
102
RTVSPost2010Prop43
 90
        3
102
RTVSPost2010PropOp43
 70
     1
102
RTVSPost2010Prop44ColorIndex
 90
        5
102
RTVSPost2010Prop44ColorRGB
 90
      255
102
RTVSPost2010PropOp44
 70
     1
102
RTVSPost2010Prop45
280
     0
102
RTVSPost2010PropOp45
 70
     1
102
RTVSPost2010Prop46
 90
       50
102
RTVSPost2010PropOp46
 70
     1
102
RTVSPost2010Prop47
 90
       50
102
RTVSPost2010PropOp47
 70
     1
102
RTVSPost2010Prop48
 90
       50
102
RTVSPost2010PropOp48
 70
     1
102
RTVSPost2010Prop49
280
     0
102
RTVSPost2010PropOp49
 70
     1
102
RTVSPost2010Prop50
 90
       50
102
RTVSPost2010PropOp50
 70
     1
102
RTVSPost2010Prop51ColorIndex
 90
      256
102
RTVSPost2010Prop51ColorRGB
 90
-16777216
102
RTVSPost2010PropOp51
 70
     0
102
RTVSPost2010Prop52
140
1.0
102
RTVSPost2010PropOp52
 70
     0
102
RTVSPost2010Prop53
 90
        2
102
RTVSPost2010PropOp53
 70
     1
102
RTVSPost2010Prop54
  1
strokes_ogs.tif
102
RTVSPost2010PropOp54
 70
     1
102
RTVSPost2010Prop55
280
     0
102
RTVSPost2010PropOp55
 70
     1
102
RTVSPost2010Prop56
140
1.0
102
RTVSPost2010PropOp56
 70
     1
102
RTVSPost2010Prop57
140
1.0
102
RTVSPost2010PropOp57
 70
     1
  0
XRECORD
  5
21F
102
{ACAD_REACTORS
330
21E
102
}
330
21E
100
AcDbXrecord
280
     1
102
RTVSPropertyOp0
 70
     1
102
RTVSPropertyOp1
 70
     1
102
RTVSPropertyOp2
 70
     1
102
RTVSPropertyOp3
 70
     1
102
RTVSPropertyOp4
 70
     1
102
RTVSPropertyOp5
 70
     1
102
RTVSPropertyOp6
 70
     1
102
RTVSPropertyOp7
 70
     1
102
RTVSPropertyOp8
 70
     1
102
RTVSPropertyOp9
 70
     1
102
RTVSPropertyOp10
 70
     1
102
RTVSPropertyOp11
 70
     1
102
RTVSPropertyOp12
 70
     1
102
RTVSPropertyOp13
 70
     1
102
RTVSPropertyOp14
 70
     1
102
RTVSPropertyOp15
 70
     1
102
RTVSPropertyOp16
 70
     1
102
RTVSPropertyOp17
 70
     1
102
RTVSPropertyOp18
 70
     1
102
RTVSPropertyOp19
 70
     1
102
RTVSPropertyOp20
 70
     1
102
RTVSPropertyOp21
 70
     1
102
RTVSPropertyOp22
 70
     1
102
RTVSPropertyOp23
 70
     1
102
RTVSPropertyOp24
 70
     1
102
RTVSPropertyOp25
 70
     1
102
RTVSPropertyOp26
 70
     1
102
RTVSPropertyOp27
 70
     1
102
RTVSPropertyOp28
 70
     1
102
RTVSPropertyOp29
 70
     1
102
RTVSPropertyOp30
 70
     1
102
RTVSPropertyOp31
 70
     1
102
RTVSPropertyOp32
 70
     1
102
RTVSPropertyOp33
 70
     1
102
RTVSPropertyOp34
 70
     1
102
RTVSPropertyOp35
 70
     1
102
RTVSPropertyOp36
 70
     1
102
RTVSPropertyOp37
 70
     1
102
RTVSPropertyOp38
 70
     1
102
RTVSPropertyOp39
 70
     1
102
RTVSPropertyOp40
 70
     1
102
RTVSPropertyOp41
 70
     1
102
RTVSPropertyOp42
 70
     1
102
RTVSPropertyOp43
 70
     1
102
RTVSPropertyOp44
 70
     1
102
RTVSPropertyOp45
 70
     1
102
RTVSPropertyOp46
 70
     1
102
RTVSPropertyOp47
 70
     1
102
RTVSPropertyOp48
 70
     1
102
RTVSPropertyOp49
 70
     1
102
RTVSPropertyOp50
 70
     1
102
RTVSPropertyOp51
 70
     0
102
RTVSPropertyOp52
 70
     0
102
RTVSPropertyOp53
 70
     1
102
RTVSPropertyOp54
 70
     1
102
RTVSPropertyOp55
 70
     1
102
RTVSPropertyOp56
 70
     1
102
RTVSPropertyOp57
 70
     1
102
RTVSPost2010Prop28
280
     0
102
RTVSPost2010PropOp28
 70
     1
102
RTVSPost2010Prop29
280
     1
102
RTVSPost2010PropOp29
 70
     1
102
RTVSPost2010Prop30
280
     1
102
RTVSPost2010PropOp30
 70
     1
102
RTVSPost2010Prop31
280
     0
102
RTVSPost2010PropOp31
 70
     1
102
RTVSPost2010Prop32
280
     0
102
RTVSPost2010PropOp32
 70
     1
102
RTVSPost2010Prop33
280
     0
102
RTVSPost2010PropOp33
 70
     1
102
RTVSPost2010Prop34
280
     0
102
RTVSPost2010PropOp34
 70
     1
102
RTVSPost2010Prop35
280
     0
102
RTVSPost2010PropOp35
 70
     1
102
RTVSPost2010Prop36
280
     0
102
RTVSPost2010PropOp36
 70
     1
102
RTVSPost2010Prop37
 90
       50
102
RTVSPost2010PropOp37
 70
     1
102
RTVSPost2010Prop38
140
0.0
102
RTVSPost2010PropOp38
 70
     1
102
RTVSPost2010Prop39
140
1.0
102
RTVSPost2010PropOp39
 70
     1
102
RTVSPost2010Prop40
 90
        0
102
RTVSPost2010PropOp40
 70
     1
102
RTVSPost2010Prop41ColorIndex
 90
       18
102
RTVSPost2010Prop41ColorRGB
 90
        0
102
RTVSPost2010PropOp41
 70
     1
102
RTVSPost2010Prop42
 90
       50
102
RTVSPost2010PropOp42
 70
     1
102
RTVSPost2010Prop43
 90
        3
102
RTVSPost2010PropOp43
 70
     1
102
RTVSPost2010Prop44ColorIndex
 90
        5
102
RTVSPost2010Prop44ColorRGB
 90
      255
102
RTVSPost2010PropOp44
 70
     1
102
RTVSPost2010Prop45
280
     0
102
RTVSPost2010PropOp45
 70
     1
102
RTVSPost2010Prop46
 90
       50
102
RTVSPost2010PropOp46
 70
     1
102
RTVSPost2010Prop47
 90
       50
102
RTVSPost2010PropOp47
 70
     1
102
RTVSPost2010Prop48
 90
       50
102
RTVSPost2010PropOp48
 70
     1
102
RTVSPost2010Prop49
280
     0
102
RTVSPost2010PropOp49
 70
     1
102
RTVSPost2010Prop50
 90
       50
102
RTVSPost2010PropOp50
 70
     1
102
RTVSPost2010Prop51ColorIndex
 90
      256
102
RTVSPost2010Prop51ColorRGB
 90
-16777216
102
RTVSPost2010PropOp51
 70
     0
102
RTVSPost2010Prop52
140
1.0
102
RTVSPost2010PropOp52
 70
     0
102
RTVSPost2010Prop53
 90
        2
102
RTVSPost2010PropOp53
 70
     1
102
RTVSPost2010Prop54
  1
strokes_ogs.tif
102
RTVSPost2010PropOp54
 70
     1
102
RTVSPost2010Prop55
280
     0
102
RTVSPost2010PropOp55
 70
     1
102
RTVSPost2010Prop56
140
1.0
102
RTVSPost2010PropOp56
 70
     1
102
RTVSPost2010Prop57
140
1.0
102
RTVSPost2010PropOp57
 70
     1
  0
XRECORD
  5
221
102
{ACAD_REACTORS
330
220
102
}
330
220
100
AcDbXrecord
280
     1
102
RTVSPropertyOp0
 70
     1
102
RTVSPropertyOp1
 70
     1
102
RTVSPropertyOp2
 70
     1
102
RTVSPropertyOp3
 70
     1
102
RTVSPropertyOp4
 70
     1
102
RTVSPropertyOp5
 70
     1
102
RTVSPropertyOp6
 70
     1
102
RTVSPropertyOp7
 70
     1
102
RTVSPropertyOp8
 70
     1
102
RTVSPropertyOp9
 70
     1
102
RTVSPropertyOp10
 70
     1
102
RTVSPropertyOp11
 70
     1
102
RTVSPropertyOp12
 70
     1
102
RTVSPropertyOp13
 70
     1
102
RTVSPropertyOp14
 70
     1
102
RTVSPropertyOp15
 70
     1
102
RTVSPropertyOp16
 70
     1
102
RTVSPropertyOp17
 70
     1
102
RTVSPropertyOp18
 70
     1
102
RTVSPropertyOp19
 70
     1
102
RTVSPropertyOp20
 70
     1
102
RTVSPropertyOp21
 70
     1
102
RTVSPropertyOp22
 70
     1
102
RTVSPropertyOp23
 70
     1
102
RTVSPropertyOp24
 70
     1
102
RTVSPropertyOp25
 70
     1
102
RTVSPropertyOp26
 70
     1
102
RTVSPropertyOp27
 70
     1
102
RTVSPropertyOp28
 70
     1
102
RTVSPropertyOp29
 70
     1
102
RTVSPropertyOp30
 70
     1
102
RTVSPropertyOp31
 70
     1
102
RTVSPropertyOp32
 70
     1
102
RTVSPropertyOp33
 70
     1
102
RTVSPropertyOp34
 70
     1
102
RTVSPropertyOp35
 70
     1
102
RTVSPropertyOp36
 70
     1
102
RTVSPropertyOp37
 70
     1
102
RTVSPropertyOp38
 70
     1
102
RTVSPropertyOp39
 70
     1
102
RTVSPropertyOp40
 70
     1
102
RTVSPropertyOp41
 70
     1
102
RTVSPropertyOp42
 70
     1
102
RTVSPropertyOp43
 70
     1
102
RTVSPropertyOp44
 70
     1
102
RTVSPropertyOp45
 70
     1
102
RTVSPropertyOp46
 70
     1
102
RTVSPropertyOp47
 70
     1
102
RTVSPropertyOp48
 70
     1
102
RTVSPropertyOp49
 70
     1
102
RTVSPropertyOp50
 70
     1
102
RTVSPropertyOp51
 70
     0
102
RTVSPropertyOp52
 70
     0
102
RTVSPropertyOp53
 70
     1
102
RTVSPropertyOp54
 70
     1
102
RTVSPropertyOp55
 70
     1
102
RTVSPropertyOp56
 70
     1
102
RTVSPropertyOp57
 70
     1
102
RTVSPost2010Prop28
280
     0
102
RTVSPost2010PropOp28
 70
     1
102
RTVSPost2010Prop29
280
     1
102
RTVSPost2010PropOp29
 70
     1
102
RTVSPost2010Prop30
280
     1
102
RTVSPost2010PropOp30
 70
     1
102
RTVSPost2010Prop31
280
     0
102
RTVSPost2010PropOp31
 70
     1
102
RTVSPost2010Prop32
280
     0
102
RTVSPost2010PropOp32
 70
     1
102
RTVSPost2010Prop33
280
     0
102
RTVSPost2010PropOp33
 70
     1
102
RTVSPost2010Prop34
280
     0
102
RTVSPost2010PropOp34
 70
     1
102
RTVSPost2010Prop35
280
     0
102
RTVSPost2010PropOp35
 70
     1
102
RTVSPost2010Prop36
280
     0
102
RTVSPost2010PropOp36
 70
     1
102
RTVSPost2010Prop37
 90
       50
102
RTVSPost2010PropOp37
 70
     1
102
RTVSPost2010Prop38
140
0.0
102
RTVSPost2010PropOp38
 70
     1
102
RTVSPost2010Prop39
140
1.0
102
RTVSPost2010PropOp39
 70
     1
102
RTVSPost2010Prop40
 90
        0
102
RTVSPost2010PropOp40
 70
     1
102
RTVSPost2010Prop41ColorIndex
 90
       18
102
RTVSPost2010Prop41ColorRGB
 90
        0
102
RTVSPost2010PropOp41
 70
     1
102
RTVSPost2010Prop42
 90
       50
102
RTVSPost2010PropOp42
 70
     1
102
RTVSPost2010Prop43
 90
        3
102
RTVSPost2010PropOp43
 70
     1
102
RTVSPost2010Prop44ColorIndex
 90
        5
102
RTVSPost2010Prop44ColorRGB
 90
      255
102
RTVSPost2010PropOp44
 70
     1
102
RTVSPost2010Prop45
280
     0
102
RTVSPost2010PropOp45
 70
     1
102
RTVSPost2010Prop46
 90
       50
102
RTVSPost2010PropOp46
 70
     1
102
RTVSPost2010Prop47
 90
       50
102
RTVSPost2010PropOp47
 70
     1
102
RTVSPost2010Prop48
 90
       50
102
RTVSPost2010PropOp48
 70
     1
102
RTVSPost2010Prop49
280
     0
102
RTVSPost2010PropOp49
 70
     1
102
RTVSPost2010Prop50
 90
       50
102
RTVSPost2010PropOp50
 70
     1
102
RTVSPost2010Prop51ColorIndex
 90
      256
102
RTVSPost2010Prop51ColorRGB
 90
-16777216
102
RTVSPost2010PropOp51
 70
     0
102
RTVSPost2010Prop52
140
1.0
102
RTVSPost2010PropOp52
 70
     0
102
RTVSPost2010Prop53
 90
        2
102
RTVSPost2010PropOp53
 70
     1
102
RTVSPost2010Prop54
  1
strokes_ogs.tif
102
RTVSPost2010PropOp54
 70
     1
102
RTVSPost2010Prop55
280
     0
102
RTVSPost2010PropOp55
 70
     1
102
RTVSPost2010Prop56
140
1.0
102
RTVSPost2010PropOp56
 70
     1
102
RTVSPost2010Prop57
140
1.0
102
RTVSPost2010PropOp57
 70
     1
  0
XRECORD
  5
211
102
{ACAD_REACTORS
330
210
102
}
330
210
100
AcDbXrecord
280
     1
102
RTVSPropertyOp0
 70
     1
102
RTVSPropertyOp1
 70
     1
102
RTVSPropertyOp2
 70
     1
102
RTVSPropertyOp3
 70
     1
102
RTVSPropertyOp4
 70
     1
102
RTVSPropertyOp5
 70
     1
102
RTVSPropertyOp6
 70
     1
102
RTVSPropertyOp7
 70
     1
102
RTVSPropertyOp8
 70
     1
102
RTVSPropertyOp9
 70
     1
102
RTVSPropertyOp10
 70
     1
102
RTVSPropertyOp11
 70
     1
102
RTVSPropertyOp12
 70
     1
102
RTVSPropertyOp13
 70
     1
102
RTVSPropertyOp14
 70
     1
102
RTVSPropertyOp15
 70
     1
102
RTVSPropertyOp16
 70
     1
102
RTVSPropertyOp17
 70
     1
102
RTVSPropertyOp18
 70
     1
102
RTVSPropertyOp19
 70
     1
102
RTVSPropertyOp20
 70
     1
102
RTVSPropertyOp21
 70
     1
102
RTVSPropertyOp22
 70
     1
102
RTVSPropertyOp23
 70
     1
102
RTVSPropertyOp24
 70
     1
102
RTVSPropertyOp25
 70
     1
102
RTVSPropertyOp26
 70
     1
102
RTVSPropertyOp27
 70
     1
102
RTVSPropertyOp28
 70
     1
102
RTVSPropertyOp29
 70
     1
102
RTVSPropertyOp30
 70
     1
102
RTVSPropertyOp31
 70
     1
102
RTVSPropertyOp32
 70
     1
102
RTVSPropertyOp33
 70
     1
102
RTVSPropertyOp34
 70
     1
102
RTVSPropertyOp35
 70
     1
102
RTVSPropertyOp36
 70
     1
102
RTVSPropertyOp37
 70
     1
102
RTVSPropertyOp38
 70
     1
102
RTVSPropertyOp39
 70
     1
102
RTVSPropertyOp40
 70
     1
102
RTVSPropertyOp41
 70
     1
102
RTVSPropertyOp42
 70
     1
102
RTVSPropertyOp43
 70
     1
102
RTVSPropertyOp44
 70
     1
102
RTVSPropertyOp45
 70
     1
102
RTVSPropertyOp46
 70
     1
102
RTVSPropertyOp47
 70
     1
102
RTVSPropertyOp48
 70
     1
102
RTVSPropertyOp49
 70
     1
102
RTVSPropertyOp50
 70
     1
102
RTVSPropertyOp51
 70
     0
102
RTVSPropertyOp52
 70
     0
102
RTVSPropertyOp53
 70
     1
102
RTVSPropertyOp54
 70
     1
102
RTVSPropertyOp55
 70
     1
102
RTVSPropertyOp56
 70
     1
102
RTVSPropertyOp57
 70
     1
102
RTVSPost2010Prop28
280
     0
102
RTVSPost2010PropOp28
 70
     1
102
RTVSPost2010Prop29
280
     1
102
RTVSPost2010PropOp29
 70
     1
102
RTVSPost2010Prop30
280
     1
102
RTVSPost2010PropOp30
 70
     1
102
RTVSPost2010Prop31
280
     0
102
RTVSPost2010PropOp31
 70
     1
102
RTVSPost2010Prop32
280
     0
102
RTVSPost2010PropOp32
 70
     1
102
RTVSPost2010Prop33
280
     0
102
RTVSPost2010PropOp33
 70
     1
102
RTVSPost2010Prop34
280
     0
102
RTVSPost2010PropOp34
 70
     1
102
RTVSPost2010Prop35
280
     0
102
RTVSPost2010PropOp35
 70
     1
102
RTVSPost2010Prop36
280
     0
102
RTVSPost2010PropOp36
 70
     1
102
RTVSPost2010Prop37
 90
       50
102
RTVSPost2010PropOp37
 70
     1
102
RTVSPost2010Prop38
140
0.0
102
RTVSPost2010PropOp38
 70
     1
102
RTVSPost2010Prop39
140
1.0
102
RTVSPost2010PropOp39
 70
     1
102
RTVSPost2010Prop40
 90
        0
102
RTVSPost2010PropOp40
 70
     1
102
RTVSPost2010Prop41ColorIndex
 90
       18
102
RTVSPost2010Prop41ColorRGB
 90
        0
102
RTVSPost2010PropOp41
 70
     1
102
RTVSPost2010Prop42
 90
       50
102
RTVSPost2010PropOp42
 70
     1
102
RTVSPost2010Prop43
 90
        3
102
RTVSPost2010PropOp43
 70
     1
102
RTVSPost2010Prop44ColorIndex
 90
        5
102
RTVSPost2010Prop44ColorRGB
 90
      255
102
RTVSPost2010PropOp44
 70
     1
102
RTVSPost2010Prop45
280
     0
102
RTVSPost2010PropOp45
 70
     1
102
RTVSPost2010Prop46
 90
       50
102
RTVSPost2010PropOp46
 70
     1
102
RTVSPost2010Prop47
 90
       50
102
RTVSPost2010PropOp47
 70
     1
102
RTVSPost2010Prop48
 90
       50
102
RTVSPost2010PropOp48
 70
     1
102
RTVSPost2010Prop49
280
     0
102
RTVSPost2010PropOp49
 70
     1
102
RTVSPost2010Prop50
 90
       50
102
RTVSPost2010PropOp50
 70
     1
102
RTVSPost2010Prop51ColorIndex
 90
      256
102
RTVSPost2010Prop51ColorRGB
 90
-16777216
102
RTVSPost2010PropOp51
 70
     0
102
RTVSPost2010Prop52
140
1.0
102
RTVSPost2010PropOp52
 70
     0
102
RTVSPost2010Prop53
 90
        2
102
RTVSPost2010PropOp53
 70
     1
102
RTVSPost2010Prop54
  1
strokes_ogs.tif
102
RTVSPost2010PropOp54
 70
     1
102
RTVSPost2010Prop55
280
     0
102
RTVSPost2010PropOp55
 70
     1
102
RTVSPost2010Prop56
140
1.0
102
RTVSPost2010PropOp56
 70
     1
102
RTVSPost2010Prop57
140
1.0
102
RTVSPost2010PropOp57
 70
     1
  0
XRECORD
  5
203
102
{ACAD_REACTORS
330
202
102
}
330
202
100
AcDbXrecord
280
     1
102
RTVSPropertyOp0
 70
     1
102
RTVSPropertyOp1
 70
     1
102
RTVSPropertyOp2
 70
     1
102
RTVSPropertyOp3
 70
     1
102
RTVSPropertyOp4
 70
     1
102
RTVSPropertyOp5
 70
     1
102
RTVSPropertyOp6
 70
     1
102
RTVSPropertyOp7
 70
     1
102
RTVSPropertyOp8
 70
     1
102
RTVSPropertyOp9
 70
     1
102
RTVSPropertyOp10
 70
     1
102
RTVSPropertyOp11
 70
     1
102
RTVSPropertyOp12
 70
     1
102
RTVSPropertyOp13
 70
     1
102
RTVSPropertyOp14
 70
     1
102
RTVSPropertyOp15
 70
     1
102
RTVSPropertyOp16
 70
     1
102
RTVSPropertyOp17
 70
     1
102
RTVSPropertyOp18
 70
     1
102
RTVSPropertyOp19
 70
     1
102
RTVSPropertyOp20
 70
     1
102
RTVSPropertyOp21
 70
     1
102
RTVSPropertyOp22
 70
     1
102
RTVSPropertyOp23
 70
     1
102
RTVSPropertyOp24
 70
     1
102
RTVSPropertyOp25
 70
     1
102
RTVSPropertyOp26
 70
     1
102
RTVSPropertyOp27
 70
     1
102
RTVSPropertyOp28
 70
     1
102
RTVSPropertyOp29
 70
     1
102
RTVSPropertyOp30
 70
     1
102
RTVSPropertyOp31
 70
     1
102
RTVSPropertyOp32
 70
     1
102
RTVSPropertyOp33
 70
     1
102
RTVSPropertyOp34
 70
     1
102
RTVSPropertyOp35
 70
     1
102
RTVSPropertyOp36
 70
     1
102
RTVSPropertyOp37
 70
     1
102
RTVSPropertyOp38
 70
     1
102
RTVSPropertyOp39
 70
     1
102
RTVSPropertyOp40
 70
     1
102
RTVSPropertyOp41
 70
     1
102
RTVSPropertyOp42
 70
     1
102
RTVSPropertyOp43
 70
     1
102
RTVSPropertyOp44
 70
     1
102
RTVSPropertyOp45
 70
     1
102
RTVSPropertyOp46
 70
     1
102
RTVSPropertyOp47
 70
     1
102
RTVSPropertyOp48
 70
     1
102
RTVSPropertyOp49
 70
     1
102
RTVSPropertyOp50
 70
     1
102
RTVSPropertyOp51
 70
     0
102
RTVSPropertyOp52
 70
     0
102
RTVSPropertyOp53
 70
     1
102
RTVSPropertyOp54
 70
     1
102
RTVSPropertyOp55
 70
     1
102
RTVSPropertyOp56
 70
     1
102
RTVSPropertyOp57
 70
     1
102
RTVSPost2010Prop28
280
     0
102
RTVSPost2010PropOp28
 70
     1
102
RTVSPost2010Prop29
280
     1
102
RTVSPost2010PropOp29
 70
     1
102
RTVSPost2010Prop30
280
     1
102
RTVSPost2010PropOp30
 70
     1
102
RTVSPost2010Prop31
280
     0
102
RTVSPost2010PropOp31
 70
     1
102
RTVSPost2010Prop32
280
     0
102
RTVSPost2010PropOp32
 70
     1
102
RTVSPost2010Prop33
280
     0
102
RTVSPost2010PropOp33
 70
     1
102
RTVSPost2010Prop34
280
     0
102
RTVSPost2010PropOp34
 70
     1
102
RTVSPost2010Prop35
280
     0
102
RTVSPost2010PropOp35
 70
     1
102
RTVSPost2010Prop36
280
     0
102
RTVSPost2010PropOp36
 70
     1
102
RTVSPost2010Prop37
 90
       50
102
RTVSPost2010PropOp37
 70
     1
102
RTVSPost2010Prop38
140
0.0
102
RTVSPost2010PropOp38
 70
     1
102
RTVSPost2010Prop39
140
1.0
102
RTVSPost2010PropOp39
 70
     1
102
RTVSPost2010Prop40
 90
        0
102
RTVSPost2010PropOp40
 70
     1
102
RTVSPost2010Prop41ColorIndex
 90
       18
102
RTVSPost2010Prop41ColorRGB
 90
        0
102
RTVSPost2010PropOp41
 70
     1
102
RTVSPost2010Prop42
 90
       50
102
RTVSPost2010PropOp42
 70
     1
102
RTVSPost2010Prop43
 90
        3
102
RTVSPost2010PropOp43
 70
     1
102
RTVSPost2010Prop44ColorIndex
 90
        5
102
RTVSPost2010Prop44ColorRGB
 90
      255
102
RTVSPost2010PropOp44
 70
     1
102
RTVSPost2010Prop45
280
     0
102
RTVSPost2010PropOp45
 70
     1
102
RTVSPost2010Prop46
 90
       50
102
RTVSPost2010PropOp46
 70
     1
102
RTVSPost2010Prop47
 90
       50
102
RTVSPost2010PropOp47
 70
     1
102
RTVSPost2010Prop48
 90
       50
102
RTVSPost2010PropOp48
 70
     1
102
RTVSPost2010Prop49
280
     0
102
RTVSPost2010PropOp49
 70
     1
102
RTVSPost2010Prop50
 90
       50
102
RTVSPost2010PropOp50
 70
     1
102
RTVSPost2010Prop51ColorIndex
 90
      256
102
RTVSPost2010Prop51ColorRGB
 90
-16777216
102
RTVSPost2010PropOp51
 70
     0
102
RTVSPost2010Prop52
140
1.0
102
RTVSPost2010PropOp52
 70
     0
102
RTVSPost2010Prop53
 90
        2
102
RTVSPost2010PropOp53
 70
     1
102
RTVSPost2010Prop54
  1
strokes_ogs.tif
102
RTVSPost2010PropOp54
 70
     1
102
RTVSPost2010Prop55
280
     0
102
RTVSPost2010PropOp55
 70
     1
102
RTVSPost2010Prop56
140
1.0
102
RTVSPost2010PropOp56
 70
     1
102
RTVSPost2010Prop57
140
1.0
102
RTVSPost2010PropOp57
 70
     1
  0
XRECORD
  5
223
102
{ACAD_REACTORS
330
222
102
}
330
222
100
AcDbXrecord
280
     1
102
RTVSPropertyOp0
 70
     1
102
RTVSPropertyOp1
 70
     1
102
RTVSPropertyOp2
 70
     1
102
RTVSPropertyOp3
 70
     1
102
RTVSPropertyOp4
 70
     1
102
RTVSPropertyOp5
 70
     1
102
RTVSPropertyOp6
 70
     1
102
RTVSPropertyOp7
 70
     1
102
RTVSPropertyOp8
 70
     1
102
RTVSPropertyOp9
 70
     1
102
RTVSPropertyOp10
 70
     1
102
RTVSPropertyOp11
 70
     1
102
RTVSPropertyOp12
 70
     1
102
RTVSPropertyOp13
 70
     1
102
RTVSPropertyOp14
 70
     1
102
RTVSPropertyOp15
 70
     1
102
RTVSPropertyOp16
 70
     1
102
RTVSPropertyOp17
 70
     1
102
RTVSPropertyOp18
 70
     1
102
RTVSPropertyOp19
 70
     1
102
RTVSPropertyOp20
 70
     1
102
RTVSPropertyOp21
 70
     1
102
RTVSPropertyOp22
 70
     1
102
RTVSPropertyOp23
 70
     1
102
RTVSPropertyOp24
 70
     1
102
RTVSPropertyOp25
 70
     1
102
RTVSPropertyOp26
 70
     1
102
RTVSPropertyOp27
 70
     1
102
RTVSPropertyOp28
 70
     1
102
RTVSPropertyOp29
 70
     1
102
RTVSPropertyOp30
 70
     1
102
RTVSPropertyOp31
 70
     1
102
RTVSPropertyOp32
 70
     1
102
RTVSPropertyOp33
 70
     1
102
RTVSPropertyOp34
 70
     1
102
RTVSPropertyOp35
 70
     1
102
RTVSPropertyOp36
 70
     1
102
RTVSPropertyOp37
 70
     1
102
RTVSPropertyOp38
 70
     1
102
RTVSPropertyOp39
 70
     1
102
RTVSPropertyOp40
 70
     1
102
RTVSPropertyOp41
 70
     1
102
RTVSPropertyOp42
 70
     1
102
RTVSPropertyOp43
 70
     1
102
RTVSPropertyOp44
 70
     1
102
RTVSPropertyOp45
 70
     1
102
RTVSPropertyOp46
 70
     1
102
RTVSPropertyOp47
 70
     1
102
RTVSPropertyOp48
 70
     1
102
RTVSPropertyOp49
 70
     1
102
RTVSPropertyOp50
 70
     1
102
RTVSPropertyOp51
 70
     0
102
RTVSPropertyOp52
 70
     0
102
RTVSPropertyOp53
 70
     1
102
RTVSPropertyOp54
 70
     1
102
RTVSPropertyOp55
 70
     1
102
RTVSPropertyOp56
 70
     1
102
RTVSPropertyOp57
 70
     1
102
RTVSPost2010Prop28
280
     0
102
RTVSPost2010PropOp28
 70
     1
102
RTVSPost2010Prop29
280
     1
102
RTVSPost2010PropOp29
 70
     1
102
RTVSPost2010Prop30
280
     1
102
RTVSPost2010PropOp30
 70
     1
102
RTVSPost2010Prop31
280
     0
102
RTVSPost2010PropOp31
 70
     1
102
RTVSPost2010Prop32
280
     0
102
RTVSPost2010PropOp32
 70
     1
102
RTVSPost2010Prop33
280
     0
102
RTVSPost2010PropOp33
 70
     1
102
RTVSPost2010Prop34
280
     0
102
RTVSPost2010PropOp34
 70
     1
102
RTVSPost2010Prop35
280
     0
102
RTVSPost2010PropOp35
 70
     1
102
RTVSPost2010Prop36
280
     0
102
RTVSPost2010PropOp36
 70
     1
102
RTVSPost2010Prop37
 90
       50
102
RTVSPost2010PropOp37
 70
     1
102
RTVSPost2010Prop38
140
0.0
102
RTVSPost2010PropOp38
 70
     1
102
RTVSPost2010Prop39
140
1.0
102
RTVSPost2010PropOp39
 70
     1
102
RTVSPost2010Prop40
 90
        0
102
RTVSPost2010PropOp40
 70
     1
102
RTVSPost2010Prop41ColorIndex
 90
       18
102
RTVSPost2010Prop41ColorRGB
 90
        0
102
RTVSPost2010PropOp41
 70
     1
102
RTVSPost2010Prop42
 90
       50
102
RTVSPost2010PropOp42
 70
     1
102
RTVSPost2010Prop43
 90
        3
102
RTVSPost2010PropOp43
 70
     1
102
RTVSPost2010Prop44ColorIndex
 90
        5
102
RTVSPost2010Prop44ColorRGB
 90
      255
102
RTVSPost2010PropOp44
 70
     1
102
RTVSPost2010Prop45
280
     0
102
RTVSPost2010PropOp45
 70
     1
102
RTVSPost2010Prop46
 90
       50
102
RTVSPost2010PropOp46
 70
     1
102
RTVSPost2010Prop47
 90
       50
102
RTVSPost2010PropOp47
 70
     1
102
RTVSPost2010Prop48
 90
       50
102
RTVSPost2010PropOp48
 70
     1
102
RTVSPost2010Prop49
280
     0
102
RTVSPost2010PropOp49
 70
     1
102
RTVSPost2010Prop50
 90
       50
102
RTVSPost2010PropOp50
 70
     1
102
RTVSPost2010Prop51ColorIndex
 90
      256
102
RTVSPost2010Prop51ColorRGB
 90
-16777216
102
RTVSPost2010PropOp51
 70
     0
102
RTVSPost2010Prop52
140
1.0
102
RTVSPost2010PropOp52
 70
     0
102
RTVSPost2010Prop53
 90
        2
102
RTVSPost2010PropOp53
 70
     1
102
RTVSPost2010Prop54
  1
strokes_ogs.tif
102
RTVSPost2010PropOp54
 70
     1
102
RTVSPost2010Prop55
280
     0
102
RTVSPost2010PropOp55
 70
     1
102
RTVSPost2010Prop56
140
1.0
102
RTVSPost2010PropOp56
 70
     1
102
RTVSPost2010Prop57
140
1.0
102
RTVSPost2010PropOp57
 70
     1
  0
ENDSEC
  0
EOF
