  0
SECTION
  2
HEADER
  9
$ACADVER
  1
AC1032
  9
$ACADMAINTVER
 90
      251
  9
$DWGCODEPAGE
  3
ANSI_1252
  9
$REQUIREDVERSIONS
160
                 0
  9
$INSBASE
 10
0.0
 20
0.0
 30
0.0
  9
$EXTMIN
 10
1.000000000000000E+20
 20
1.000000000000000E+20
 30
1.000000000000000E+20
  9
$EXTMAX
 10
-1.000000000000000E+20
 20
-1.000000000000000E+20
 30
-1.000000000000000E+20
  9
$LIMMIN
 10
0.0
 20
0.0
  9
$LIMMAX
 10
12.0
 20
9.0
  9
$ORTHOMODE
 70
     0
  9
$REGENMODE
 70
     1
  9
$FILLMODE
 70
     1
  9
$QTEXTMODE
 70
     0
  9
$MIRRTEXT
 70
     0
  9
$LTSCALE
 40
1.0
  9
$ATTMODE
 70
     1
  9
$TEXTSIZE
 40
0.2
  9
$TRACEWID
 40
0.05
  9
$TEXTSTYLE
  7
Standard
  9
$CLAYER
  8
0
  9
$CELTYPE
  6
ByLayer
  9
$CECOLOR
 62
   256
  9
$CELTSCALE
 40
1.0
  9
$DISPSILH
 70
     0
  9
$DIMSCALE
 40
1.0
  9
$DIMASZ
 40
0.18
  9
$DIMEXO
 40
0.0625
  9
$DIMDLI
 40
0.38
  9
$DIMRND
 40
0.0
  9
$DIMDLE
 40
0.0
  9
$DIMEXE
 40
0.18
  9
$DIMTP
 40
0.0
  9
$DIMTM
 40
0.0
  9
$DIMTXT
 40
0.18
  9
$DIMCEN
 40
0.09
  9
$DIMTSZ
 40
0.0
  9
$DIMTOL
 70
     0
  9
$DIMLIM
 70
     0
  9
$DIMTIH
 70
     1
  9
$DIMTOH
 70
     1
  9
$DIMSE1
 70
     0
  9
$DIMSE2
 70
     0
  9
$DIMTAD
 70
     0
  9
$DIMZIN
 70
     0
  9
$DIMBLK
  1

  9
$DIMASO
 70
     1
  9
$DIMSHO
 70
     1
  9
$DIMPOST
  1

  9
$DIMAPOST
  1

  9
$DIMALT
 70
     0
  9
$DIMALTD
 70
     2
  9
$DIMALTF
 40
25.4
  9
$DIMLFAC
 40
1.0
  9
$DIMTOFL
 70
     0
  9
$DIMTVP
 40
0.0
  9
$DIMTIX
 70
     0
  9
$DIMSOXD
 70
     0
  9
$DIMSAH
 70
     0
  9
$DIMBLK1
  1

  9
$DIMBLK2
  1

  9
$DIMSTYLE
  2
Standard
  9
$DIMCLRD
 70
     0
  9
$DIMCLRE
 70
     0
  9
$DIMCLRT
 70
     0
  9
$DIMTFAC
 40
1.0
  9
$DIMGAP
 40
0.09
  9
$DIMJUST
 70
     0
  9
$DIMSD1
 70
     0
  9
$DIMSD2
 70
     0
  9
$DIMTOLJ
 70
     1
  9
$DIMTZIN
 70
     0
  9
$DIMALTZ
 70
     0
  9
$DIMALTTZ
 70
     0
  9
$DIMUPT
 70
     0
  9
$DIMDEC
 70
     4
  9
$DIMTDEC
 70
     4
  9
$DIMALTU
 70
     2
  9
$DIMALTTD
 70
     2
  9
$DIMTXSTY
  7
Standard
  9
$DIMAUNIT
 70
     0
  9
$DIMADEC
 70
     0
  9
$DIMALTRND
 40
0.0
  9
$DIMAZIN
 70
     0
  9
$DIMDSEP
 70
    46
  9
$DIMATFIT
 70
     3
  9
$DIMFRAC
 70
     0
  9
$DIMLDRBLK
  1

  9
$DIMLUNIT
 70
     2
  9
$DIMLWD
 70
    -2
  9
$DIMLWE
 70
    -2
  9
$DIMTMOVE
 70
     0
  9
$DIMFXL
 40
1.0
  9
$DIMFXLON
 70
     0
  9
$DIMJOGANG
 40
0.7853981633974483
  9
$DIMTFILL
 70
     0
  9
$DIMTFILLCLR
 70
     0
  9
$DIMARCSYM
 70
     0
  9
$DIMLTYPE
  6

  9
$DIMLTEX1
  6

  9
$DIMLTEX2
  6

  9
$DIMTXTDIRECTION
 70
     0
  9
$LUNITS
 70
     2
  9
$LUPREC
 70
     4
  9
$SKETCHINC
 40
0.1
  9
$FILLETRAD
 40
0.0
  9
$AUNITS
 70
     0
  9
$AUPREC
 70
     0
  9
$MENU
  1
.
  9
$ELEVATION
 40
0.0
  9
$PELEVATION
 40
0.0
  9
$THICKNESS
 40
0.0
  9
$LIMCHECK
 70
     0
  9
$CHAMFERA
 40
0.0
  9
$CHAMFERB
 40
0.0
  9
$CHAMFERC
 40
0.0
  9
$CHAMFERD
 40
0.0
  9
$SKPOLY
 70
     0
  9
$TDCREATE
 40
2460025.296863426
  9
$TDUCREATE
 40
2460025.255196760
  9
$TDUPDATE
 40
2460025.296863426
  9
$TDUUPDATE
 40
2460025.255196760
  9
$TDINDWG
 40
0.0000000000
  9
$TDUSRTIMER
 40
0.0000000000
  9
$USRTIMER
 70
     1
  9
$ANGBASE
 50
0.0
  9
$ANGDIR
 70
     0
  9
$PDMODE
 70
     0
  9
$PDSIZE
 40
0.0
  9
$PLINEWID
 40
0.0
  9
$SPLFRAME
 70
     0
  9
$SPLINETYPE
 70
     6
  9
$SPLINESEGS
 70
     8
  9
$HANDSEED
  5
99
  9
$SURFTAB1
 70
     6
  9
$SURFTAB2
 70
     6
  9
$SURFTYPE
 70
     6
  9
$SURFU
 70
     6
  9
$SURFV
 70
     6
  9
$UCSBASE
  2

  9
$UCSNAME
  2

  9
$UCSORG
 10
0.0
 20
0.0
 30
0.0
  9
$UCSXDIR
 10
1.0
 20
0.0
 30
0.0
  9
$UCSYDIR
 10
0.0
 20
1.0
 30
0.0
  9
$UCSORTHOREF
  2

  9
$UCSORTHOVIEW
 70
     0
  9
$UCSORGTOP
 10
0.0
 20
0.0
 30
0.0
  9
$UCSORGBOTTOM
 10
0.0
 20
0.0
 30
0.0
  9
$UCSORGLEFT
 10
0.0
 20
0.0
 30
0.0
  9
$UCSORGRIGHT
 10
0.0
 20
0.0
 30
0.0
  9
$UCSORGFRONT
 10
0.0
 20
0.0
 30
0.0
  9
$UCSORGBACK
 10
0.0
 20
0.0
 30
0.0
  9
$PUCSBASE
  2

  9
$PUCSNAME
  2

  9
$PUCSORG
 10
0.0
 20
0.0
 30
0.0
  9
$PUCSXDIR
 10
1.0
 20
0.0
 30
0.0
  9
$PUCSYDIR
 10
0.0
 20
1.0
 30
0.0
  9
$PUCSORTHOREF
  2

  9
$PUCSORTHOVIEW
 70
     0
  9
$PUCSORGTOP
 10
0.0
 20
0.0
 30
0.0
  9
$PUCSORGBOTTOM
 10
0.0
 20
0.0
 30
0.0
  9
$PUCSORGLEFT
 10
0.0
 20
0.0
 30
0.0
  9
$PUCSORGRIGHT
 10
0.0
 20
0.0
 30
0.0
  9
$PUCSORGFRONT
 10
0.0
 20
0.0
 30
0.0
  9
$PUCSORGBACK
 10
0.0
 20
0.0
 30
0.0
  9
$USERI1
 70
     0
  9
$USERI2
 70
     0
  9
$USERI3
 70
     0
  9
$USERI4
 70
     0
  9
$USERI5
 70
     0
  9
$USERR1
 40
0.0
  9
$USERR2
 40
0.0
  9
$USERR3
 40
0.0
  9
$USERR4
 40
0.0
  9
$USERR5
 40
0.0
  9
$WORLDVIEW
 70
     1
  9
$SHADEDGE
 70
     3
  9
$SHADEDIF
 70
    70
  9
$TILEMODE
 70
     1
  9
$MAXACTVP
 70
    64
  9
$PINSBASE
 10
0.0
 20
0.0
 30
0.0
  9
$PLIMCHECK
 70
     0
  9
$PEXTMIN
 10
1.000000000000000E+20
 20
1.000000000000000E+20
 30
1.000000000000000E+20
  9
$PEXTMAX
 10
-1.000000000000000E+20
 20
-1.000000000000000E+20
 30
-1.000000000000000E+20
  9
$PLIMMIN
 10
0.0
 20
0.0
  9
$PLIMMAX
 10
12.0
 20
9.0
  9
$UNITMODE
 70
     0
  9
$VISRETAIN
 70
     1
  9
$PLINEGEN
 70
     0
  9
$PSLTSCALE
 70
     1
  9
$TREEDEPTH
 70
  3020
  9
$CMLSTYLE
  2
Standard
  9
$CMLJUST
 70
     0
  9
$CMLSCALE
 40
1.0
  9
$PROXYGRAPHICS
 70
     1
  9
$MEASUREMENT
 70
     0
  9
$CELWEIGHT
370
    -1
  9
$ENDCAPS
280
     0
  9
$JOINSTYLE
280
     0
  9
$LWDISPLAY
290
     1
  9
$INSUNITS
 70
     4
  9
$HYPERLINKBASE
  1

  9
$STYLESHEET
  1

  9
$XEDIT
290
     1
  9
$CEPSNTYPE
380
     0
  9
$PSTYLEMODE
290
     1
  9
$FINGERPRINTGUID
  2
{462FB20B-A3C8-264C-A9A6-D7055858E05D}
  9
$VERSIONGUID
  2
{A6D44017-A077-6E4D-AE6D-DC7653FE8EC4}
  9
$EXTNAMES
290
     1
  9
$PSVPSCALE
 40
0.0
  9
$OLESTARTUP
290
     0
  9
$SORTENTS
280
   127
  9
$INDEXCTL
280
     0
  9
$HIDETEXT
280
     1
  9
$XCLIPFRAME
280
     2
  9
$HALOGAP
280
     0
  9
$OBSCOLOR
 70
   257
  9
$OBSLTYPE
280
     0
  9
$INTERSECTIONDISPLAY
280
     0
  9
$INTERSECTIONCOLOR
 70
   257
  9
$DIMASSOC
280
     2
  9
$PROJECTNAME
  1

  9
$CAMERADISPLAY
290
     0
  9
$LENSLENGTH
 40
50.0
  9
$CAMERAHEIGHT
 40
0.0
  9
$STEPSPERSEC
 40
2.0
  9
$STEPSIZE
 40
6.0
  9
$3DDWFPREC
 40
2.0
  9
$PSOLWIDTH
 40
0.25
  9
$PSOLHEIGHT
 40
4.0
  9
$LOFTANG1
 40
1.570796326794896
  9
$LOFTANG2
 40
1.570796326794896
  9
$LOFTMAG1
 40
0.0
  9
$LOFTMAG2
 40
0.0
  9
$LOFTPARAM
 70
     7
  9
$LOFTNORMALS
280
     1
  9
$LATITUDE
 40
37.795
  9
$LONGITUDE
 40
-122.394
  9
$NORTHDIRECTION
 40
0.0
  9
$TIMEZONE
 70
 -8000
  9
$LIGHTGLYPHDISPLAY
280
     1
  9
$TILEMODELIGHTSYNCH
280
     1
  9
$CMATERIAL
347
11
  9
$SOLIDHIST
280
     0
  9
$SHOWHIST
280
     1
  9
$DWFFRAME
280
     2
  9
$DGNFRAME
280
     0
  9
$REALWORLDSCALE
290
     1
  9
$INTERFERECOLOR
 62
     1
  9
$INTERFEREOBJVS
345
33
  9
$INTERFEREVPVS
346
30
  9
$CSHADOW
280
     0
  9
$SHADOWPLANELOCATION
 40
0.0
  0
ENDSEC
  0
SECTION
  2
CLASSES
  0
CLASS
  1
ACDBDICTIONARYWDFLT
  2
AcDbDictionaryWithDefault
  3
ObjectDBX Classes
 90
        0
 91
        1
280
     0
281
     0
  0
CLASS
  1
MATERIAL
  2
AcDbMaterial
  3
ObjectDBX Classes
 90
     1153
 91
        3
280
     0
281
     0
  0
CLASS
  1
VISUALSTYLE
  2
AcDbVisualStyle
  3
ObjectDBX Classes
 90
     4095
 91
       24
280
     0
281
     0
  0
CLASS
  1
SCALE
  2
AcDbScale
  3
ObjectDBX Classes
 90
     1153
 91
       17
280
     0
281
     0
  0
CLASS
  1
TABLESTYLE
  2
AcDbTableStyle
  3
ObjectDBX Classes
 90
     4095
 91
        1
280
     0
281
     0
  0
CLASS
  1
MLEADERSTYLE
  2
AcDbMLeaderStyle
  3
ACDB_MLEADERSTYLE_CLASS
 90
     4095
 91
        1
280
     0
281
     0
  0
CLASS
  1
ACDBSECTIONVIEWSTYLE
  2
AcDbSectionViewStyle
  3
ObjectDBX Classes
 90
     1025
 91
        1
280
     0
281
     0
  0
CLASS
  1
ACDBDETAILVIEWSTYLE
  2
AcDbDetailViewStyle
  3
ObjectDBX Classes
 90
     1025
 91
        1
280
     0
281
     0
  0
CLASS
  1
DICTIONARYVAR
  2
AcDbDictionaryVar
  3
ObjectDBX Classes
 90
        0
 91
        5
280
     0
281
     0
  0
CLASS
  1
CELLSTYLEMAP
  2
AcDbCellStyleMap
  3
ObjectDBX Classes
 90
     1152
 91
        1
280
     0
281
     0
  0
ENDSEC
  0
SECTION
  2
TABLES
  0
TABLE
  2
VPORT
  5
8
330
0
100
AcDbSymbolTable
 70
     1
  0
VPORT
  5
57
330
8
100
AcDbSymbolTableRecord
100
AcDbViewportTableRecord
  2
*Active
 70
     0
 10
0.0
 20
0.0
 11
1.0
 21
1.0
 12
0.0
 22
0.0
 13
0.0
 23
0.0
 14
1.0
 24
1.0
 15
0.0
 25
0.0
 16
0.0
 26
0.0
 36
1.0
 17
749.9999998124986
 27
499.999999874993
 37
0.0
 40
1019.999999744986
 41
1.500000000000018
 42
50.0
 43
0.0
 44
0.0
 50
0.0
 51
0.0
 71
     0
 72
   100
 73
     1
 74
     1
 75
     0
 76
     0
 77
     0
 78
     0
281
     0
 65
     1
110
0.0
120
0.0
130
0.0
111
1.0
121
0.0
131
0.0
112
0.0
122
1.0
132
0.0
 79
     0
146
0.0
 60
     3
 61
     5
292
     1
282
     1
141
0.0
142
0.0
 63
   250
421
  3355443
  0
ENDTAB
  0
TABLE
  2
LTYPE
  5
5
330
0
100
AcDbSymbolTable
 70
     1
  0
LTYPE
  5
5B
330
5
100
AcDbSymbolTableRecord
100
AcDbLinetypeTableRecord
  2
ByBlock
 70
     0
  3

 72
    65
 73
     0
 40
0.0
  0
LTYPE
  5
5C
330
5
100
AcDbSymbolTableRecord
100
AcDbLinetypeTableRecord
  2
ByLayer
 70
     0
  3

 72
    65
 73
     0
 40
0.0
  0
LTYPE
  5
5D
330
5
100
AcDbSymbolTableRecord
100
AcDbLinetypeTableRecord
  2
Continuous
 70
     0
  3
Solid line
 72
    65
 73
     0
 40
0.0
  0
ENDTAB
  0
TABLE
  2
LAYER
  5
2
330
0
100
AcDbSymbolTable
 70
     2
  0
LAYER
  5
54
330
2
100
AcDbSymbolTableRecord
100
AcDbLayerTableRecord
  2
0
 70
     0
 62
     7
  6
Continuous
370
    -3
390
F
347
21
348
0
  0
LAYER
  5
78
330
2
100
AcDbSymbolTableRecord
100
AcDbLayerTableRecord
  2
Layer 1
 70
     0
 62
     7
  6
Continuous
370
     0
390
F
347
21
348
0
  0
ENDTAB
  0
TABLE
  2
STYLE
  5
3
330
0
100
AcDbSymbolTable
 70
     2
  0
STYLE
  5
55
330
3
100
AcDbSymbolTableRecord
100
AcDbTextStyleTableRecord
  2
Standard
 70
     0
 40
0.0
 41
1.0
 50
0.0
 71
     0
 42
0.2
  3
txt
  4

  0
STYLE
  5
5A
330
3
100
AcDbSymbolTableRecord
100
AcDbTextStyleTableRecord
  2
Annotative
 70
     0
 40
0.0
 41
1.0
 50
0.0
 71
     0
 42
0.2
  3
txt
  4

1001
AcadAnnotative
1000
AnnotativeData
1002
{
1070
     1
1070
     1
1002
}
  0
ENDTAB
  0
TABLE
  2
VIEW
  5
6
330
0
100
AcDbSymbolTable
 70
     0
  0
ENDTAB
  0
TABLE
  2
UCS
  5
7
330
0
100
AcDbSymbolTable
 70
     0
  0
ENDTAB
  0
TABLE
  2
APPID
  5
9
330
0
100
AcDbSymbolTable
 70
     2
  0
APPID
  5
56
330
9
100
AcDbSymbolTableRecord
100
AcDbRegAppTableRecord
  2
ACAD
 70
     0
  0
APPID
  5
5E
330
9
100
AcDbSymbolTableRecord
100
AcDbRegAppTableRecord
  2
AcadAnnotative
 70
     0
  0
ENDTAB
  0
TABLE
  2
DIMSTYLE
  5
A
330
0
100
AcDbSymbolTable
 70
     2
100
AcDbDimStyleTable
 71
     0
  0
DIMSTYLE
105
58
330
A
100
AcDbSymbolTableRecord
100
AcDbDimStyleTableRecord
  2
Standard
 70
     0
340
55
  0
DIMSTYLE
105
59
330
A
100
AcDbSymbolTableRecord
100
AcDbDimStyleTableRecord
  2
Annotative
 70
     0
340
55
1001
AcadAnnotative
1000
AnnotativeData
1002
{
1070
     1
1070
     1
1002
}
  0
ENDTAB
  0
TABLE
  2
BLOCK_RECORD
  5
1
330
0
100
AcDbSymbolTable
 70
     1
  0
BLOCK_RECORD
  5
70
330
1
100
AcDbSymbolTableRecord
100
AcDbBlockTableRecord
  2
*Model_Space
340
73
 70
     0
280
     1
281
     0
  0
BLOCK_RECORD
  5
6C
330
1
100
AcDbSymbolTableRecord
100
AcDbBlockTableRecord
  2
*Paper_Space
340
6F
 70
     0
280
     1
281
     0
  0
BLOCK_RECORD
  5
74
330
1
100
AcDbSymbolTableRecord
100
AcDbBlockTableRecord
  2
*Paper_Space0
340
77
 70
     0
280
     1
281
     0
  0
ENDTAB
  0
ENDSEC
  0
SECTION
  2
BLOCKS
  0
BLOCK
  5
71
330
70
100
AcDbEntity
  8
0
100
AcDbBlockBegin
  2
*Model_Space
 70
     0
 10
0.0
 20
0.0
 30
0.0
  3
*Model_Space
  1

  0
ENDBLK
  5
72
330
70
100
AcDbEntity
  8
0
100
AcDbBlockEnd
  0
BLOCK
  5
6D
330
6C
100
AcDbEntity
 67
     1
  8
0
100
AcDbBlockBegin
  2
*Paper_Space
 70
     0
 10
0.0
 20
0.0
 30
0.0
  3
*Paper_Space
  1

  0
ENDBLK
  5
6E
330
6C
100
AcDbEntity
 67
     1
  8
0
100
AcDbBlockEnd
  0
BLOCK
  5
75
330
74
100
AcDbEntity
 67
     1
  8
0
100
AcDbBlockBegin
  2
*Paper_Space0
 70
     0
 10
0.0
 20
0.0
 30
0.0
  3
*Paper_Space0
  1

  0
ENDBLK
  5
76
330
74
100
AcDbEntity
 67
     1
  8
0
100
AcDbBlockEnd
  0
ENDSEC
  0
SECTION
  2
ENTITIES
  0
SPLINE
  5
79
330
70
100
AcDbEntity
  8
Layer 1
 62
   251
420
  6316128
370
   100
100
AcDbSpline
210
0.0
220
0.0
230
1.0
 70
     9
 71
     3
 72
    35
 73
    31
 74
     0
 42
0.0000000001
 43
0.0000000001
 40
0.0
 40
0.0
 40
0.0
 40
0.0
 40
1.0
 40
1.0
 40
1.0
 40
2.0
 40
2.0
 40
2.0
 40
3.0
 40
3.0
 40
3.0
 40
4.0
 40
4.0
 40
4.0
 40
5.0
 40
5.0
 40
5.0
 40
6.0
 40
6.0
 40
6.0
 40
7.0
 40
7.0
 40
7.0
 40
8.0
 40
8.0
 40
8.0
 40
9.0
 40
9.0
 40
9.0
 40
10.0
 40
10.0
 40
10.0
 40
10.0
 10
1283.826092090294
 20
413.460362588586
 30
0.0
 10
1283.82617741202
 20
405.2727035746574
 30
0.0
 10
1283.82617741202
 20
397.0850644228882
 30
0.0
 10
1283.82617741202
 20
388.8974054089596
 30
0.0
 10
1283.82617741202
 20
375.9899807801125
 30
0.0
 10
1283.82617741202
 20
363.0825561512654
 30
0.0
 10
1283.826092090294
 20
350.1751315224189
 30
0.0
 10
1285.535854115073
 20
350.1751315224189
 30
0.0
 10
1287.245701461573
 20
350.1751315224189
 30
0.0
 10
1288.955463486346
 20
350.1751315224189
 30
0.0
 10
1288.955463486346
 20
350.1751315224189
 30
0.0
 10
1310.379236421581
 20
350.1751315224189
 30
0.0
 10
1310.379236421581
 20
350.1751315224189
 30
0.0
 10
1310.379236421581
 20
350.1751315224189
 30
0.0
 10
1310.379236421581
 20
350.148337468677
 30
0.0
 10
1310.379236421581
 20
350.148337468677
 30
0.0
 10
1310.379236421581
 20
350.148337468677
 30
0.0
 10
1421.547043504349
 20
350.148337468677
 30
0.0
 10
1421.547043504349
 20
350.148337468677
 30
0.0
 10
1421.547043504349
 20
350.148337468677
 30
0.0
 10
1421.547043504349
 20
357.1743381970896
 30
0.0
 10
1421.547043504349
 20
357.1743381970896
 30
0.0
 10
1421.547043504349
 20
357.1743381970896
 30
0.0
 10
1317.890619704839
 20
357.1743381970896
 30
0.0
 10
1317.890619704839
 20
357.1743381970896
 30
0.0
 10
1317.890619704839
 20
357.1743381970896
 30
0.0
 10
1317.890619704839
 20
413.460362588586
 30
0.0
 10
1317.890619704839
 20
413.460362588586
 30
0.0
 10
1317.890619704839
 20
413.460362588586
 30
0.0
 10
1283.826092090294
 20
413.460362588586
 30
0.0
 10
1283.826092090294
 20
413.460362588586
 30
0.0
  0
LWPOLYLINE
  5
7A
330
70
100
AcDbEntity
  8
Layer 1
 62
   251
420
  6316128
370
   100
100
AcDbPolyline
 90
       17
 70
     1
 43
0.0
 10
1313.00484771626
 20
745.1679752971571
 10
1313.004847712174
 20
660.3878551710355
 10
1352.250622330889
 20
660.387855169396
 10
1352.250622330549
 20
653.3618544409828
 10
1306.920896869044
 20
653.3618544428771
 10
1306.920896869044
 20
653.3745662252306
 10
1305.313008982576
 20
653.3745662252981
 10
1305.31300898665
 20
737.8827336576924
 10
1247.400803583246
 20
737.8827336601142
 10
1247.400803579212
 20
654.2581344120914
 10
1213.336275964668
 20
654.2581344135153
 10
1213.336275969016
 20
744.4609618565461
 10
1219.184738853906
 20
744.4609618563027
 10
1239.889420300303
 20
744.4609618554373
 10
1239.889420300327
 20
744.9087343888412
 10
1305.31300898699
 20
744.9087343861075
 10
1305.313008987004
 20
745.1679752974795
  0
SPLINE
  5
7B
330
70
100
AcDbEntity
  8
Layer 1
 62
   251
420
  6316128
370
   100
100
AcDbSpline
210
0.0
220
0.0
230
1.0
 70
    11
 71
     3
 72
    56
 73
    52
 74
     0
 42
0.0000000001
 43
0.0000000001
 40
0.0
 40
0.0
 40
0.0
 40
0.0
 40
1.0
 40
1.0
 40
1.0
 40
2.0
 40
2.0
 40
2.0
 40
3.0
 40
3.0
 40
3.0
 40
4.0
 40
4.0
 40
4.0
 40
5.0
 40
5.0
 40
5.0
 40
6.0
 40
6.0
 40
6.0
 40
7.0
 40
7.0
 40
7.0
 40
8.0
 40
8.0
 40
8.0
 40
9.0
 40
9.0
 40
9.0
 40
10.0
 40
10.0
 40
10.0
 40
11.0
 40
11.0
 40
11.0
 40
12.0
 40
12.0
 40
12.0
 40
13.0
 40
13.0
 40
13.0
 40
14.0
 40
14.0
 40
14.0
 40
15.0
 40
15.0
 40
15.0
 40
16.0
 40
16.0
 40
16.0
 40
17.0
 40
17.0
 40
17.0
 40
17.0
 10
1282.901585265342
 20
339.7551141371462
 30
0.0
 10
1282.901585265342
 20
339.7551141371462
 30
0.0
 10
1282.901585265342
 20
302.6815803465014
 30
0.0
 10
1282.901585265342
 20
302.6815803465014
 30
0.0
 10
1282.901585265342
 20
302.6815803465014
 30
0.0
 10
1288.750065488489
 20
302.6815803465014
 30
0.0
 10
1288.750065488489
 20
302.6815803465014
 30
0.0
 10
1293.903282379019
 20
302.5318909476673
 30
0.0
 10
1306.916743001309
 20
302.2333734238704
 30
0.0
 10
1308.27027795377
 20
302.233804060806
 30
0.0
 10
1308.27027795377
 20
302.233804060806
 30
0.0
 10
1374.878313893607
 20
302.233804060806
 30
0.0
 10
1374.878313893607
 20
302.233804060806
 30
0.0
 10
1374.878313893607
 20
302.233804060806
 30
0.0
 10
1374.878313893607
 20
250.2438680929008
 30
0.0
 10
1374.878313893607
 20
250.2438680929008
 30
0.0
 10
1374.878313893607
 20
250.2438680929008
 30
0.0
 10
1374.878313893607
 20
246.7308180992044
 30
0.0
 10
1374.878313893607
 20
246.7308180992044
 30
0.0
 10
1374.878313893607
 20
246.7308180992044
 30
0.0
 10
1374.878313893607
 20
243.2178542328951
 30
0.0
 10
1374.878313893607
 20
243.2178542328951
 30
0.0
 10
1374.878313893607
 20
243.2178542328951
 30
0.0
 10
1422.471532875849
 20
243.2178542328951
 30
0.0
 10
1422.471532875849
 20
243.2178542328951
 30
0.0
 10
1422.471532875849
 20
243.2178542328951
 30
0.0
 10
1422.471532875849
 20
250.2438680929008
 30
0.0
 10
1422.471532875849
 20
250.2438680929008
 30
0.0
 10
1422.471532875849
 20
250.2438680929008
 30
0.0
 10
1382.570178583524
 20
250.2438680929008
 30
0.0
 10
1382.570178583524
 20
250.2438680929008
 30
0.0
 10
1382.570178583524
 20
250.2438680929008
 30
0.0
 10
1382.570178583524
 20
302.233804060806
 30
0.0
 10
1382.570178583524
 20
302.233804060806
 30
0.0
 10
1382.570178583524
 20
302.233804060806
 30
0.0
 10
1382.570178583524
 20
306.5737630983496
 30
0.0
 10
1382.570178583524
 20
306.5737630983496
 30
0.0
 10
1382.570178583524
 20
306.5737630983496
 30
0.0
 10
1382.570178583524
 20
309.2597748571181
 30
0.0
 10
1382.570178583524
 20
309.2597748571181
 30
0.0
 10
1382.570178583524
 20
309.2597748571181
 30
0.0
 10
1316.966129595476
 20
309.2597748571181
 30
0.0
 10
1316.966129595476
 20
309.2597748571181
 30
0.0
 10
1316.966129595476
 20
309.2597748571181
 30
0.0
 10
1316.966129595476
 20
345.9698941377626
 30
0.0
 10
1316.966129595476
 20
345.9698941377626
 30
0.0
 10
1316.966129595476
 20
345.9698941377626
 30
0.0
 10
1282.901585265342
 20
345.9698941377626
 30
0.0
 10
1282.901585265342
 20
345.9698941377626
 30
0.0
 10
1282.901585265342
 20
345.9698941377626
 30
0.0
 10
1282.901585265342
 20
339.7551141371462
 30
0.0
 10
1282.901585265342
 20
339.7551141371462
 30
0.0
  0
SPLINE
  5
7C
330
70
100
AcDbEntity
  8
Layer 1
 62
   251
420
  6316128
370
   100
100
AcDbSpline
210
0.0
220
0.0
230
1.0
 70
    11
 71
     3
 72
    71
 73
    67
 74
     0
 42
0.0000000001
 43
0.0000000001
 40
0.0
 40
0.0
 40
0.0
 40
0.0
 40
1.0
 40
1.0
 40
1.0
 40
2.0
 40
2.0
 40
2.0
 40
3.0
 40
3.0
 40
3.0
 40
4.0
 40
4.0
 40
4.0
 40
5.0
 40
5.0
 40
5.0
 40
6.0
 40
6.0
 40
6.0
 40
7.0
 40
7.0
 40
7.0
 40
8.0
 40
8.0
 40
8.0
 40
9.0
 40
9.0
 40
9.0
 40
10.0
 40
10.0
 40
10.0
 40
11.0
 40
11.0
 40
11.0
 40
12.0
 40
12.0
 40
12.0
 40
13.0
 40
13.0
 40
13.0
 40
14.0
 40
14.0
 40
14.0
 40
15.0
 40
15.0
 40
15.0
 40
16.0
 40
16.0
 40
16.0
 40
17.0
 40
17.0
 40
17.0
 40
18.0
 40
18.0
 40
18.0
 40
19.0
 40
19.0
 40
19.0
 40
20.0
 40
20.0
 40
20.0
 40
21.0
 40
21.0
 40
21.0
 40
22.0
 40
22.0
 40
22.0
 40
22.0
 10
1287.085831227536
 20
528.4053452360503
 30
0.0
 10
1287.085831227536
 20
528.4053452360503
 30
0.0
 10
1286.75425232971
 20
528.4053452360679
 30
0.0
 10
1286.75425232971
 20
528.4053452360679
 30
0.0
 10
1286.75425232971
 20
528.4053452360679
 30
0.0
 10
1286.754252330029
 20
536.097183965324
 30
0.0
 10
1286.754252330029
 20
536.097183965324
 30
0.0
 10
1286.754252330029
 20
536.097183965324
 30
0.0
 10
1329.289822576721
 20
536.0971839632721
 30
0.0
 10
1329.289822576721
 20
536.0971839632721
 30
0.0
 10
1329.289822576721
 20
536.0971839632721
 30
0.0
 10
1336.257508003586
 20
536.0971839629378
 30
0.0
 10
1336.257508003586
 20
536.0971839629378
 30
0.0
 10
1336.257508003586
 20
536.0971839629378
 30
0.0
 10
1336.257508003264
 20
528.4053452336809
 30
0.0
 10
1336.257508003264
 20
528.4053452336809
 30
0.0
 10
1336.257508003264
 20
528.4053452336809
 30
0.0
 10
1336.257508002821
 20
517.7926879309327
 30
0.0
 10
1336.257508002821
 20
517.7926879309327
 30
0.0
 10
1340.86882622449
 20
516.7217296526023
 30
0.0
 10
1345.298644028741
 20
515.5725313534873
 30
0.0
 10
1349.537387854483
 20
514.3710308376422
 30
0.0
 10
1350.256715837826
 20
500.2741756186082
 30
0.0
 10
1350.97604382117
 20
486.1774910430217
 30
0.0
 10
1351.695371804513
 20
472.0806358239884
 30
0.0
 10
1340.840224712285
 20
471.0050701733154
 30
0.0
 10
1329.985077620053
 20
469.9295045226423
 30
0.0
 10
1319.129930527825
 20
468.8537682285231
 30
0.0
 10
1319.578179753338
 20
475.304773127409
 30
0.0
 10
1319.564117344544
 20
485.7002013211682
 30
0.0
 10
1316.178651909735
 20
497.7501883845136
 30
0.0
 10
1312.832354654297
 20
509.6607597510431
 30
0.0
 10
1307.577621624254
 20
518.2562408581408
 30
0.0
 10
1303.915436577046
 20
523.3550670772232
 30
0.0
 10
1309.429887210632
 20
522.7334129967838
 30
0.0
 10
1315.180856444632
 20
521.9206382548535
 30
0.0
 10
1321.141013946974
 20
520.874081989489
 30
0.0
 10
1323.912619467546
 20
520.3874068763594
 30
0.0
 10
1326.627975351204
 20
519.8666030736803
 30
0.0
 10
1329.289822576018
 20
519.3184963193633
 30
0.0
 10
1329.289822576018
 20
519.3184963193633
 30
0.0
 10
1329.289822576399
 20
528.4053452340165
 30
0.0
 10
1329.289822576399
 20
528.4053452340165
 30
0.0
 10
1329.289822576399
 20
528.4053452340165
 30
0.0
 10
1294.111831955951
 20
528.4053452357112
 30
0.0
 10
1294.111831955951
 20
528.4053452357112
 30
0.0
 10
1294.111831955951
 20
528.4053452357112
 30
0.0
 10
1294.111831951506
 20
422.0782661571219
 30
0.0
 10
1294.111831951506
 20
422.0782661571219
 30
0.0
 10
1297.15928314917
 20
422.0782661569743
 30
0.0
 10
1300.206774071158
 20
422.078266156828
 30
0.0
 10
1303.254264993144
 20
422.0782661566804
 30
0.0
 10
1302.505421839455
 20
419.5143483542056
 30
0.0
 10
1301.756618410082
 20
416.9503452300069
 30
0.0
 10
1301.007775256393
 20
414.3864274275332
 30
0.0
 10
1298.709127487987
 20
414.3864274276423
 30
0.0
 10
1296.410479719585
 20
414.386427427754
 30
0.0
 10
1294.111831951184
 20
414.3864274278657
 30
0.0
 10
1294.111831951184
 20
414.3864274278657
 30
0.0
 10
1287.085831222772
 20
414.3864274282044
 30
0.0
 10
1287.085831222772
 20
414.3864274282044
 30
0.0
 10
1287.085831222772
 20
414.3864274282044
 30
0.0
 10
1287.085831223091
 20
422.0782661574608
 30
0.0
 10
1287.085831223091
 20
422.0782661574608
 30
0.0
 10
1287.085831223091
 20
422.0782661574608
 30
0.0
 10
1287.085831227536
 20
528.4053452360503
 30
0.0
 10
1287.085831227536
 20
528.4053452360503
 30
0.0
  0
SPLINE
  5
7D
330
70
100
AcDbEntity
  8
Layer 1
 62
   251
420
  6316128
370
   100
100
AcDbSpline
210
0.0
220
0.0
230
1.0
 70
     9
 71
     3
 72
    14
 73
    10
 74
     0
 42
0.0000000001
 43
0.0000000001
 40
0.0
 40
0.0
 40
0.0
 40
0.0
 40
1.0
 40
1.0
 40
1.0
 40
2.0
 40
2.0
 40
2.0
 40
3.0
 40
3.0
 40
3.0
 40
3.0
 10
991.8887723149651
 20
749.8352569511085
 30
0.0
 10
991.8887723149651
 20
749.8352569511085
 30
0.0
 10
991.8887723149799
 20
750.1553555204976
 30
0.0
 10
991.8887723149799
 20
750.1553555204976
 30
0.0
 10
991.8887723149799
 20
750.1553555204976
 30
0.0
 10
992.7034241345594
 20
750.1553555204646
 30
0.0
 10
992.7034241345594
 20
750.1553555204646
 30
0.0
 10
992.4240808105814
 20
750.0612088824204
 30
0.0
 10
992.15216047658
 20
749.9545888079397
 30
0.0
 10
991.8887723149651
 20
749.8352569511085
 30
0.0
  0
SPLINE
  5
7E
330
70
100
AcDbEntity
  8
Layer 1
 62
   251
420
  6316128
370
   100
100
AcDbSpline
210
0.0
220
0.0
230
1.0
 70
     9
 71
     3
 72
    86
 73
    82
 74
     0
 42
0.0000000001
 43
0.0000000001
 40
0.0
 40
0.0
 40
0.0
 40
0.0
 40
1.0
 40
1.0
 40
1.0
 40
2.0
 40
2.0
 40
2.0
 40
3.0
 40
3.0
 40
3.0
 40
4.0
 40
4.0
 40
4.0
 40
5.0
 40
5.0
 40
5.0
 40
6.0
 40
6.0
 40
6.0
 40
7.0
 40
7.0
 40
7.0
 40
8.0
 40
8.0
 40
8.0
 40
9.0
 40
9.0
 40
9.0
 40
10.0
 40
10.0
 40
10.0
 40
11.0
 40
11.0
 40
11.0
 40
12.0
 40
12.0
 40
12.0
 40
13.0
 40
13.0
 40
13.0
 40
14.0
 40
14.0
 40
14.0
 40
15.0
 40
15.0
 40
15.0
 40
16.0
 40
16.0
 40
16.0
 40
17.0
 40
17.0
 40
17.0
 40
18.0
 40
18.0
 40
18.0
 40
19.0
 40
19.0
 40
19.0
 40
20.0
 40
20.0
 40
20.0
 40
21.0
 40
21.0
 40
21.0
 40
22.0
 40
22.0
 40
22.0
 40
23.0
 40
23.0
 40
23.0
 40
24.0
 40
24.0
 40
24.0
 40
25.0
 40
25.0
 40
25.0
 40
26.0
 40
26.0
 40
26.0
 40
27.0
 40
27.0
 40
27.0
 40
27.0
 10
1258.309188597808
 20
854.4626205216044
 30
0.0
 10
1258.309188597808
 20
854.4626205216044
 30
0.0
 10
1260.091303444769
 20
861.4303059483978
 30
0.0
 10
1260.091303444769
 20
861.4303059483978
 30
0.0
 10
1260.101542051635
 20
861.4894554606605
 30
0.0
 10
1260.113657736428
 20
861.5460626164528
 30
0.0
 10
1260.123555056402
 20
861.605490198956
 30
0.0
 10
1260.716711680968
 20
865.1373794772288
 30
0.0
 10
1261.181032502562
 20
870.4385105132027
 30
0.0
 10
1260.123555057139
 20
876.9315300421654
 30
0.0
 10
1280.605034874107
 20
881.7577965577601
 30
0.0
 10
1301.086344047627
 20
886.5841425219921
 30
0.0
 10
1321.567823864592
 20
891.4104090375838
 30
0.0
 10
1322.738608559433
 20
887.2314900374398
 30
0.0
 10
1323.649844569806
 20
874.025298798927
 30
0.0
 10
1323.644895909814
 20
873.8452681813445
 30
0.0
 10
1323.571689870602
 20
871.2239397627646
 30
0.0
 10
1323.216580855519
 20
864.933911508317
 30
0.0
 10
1321.067838560913
 20
854.9672385540985
 30
0.0
 10
1319.410378752503
 20
847.2795498299326
 30
0.0
 10
1316.753289626941
 20
835.3346851955985
 30
0.0
 10
1309.638311072121
 20
820.8937826476931
 30
0.0
 10
1306.601710919033
 20
814.7306338709759
 30
0.0
 10
1302.146210497787
 20
806.8808699219166
 30
0.0
 10
1295.662442056494
 20
798.364293539862
 30
0.0
 10
1283.670729731101
 20
806.261091084313
 30
0.0
 10
1271.679017405704
 20
814.1579680774054
 30
0.0
 10
1259.687390402033
 20
822.0548450704976
 30
0.0
 10
1259.687390402033
 20
822.0548450704976
 30
0.0
 10
1259.687390399097
 20
761.1418113509455
 30
0.0
 10
1259.687390399097
 20
761.1418113509455
 30
0.0
 10
1259.687390399097
 20
761.1418113509455
 30
0.0
 10
1332.080228135502
 20
761.1418113479191
 30
0.0
 10
1332.080228135502
 20
761.1418113479191
 30
0.0
 10
1332.080228135502
 20
761.1418113479191
 30
0.0
 10
1332.08022813548
 20
760.6539172514599
 30
0.0
 10
1332.08022813548
 20
760.6539172514599
 30
0.0
 10
1332.08022813548
 20
760.6539172514599
 30
0.0
 10
1332.209063938535
 20
760.653917251456
 30
0.0
 10
1332.209063938535
 20
760.653917251456
 30
0.0
 10
1332.209063938535
 20
760.653917251456
 30
0.0
 10
1332.209063934447
 20
675.8865089076874
 30
0.0
 10
1332.209063934447
 20
675.8865089076874
 30
0.0
 10
1332.209063934447
 20
675.8865089076874
 30
0.0
 10
1357.981599813983
 20
675.88650890661
 30
0.0
 10
1357.981599813983
 20
675.88650890661
 30
0.0
 10
1357.981599813983
 20
675.88650890661
 30
0.0
 10
1357.981599813643
 20
668.8605081781974
 30
0.0
 10
1357.981599813643
 20
668.8605081781974
 30
0.0
 10
1357.981599813643
 20
668.8605081781974
 30
0.0
 10
1332.209063934109
 20
668.8605081792742
 30
0.0
 10
1332.209063934109
 20
668.8605081792742
 30
0.0
 10
1332.209063934109
 20
668.8605081792742
 30
0.0
 10
1327.625324962252
 20
668.8605081794661
 30
0.0
 10
1327.625324962252
 20
668.8605081794661
 30
0.0
 10
1327.625324962252
 20
668.8605081794661
 30
0.0
 10
1324.517225204852
 20
668.8605081795964
 30
0.0
 10
1324.517225204852
 20
668.8605081795964
 30
0.0
 10
1324.517225204852
 20
668.8605081795964
 30
0.0
 10
1324.517225208961
 20
754.1158503441427
 30
0.0
 10
1324.517225208961
 20
754.1158503441427
 30
0.0
 10
1324.517225208961
 20
754.1158503441427
 30
0.0
 10
1259.687390398758
 20
754.115850346853
 30
0.0
 10
1259.687390398758
 20
754.115850346853
 30
0.0
 10
1259.687390398758
 20
754.115850346853
 30
0.0
 10
1251.995466347777
 20
754.1158503471754
 30
0.0
 10
1251.995466347777
 20
754.1158503471754
 30
0.0
 10
1251.995466347777
 20
754.1158503471754
 30
0.0
 10
1251.995466348116
 20
761.1418113512676
 30
0.0
 10
1251.995466348116
 20
761.1418113512676
 30
0.0
 10
1251.995466348116
 20
761.1418113512676
 30
0.0
 10
1251.995466351297
 20
827.1200930955169
 30
0.0
 10
1251.995466351297
 20
827.1200930955169
 30
0.0
 10
1249.767886784379
 20
828.5870327792094
 30
0.0
 10
1247.540307217464
 20
830.0539724629043
 30
0.0
 10
1245.312727650547
 20
831.5209121465999
 30
0.0
 10
1247.557030275551
 20
834.3334734408694
 30
0.0
 10
1250.483394761286
 20
838.3772503046962
 30
0.0
 10
1253.283824382636
 20
843.5631013643527
 30
0.0
 10
1255.017561811975
 20
846.7738195165507
 30
0.0
 10
1256.874589132333
 20
850.2691226961868
 30
0.0
 10
1258.309188597808
 20
854.4626205216044
 30
0.0
  0
SPLINE
  5
7F
330
70
100
AcDbEntity
  8
Layer 1
 62
   251
420
  6316128
370
   100
100
AcDbSpline
210
0.0
220
0.0
230
1.0
 70
     9
 71
     3
 72
    38
 73
    34
 74
     0
 42
0.0000000001
 43
0.0000000001
 40
0.0
 40
0.0
 40
0.0
 40
0.0
 40
1.0
 40
1.0
 40
1.0
 40
2.0
 40
2.0
 40
2.0
 40
3.0
 40
3.0
 40
3.0
 40
4.0
 40
4.0
 40
4.0
 40
5.0
 40
5.0
 40
5.0
 40
6.0
 40
6.0
 40
6.0
 40
7.0
 40
7.0
 40
7.0
 40
8.0
 40
8.0
 40
8.0
 40
9.0
 40
9.0
 40
9.0
 40
10.0
 40
10.0
 40
10.0
 40
11.0
 40
11.0
 40
11.0
 40
11.0
 10
1197.16381595383
 20
706.0237286631083
 30
0.0
 10
1197.128686106666
 20
712.6705226716247
 30
0.0
 10
1197.332992132901
 20
719.0505365478797
 30
0.0
 10
1197.717863339268
 20
725.150855103535
 30
0.0
 10
1197.717863339268
 20
725.150855103535
 30
0.0
 10
1198.740908015093
 20
724.8718773640229
 30
0.0
 10
1198.740908015093
 20
724.8718773640229
 30
0.0
 10
1198.740908015093
 20
724.8718773640229
 30
0.0
 10
1200.395956143794
 20
730.9411364355963
 30
0.0
 10
1200.395956143794
 20
730.9411364355963
 30
0.0
 10
1200.395956143794
 20
730.9411364355963
 30
0.0
 10
1187.066254037825
 20
734.5760609406266
 30
0.0
 10
1187.066254037825
 20
734.5760609406266
 30
0.0
 10
1187.066254037825
 20
734.5760609406266
 30
0.0
 10
1185.411205909123
 20
728.5068018690532
 30
0.0
 10
1185.411205909123
 20
728.5068018690532
 30
0.0
 10
1185.411205909123
 20
728.5068018690532
 30
0.0
 10
1193.456340496163
 20
726.3129451253526
 30
0.0
 10
1193.456340496163
 20
726.3129451253526
 30
0.0
 10
1183.366808303477
 20
717.0228512536494
 30
0.0
 10
1171.112192448058
 20
703.5320533191213
 30
0.0
 10
1160.77841011728
 20
685.1861892736981
 30
0.0
 10
1151.472282396718
 20
668.6645947533648
 30
0.0
 10
1146.577025112633
 20
653.2708597241901
 30
0.0
 10
1143.879102781695
 20
641.474079030215
 30
0.0
 10
1149.749198805827
 20
643.1192809292777
 30
0.0
 10
1156.095717546332
 20
644.6427784492115
 30
0.0
 10
1162.898368982405
 20
645.9343184218057
 30
0.0
 10
1177.651706204472
 20
648.7352389000228
 30
0.0
 10
1191.230232419475
 20
649.8140626851844
 30
0.0
 10
1203.043632132617
 20
649.9926476113296
 30
0.0
 10
1199.716833080469
 20
666.2145014155627
 30
0.0
 10
1197.274494575689
 20
685.0754488287678
 30
0.0
 10
1197.16381595383
 20
706.0237286631083
 30
0.0
  0
SPLINE
  5
80
330
70
100
AcDbEntity
  8
Layer 1
 62
   251
420
  6316128
370
   100
100
AcDbSpline
210
0.0
220
0.0
230
1.0
 70
     9
 71
     3
 72
    35
 73
    31
 74
     0
 42
0.0000000001
 43
0.0000000001
 40
0.0
 40
0.0
 40
0.0
 40
0.0
 40
1.0
 40
1.0
 40
1.0
 40
2.0
 40
2.0
 40
2.0
 40
3.0
 40
3.0
 40
3.0
 40
4.0
 40
4.0
 40
4.0
 40
5.0
 40
5.0
 40
5.0
 40
6.0
 40
6.0
 40
6.0
 40
7.0
 40
7.0
 40
7.0
 40
8.0
 40
8.0
 40
8.0
 40
9.0
 40
9.0
 40
9.0
 40
10.0
 40
10.0
 40
10.0
 40
10.0
 10
1280.836316831235
 20
413.8775585799222
 30
0.0
 10
1280.836231509877
 20
405.6898995659929
 30
0.0
 10
1280.836231510245
 20
397.5022604142237
 30
0.0
 10
1280.836231510612
 20
389.3146014002951
 30
0.0
 10
1280.836231511191
 20
376.407176771448
 30
0.0
 10
1280.836231511771
 20
363.4997521426009
 30
0.0
 10
1280.836316834077
 20
350.5923275137545
 30
0.0
 10
1279.126554809298
 20
350.5923275136781
 30
0.0
 10
1277.416707462798
 20
350.5923275136011
 30
0.0
 10
1275.706945438024
 20
350.5923275135241
 30
0.0
 10
1275.706945438024
 20
350.5923275135241
 30
0.0
 10
1254.28317250279
 20
350.5923275125622
 30
0.0
 10
1254.28317250279
 20
350.5923275125622
 30
0.0
 10
1254.28317250279
 20
350.5923275125622
 30
0.0
 10
1254.283172502792
 20
350.5655334588202
 30
0.0
 10
1254.283172502792
 20
350.5655334588202
 30
0.0
 10
1254.283172502792
 20
350.5655334588202
 30
0.0
 10
1143.115365420023
 20
350.5655334538297
 30
0.0
 10
1143.115365420023
 20
350.5655334538297
 30
0.0
 10
1143.115365420023
 20
350.5655334538297
 30
0.0
 10
1143.115365419707
 20
357.5915341822423
 30
0.0
 10
1143.115365419707
 20
357.5915341822423
 30
0.0
 10
1143.115365419707
 20
357.5915341822423
 30
0.0
 10
1246.771789219218
 20
357.5915341868959
 30
0.0
 10
1246.771789219218
 20
357.5915341868959
 30
0.0
 10
1246.771789219218
 20
357.5915341868959
 30
0.0
 10
1246.771789216691
 20
413.8775585783923
 30
0.0
 10
1246.771789216691
 20
413.8775585783923
 30
0.0
 10
1246.771789216691
 20
413.8775585783923
 30
0.0
 10
1280.836316831235
 20
413.8775585799222
 30
0.0
 10
1280.836316831235
 20
413.8775585799222
 30
0.0
  0
LWPOLYLINE
  5
81
330
70
100
AcDbEntity
  8
Layer 1
 62
   251
420
  6316128
370
   100
100
AcDbPolyline
 90
       17
 70
     1
 43
0.0
 10
1252.582050583242
 20
645.6387286276224
 10
1252.58205058352
 20
560.8586085015012
 10
1213.336275964805
 20
560.8586085016232
 10
1213.33627596483
 20
553.83260777321
 10
1258.666001426335
 20
553.8326077730695
 10
1258.666001426336
 20
553.845319555423
 10
1260.273889312804
 20
553.8453195554178
 10
1260.273889312524
 20
638.3534869878123
 10
1318.186094715928
 20
638.3534869876339
 10
1318.186094716207
 20
554.7288877396117
 10
1352.250622330751
 20
554.7288877395057
 10
1352.250622330453
 20
644.9317151825368
 10
1346.402159445563
 20
644.9317151825556
 10
1325.697477999167
 20
644.9317151826201
 10
1325.697477999162
 20
645.3794877160239
 10
1260.273889312499
 20
645.3794877162274
 10
1260.273889312497
 20
645.6387286275989
  0
SPLINE
  5
82
330
70
100
AcDbEntity
  8
Layer 1
 62
   251
420
  6316128
370
   100
100
AcDbSpline
210
0.0
220
0.0
230
1.0
 70
    11
 71
     3
 72
    71
 73
    67
 74
     0
 42
0.0000000001
 43
0.0000000001
 40
0.0
 40
0.0
 40
0.0
 40
0.0
 40
1.0
 40
1.0
 40
1.0
 40
2.0
 40
2.0
 40
2.0
 40
3.0
 40
3.0
 40
3.0
 40
4.0
 40
4.0
 40
4.0
 40
5.0
 40
5.0
 40
5.0
 40
6.0
 40
6.0
 40
6.0
 40
7.0
 40
7.0
 40
7.0
 40
8.0
 40
8.0
 40
8.0
 40
9.0
 40
9.0
 40
9.0
 40
10.0
 40
10.0
 40
10.0
 40
11.0
 40
11.0
 40
11.0
 40
12.0
 40
12.0
 40
12.0
 40
13.0
 40
13.0
 40
13.0
 40
14.0
 40
14.0
 40
14.0
 40
15.0
 40
15.0
 40
15.0
 40
16.0
 40
16.0
 40
16.0
 40
17.0
 40
17.0
 40
17.0
 40
18.0
 40
18.0
 40
18.0
 40
19.0
 40
19.0
 40
19.0
 40
20.0
 40
20.0
 40
20.0
 40
21.0
 40
21.0
 40
21.0
 40
22.0
 40
22.0
 40
22.0
 40
22.0
 10
1279.198736791723
 20
529.1631376445009
 30
0.0
 10
1279.198736791723
 20
529.1631376445009
 30
0.0
 10
1279.530315689548
 20
529.1631376445031
 30
0.0
 10
1279.530315689548
 20
529.1631376445031
 30
0.0
 10
1279.530315689548
 20
529.1631376445031
 30
0.0
 10
1279.530315689575
 20
536.8549763737591
 30
0.0
 10
1279.530315689575
 20
536.8549763737591
 30
0.0
 10
1279.530315689575
 20
536.8549763737591
 30
0.0
 10
1236.994745442882
 20
536.8549763736173
 30
0.0
 10
1236.994745442882
 20
536.8549763736173
 30
0.0
 10
1236.994745442882
 20
536.8549763736173
 30
0.0
 10
1230.027060016017
 20
536.8549763735955
 30
0.0
 10
1230.027060016017
 20
536.8549763735955
 30
0.0
 10
1230.027060016017
 20
536.8549763735955
 30
0.0
 10
1230.027060015995
 20
529.1631376443385
 30
0.0
 10
1230.027060015995
 20
529.1631376443385
 30
0.0
 10
1230.027060015995
 20
529.1631376443385
 30
0.0
 10
1230.02706001596
 20
518.5504803415904
 30
0.0
 10
1230.02706001596
 20
518.5504803415904
 30
0.0
 10
1225.415741794243
 20
517.4795220634672
 30
0.0
 10
1220.985923989941
 20
516.3303237645509
 30
0.0
 10
1216.747180164144
 20
515.1288232488959
 30
0.0
 10
1216.027852180169
 20
501.0319680298947
 30
0.0
 10
1215.308524196192
 20
486.9352834543404
 30
0.0
 10
1214.589196212216
 20
472.8384282353391
 30
0.0
 10
1225.444343304397
 20
471.7628625841784
 30
0.0
 10
1236.299490396579
 20
470.6872969330189
 30
0.0
 10
1247.154637488759
 20
469.6115606384119
 30
0.0
 10
1246.706388263536
 20
476.0625655373178
 30
0.0
 10
1246.720450672797
 20
486.4579937310764
 30
0.0
 10
1250.105916108146
 20
498.5079807942703
 30
0.0
 10
1253.45221336412
 20
510.4185521606496
 30
0.0
 10
1258.706946394547
 20
519.0140332675108
 30
0.0
 10
1262.369131441985
 20
524.1128594864286
 30
0.0
 10
1256.854680808371
 20
523.491205406237
 30
0.0
 10
1251.103711574335
 20
522.6784306645649
 30
0.0
 10
1245.143554071946
 20
521.6318743994686
 30
0.0
 10
1242.371948551352
 20
521.1451992864633
 30
0.0
 10
1239.65659266767
 20
520.6243954839061
 30
0.0
 10
1236.994745442832
 20
520.0762887297084
 30
0.0
 10
1236.994745442832
 20
520.0762887297084
 30
0.0
 10
1236.994745442859
 20
529.1631376443616
 30
0.0
 10
1236.994745442859
 20
529.1631376443616
 30
0.0
 10
1236.994745442859
 20
529.1631376443616
 30
0.0
 10
1272.172736063307
 20
529.1631376444771
 30
0.0
 10
1272.172736063307
 20
529.1631376444771
 30
0.0
 10
1272.172736063307
 20
529.1631376444771
 30
0.0
 10
1272.172736062978
 20
422.8360585658879
 30
0.0
 10
1272.172736062978
 20
422.8360585658879
 30
0.0
 10
1269.125284865313
 20
422.8360585658763
 30
0.0
 10
1266.077793943326
 20
422.8360585658673
 30
0.0
 10
1263.030303021339
 20
422.8360585658557
 30
0.0
 10
1263.779146174914
 20
420.2721407633474
 30
0.0
 10
1264.527949604172
 20
417.7081376391154
 30
0.0
 10
1265.276792757746
 20
415.1442198366084
 30
0.0
 10
1267.575440526151
 20
415.1442198366136
 30
0.0
 10
1269.874088294553
 20
415.1442198366225
 30
0.0
 10
1272.172736062954
 20
415.1442198366315
 30
0.0
 10
1272.172736062954
 20
415.1442198366315
 30
0.0
 10
1279.198736791366
 20
415.1442198366547
 30
0.0
 10
1279.198736791366
 20
415.1442198366547
 30
0.0
 10
1279.198736791366
 20
415.1442198366547
 30
0.0
 10
1279.198736791393
 20
422.8360585659109
 30
0.0
 10
1279.198736791393
 20
422.8360585659109
 30
0.0
 10
1279.198736791393
 20
422.8360585659109
 30
0.0
 10
1279.198736791723
 20
529.1631376445009
 30
0.0
 10
1279.198736791723
 20
529.1631376445009
 30
0.0
  0
SPLINE
  5
83
330
70
100
AcDbEntity
  8
Layer 1
 62
   251
420
  6316128
370
   100
100
AcDbSpline
210
0.0
220
0.0
230
1.0
 70
     9
 71
     3
 72
    14
 73
    10
 74
     0
 42
0.0000000001
 43
0.0000000001
 40
0.0
 40
0.0
 40
0.0
 40
0.0
 40
1.0
 40
1.0
 40
1.0
 40
2.0
 40
2.0
 40
2.0
 40
3.0
 40
3.0
 40
3.0
 40
3.0
 10
597.0395047718612
 20
590.1888164756252
 30
0.0
 10
597.0395047718612
 20
590.1888164756252
 30
0.0
 10
597.0395047718618
 20
590.5089150450139
 30
0.0
 10
597.0395047718618
 20
590.5089150450139
 30
0.0
 10
597.0395047718618
 20
590.5089150450139
 30
0.0
 10
596.2248529522821
 20
590.5089150450181
 30
0.0
 10
596.2248529522821
 20
590.5089150450181
 30
0.0
 10
596.5041962762552
 20
590.4147684069609
 30
0.0
 10
596.7761166102523
 20
590.3081483324681
 30
0.0
 10
597.0395047718612
 20
590.1888164756252
 30
0.0
  0
SPLINE
  5
84
330
70
100
AcDbEntity
  8
Layer 1
 62
   251
420
  6316128
370
   100
100
AcDbSpline
210
0.0
220
0.0
230
1.0
 70
     9
 71
     3
 72
    86
 73
    82
 74
     0
 42
0.0000000001
 43
0.0000000001
 40
0.0
 40
0.0
 40
0.0
 40
0.0
 40
1.0
 40
1.0
 40
1.0
 40
2.0
 40
2.0
 40
2.0
 40
3.0
 40
3.0
 40
3.0
 40
4.0
 40
4.0
 40
4.0
 40
5.0
 40
5.0
 40
5.0
 40
6.0
 40
6.0
 40
6.0
 40
7.0
 40
7.0
 40
7.0
 40
8.0
 40
8.0
 40
8.0
 40
9.0
 40
9.0
 40
9.0
 40
10.0
 40
10.0
 40
10.0
 40
11.0
 40
11.0
 40
11.0
 40
12.0
 40
12.0
 40
12.0
 40
13.0
 40
13.0
 40
13.0
 40
14.0
 40
14.0
 40
14.0
 40
15.0
 40
15.0
 40
15.0
 40
16.0
 40
16.0
 40
16.0
 40
17.0
 40
17.0
 40
17.0
 40
18.0
 40
18.0
 40
18.0
 40
19.0
 40
19.0
 40
19.0
 40
20.0
 40
20.0
 40
20.0
 40
21.0
 40
21.0
 40
21.0
 40
22.0
 40
22.0
 40
22.0
 40
23.0
 40
23.0
 40
23.0
 40
24.0
 40
24.0
 40
24.0
 40
25.0
 40
25.0
 40
25.0
 40
26.0
 40
26.0
 40
26.0
 40
27.0
 40
27.0
 40
27.0
 40
27.0
 10
1205.303016124082
 20
854.4626205179982
 30
0.0
 10
1205.303016124082
 20
854.4626205179982
 30
0.0
 10
1203.520901277433
 20
861.4303059448717
 30
0.0
 10
1203.520901277433
 20
861.4303059448717
 30
0.0
 10
1203.51066267057
 20
861.4894554571352
 30
0.0
 10
1203.498546985779
 20
861.5460626129278
 30
0.0
 10
1203.488649665808
 20
861.6054901954314
 30
0.0
 10
1202.8954930414
 20
865.1373794737311
 30
0.0
 10
1202.431172220044
 20
870.4385105097257
 30
0.0
 10
1203.488649665759
 20
876.9315300386409
 30
0.0
 10
1183.007169849007
 20
881.7577965551551
 30
0.0
 10
1162.525860675705
 20
886.5841425203068
 30
0.0
 10
1142.044380858956
 20
891.4104090368178
 30
0.0
 10
1140.873596163928
 20
887.2314900367266
 30
0.0
 10
1139.962360152962
 20
874.0252987982549
 30
0.0
 10
1139.967308812946
 20
873.8452681806718
 30
0.0
 10
1140.04051485204
 20
871.2239397620885
 30
0.0
 10
1140.39562386684
 20
864.9339115076251
 30
0.0
 10
1142.544366161
 20
854.9672385533101
 30
0.0
 10
1144.201825969064
 20
847.2795498290702
 30
0.0
 10
1146.858915094089
 20
835.3346851946163
 30
0.0
 10
1153.973893648261
 20
820.8937826463914
 30
0.0
 10
1157.010493801072
 20
814.7306338695385
 30
0.0
 10
1161.465994221966
 20
806.880869920279
 30
0.0
 10
1167.949762662877
 20
798.3642935379333
 30
0.0
 10
1179.941474988624
 20
806.261091081846
 30
0.0
 10
1191.933187314376
 20
814.1579680743999
 30
0.0
 10
1203.924814318402
 20
822.0548450669539
 30
0.0
 10
1203.924814318402
 20
822.0548450669539
 30
0.0
 10
1203.924814318603
 20
761.1418113474017
 30
0.0
 10
1203.924814318603
 20
761.1418113474017
 30
0.0
 10
1203.924814318603
 20
761.1418113474017
 30
0.0
 10
1131.531976582197
 20
761.1418113476256
 30
0.0
 10
1131.531976582197
 20
761.1418113476256
 30
0.0
 10
1131.531976582197
 20
761.1418113476256
 30
0.0
 10
1131.531976582197
 20
760.6539172511664
 30
0.0
 10
1131.531976582197
 20
760.6539172511664
 30
0.0
 10
1131.531976582197
 20
760.6539172511664
 30
0.0
 10
1131.403140779142
 20
760.6539172511682
 30
0.0
 10
1131.403140779142
 20
760.6539172511682
 30
0.0
 10
1131.403140779142
 20
760.6539172511682
 30
0.0
 10
1131.403140779425
 20
675.8865089073996
 30
0.0
 10
1131.403140779425
 20
675.8865089073996
 30
0.0
 10
1131.403140779425
 20
675.8865089073996
 30
0.0
 10
1105.630604899889
 20
675.8865089074792
 30
0.0
 10
1105.630604899889
 20
675.8865089074792
 30
0.0
 10
1105.630604899889
 20
675.8865089074792
 30
0.0
 10
1105.630604899913
 20
668.8605081790666
 30
0.0
 10
1105.630604899913
 20
668.8605081790666
 30
0.0
 10
1105.630604899913
 20
668.8605081790666
 30
0.0
 10
1131.403140779448
 20
668.8605081789865
 30
0.0
 10
1131.403140779448
 20
668.8605081789865
 30
0.0
 10
1131.403140779448
 20
668.8605081789865
 30
0.0
 10
1135.986879751305
 20
668.8605081789724
 30
0.0
 10
1135.986879751305
 20
668.8605081789724
 30
0.0
 10
1135.986879751305
 20
668.8605081789724
 30
0.0
 10
1139.094979508705
 20
668.8605081789634
 30
0.0
 10
1139.094979508705
 20
668.8605081789634
 30
0.0
 10
1139.094979508705
 20
668.8605081789634
 30
0.0
 10
1139.094979508424
 20
754.1158503435093
 30
0.0
 10
1139.094979508424
 20
754.1158503435093
 30
0.0
 10
1139.094979508424
 20
754.1158503435093
 30
0.0
 10
1203.924814318625
 20
754.1158503433091
 30
0.0
 10
1203.924814318625
 20
754.1158503433091
 30
0.0
 10
1203.924814318625
 20
754.1158503433091
 30
0.0
 10
1211.616738369607
 20
754.115850343286
 30
0.0
 10
1211.616738369607
 20
754.115850343286
 30
0.0
 10
1211.616738369607
 20
754.115850343286
 30
0.0
 10
1211.616738369584
 20
761.1418113473786
 30
0.0
 10
1211.616738369584
 20
761.1418113473786
 30
0.0
 10
1211.616738369584
 20
761.1418113473786
 30
0.0
 10
1211.616738369365
 20
827.1200930916277
 30
0.0
 10
1211.616738369365
 20
827.1200930916277
 30
0.0
 10
1213.844317936349
 20
828.5870327752203
 30
0.0
 10
1216.071897503329
 20
830.0539724588151
 30
0.0
 10
1218.299477070312
 20
831.5209121424105
 30
0.0
 10
1216.055174445434
 20
834.3334734367807
 30
0.0
 10
1213.128809959882
 20
838.3772503007392
 30
0.0
 10
1210.328380338764
 20
843.5631013605215
 30
0.0
 10
1208.594642909569
 20
846.7738195127971
 30
0.0
 10
1206.737615589367
 20
850.2691226925165
 30
0.0
 10
1205.303016124082
 20
854.4626205179982
 30
0.0
  0
SPLINE
  5
85
330
70
100
AcDbEntity
  8
Layer 1
 62
   251
420
  6316128
370
   100
100
AcDbSpline
210
0.0
220
0.0
230
1.0
 70
     9
 71
     3
 72
    38
 73
    34
 74
     0
 42
0.0000000001
 43
0.0000000001
 40
0.0
 40
0.0
 40
0.0
 40
0.0
 40
1.0
 40
1.0
 40
1.0
 40
2.0
 40
2.0
 40
2.0
 40
3.0
 40
3.0
 40
3.0
 40
4.0
 40
4.0
 40
4.0
 40
5.0
 40
5.0
 40
5.0
 40
6.0
 40
6.0
 40
6.0
 40
7.0
 40
7.0
 40
7.0
 40
8.0
 40
8.0
 40
8.0
 40
9.0
 40
9.0
 40
9.0
 40
10.0
 40
10.0
 40
10.0
 40
11.0
 40
11.0
 40
11.0
 40
11.0
 10
1192.040862977091
 20
608.6982828557056
 30
0.0
 10
1197.353246509551
 20
612.6932404151629
 30
0.0
 10
1202.30834531073
 20
616.7173320995198
 30
0.0
 10
1206.93150940624
 20
620.7158775940645
 30
0.0
 10
1206.93150940624
 20
620.7158775940645
 30
0.0
 10
1206.090241510692
 20
621.3614140498876
 30
0.0
 10
1206.090241510692
 20
621.3614140498876
 30
0.0
 10
1206.090241510692
 20
621.3614140498876
 30
0.0
 10
1209.919915896491
 20
626.3522741045219
 30
0.0
 10
1209.919915896491
 20
626.3522741045219
 30
0.0
 10
1209.919915896491
 20
626.3522741045219
 30
0.0
 10
1220.881167837845
 20
617.9412937651492
 30
0.0
 10
1220.881167837845
 20
617.9412937651492
 30
0.0
 10
1220.881167837845
 20
617.9412937651492
 30
0.0
 10
1217.051493452046
 20
612.9504337105142
 30
0.0
 10
1217.051493452046
 20
612.9504337105142
 30
0.0
 10
1217.051493452046
 20
612.9504337105142
 30
0.0
 10
1210.435835696938
 20
618.0268764022766
 30
0.0
 10
1210.435835696938
 20
618.0268764022766
 30
0.0
 10
1209.147152716072
 20
604.3724338949044
 30
0.0
 10
1205.82493719425
 20
586.4520510111389
 30
0.0
 10
1197.475319203711
 20
567.122238175906
 30
0.0
 10
1189.955914531715
 20
549.7146061708213
 30
0.0
 10
1180.664686067436
 20
536.5008370018659
 30
0.0
 10
1172.906860672586
 20
527.2132665559134
 30
0.0
 10
1170.663677345022
 20
532.8818506101692
 30
0.0
 10
1168.035261039241
 20
538.856026079666
 30
0.0
 10
1164.946126081287
 20
545.0529113677005
 30
0.0
 10
1158.24642698657
 20
558.4924108655824
 30
0.0
 10
1150.886913659244
 20
569.9544263304061
 30
0.0
 10
1143.879102781695
 20
579.4664656523816
 30
0.0
 10
1158.805885962175
 20
586.6363524480185
 30
0.0
 10
1175.298183086408
 20
596.1075978920806
 30
0.0
 10
1192.040862977091
 20
608.6982828557056
 30
0.0
  0
SPLINE
  5
86
330
70
100
AcDbEntity
  8
Layer 1
 62
   251
420
  6316128
370
   100
100
AcDbSpline
210
0.0
220
0.0
230
1.0
 70
    11
 71
     3
 72
    56
 73
    52
 74
     0
 42
0.0000000001
 43
0.0000000001
 40
0.0
 40
0.0
 40
0.0
 40
0.0
 40
1.0
 40
1.0
 40
1.0
 40
2.0
 40
2.0
 40
2.0
 40
3.0
 40
3.0
 40
3.0
 40
4.0
 40
4.0
 40
4.0
 40
5.0
 40
5.0
 40
5.0
 40
6.0
 40
6.0
 40
6.0
 40
7.0
 40
7.0
 40
7.0
 40
8.0
 40
8.0
 40
8.0
 40
9.0
 40
9.0
 40
9.0
 40
10.0
 40
10.0
 40
10.0
 40
11.0
 40
11.0
 40
11.0
 40
12.0
 40
12.0
 40
12.0
 40
13.0
 40
13.0
 40
13.0
 40
14.0
 40
14.0
 40
14.0
 40
15.0
 40
15.0
 40
15.0
 40
16.0
 40
16.0
 40
16.0
 40
17.0
 40
17.0
 40
17.0
 40
17.0
 10
1239.325719715647
 20
327.1964129468593
 30
0.0
 10
1239.325719715647
 20
327.1964129468593
 30
0.0
 10
1239.325719715647
 20
290.1228791562144
 30
0.0
 10
1239.325719715647
 20
290.1228791562144
 30
0.0
 10
1239.325719715647
 20
290.1228791562144
 30
0.0
 10
1245.174199938795
 20
290.1228791562144
 30
0.0
 10
1245.174199938795
 20
290.1228791562144
 30
0.0
 10
1250.327416829325
 20
289.9731897573803
 30
0.0
 10
1263.340877451614
 20
289.6746722335834
 30
0.0
 10
1264.694412404075
 20
289.6751028705191
 30
0.0
 10
1264.694412404075
 20
289.6751028705191
 30
0.0
 10
1331.302448343912
 20
289.6751028705191
 30
0.0
 10
1331.302448343912
 20
289.6751028705191
 30
0.0
 10
1331.302448343912
 20
289.6751028705191
 30
0.0
 10
1331.302448343912
 20
237.6851669026138
 30
0.0
 10
1331.302448343912
 20
237.6851669026138
 30
0.0
 10
1331.302448343912
 20
237.6851669026138
 30
0.0
 10
1331.302448343912
 20
234.1721169089174
 30
0.0
 10
1331.302448343912
 20
234.1721169089174
 30
0.0
 10
1331.302448343912
 20
234.1721169089174
 30
0.0
 10
1331.302448343912
 20
230.6591530426082
 30
0.0
 10
1331.302448343912
 20
230.6591530426082
 30
0.0
 10
1331.302448343912
 20
230.6591530426082
 30
0.0
 10
1378.895667326154
 20
230.6591530426082
 30
0.0
 10
1378.895667326154
 20
230.6591530426082
 30
0.0
 10
1378.895667326154
 20
230.6591530426082
 30
0.0
 10
1378.895667326154
 20
237.6851669026138
 30
0.0
 10
1378.895667326154
 20
237.6851669026138
 30
0.0
 10
1378.895667326154
 20
237.6851669026138
 30
0.0
 10
1338.994313033829
 20
237.6851669026138
 30
0.0
 10
1338.994313033829
 20
237.6851669026138
 30
0.0
 10
1338.994313033829
 20
237.6851669026138
 30
0.0
 10
1338.994313033829
 20
289.6751028705191
 30
0.0
 10
1338.994313033829
 20
289.6751028705191
 30
0.0
 10
1338.994313033829
 20
289.6751028705191
 30
0.0
 10
1338.994313033829
 20
294.0150619080632
 30
0.0
 10
1338.994313033829
 20
294.0150619080632
 30
0.0
 10
1338.994313033829
 20
294.0150619080632
 30
0.0
 10
1338.994313033829
 20
296.7010736668312
 30
0.0
 10
1338.994313033829
 20
296.7010736668312
 30
0.0
 10
1338.994313033829
 20
296.7010736668312
 30
0.0
 10
1273.390264045782
 20
296.7010736668312
 30
0.0
 10
1273.390264045782
 20
296.7010736668312
 30
0.0
 10
1273.390264045782
 20
296.7010736668312
 30
0.0
 10
1273.390264045782
 20
333.4111929474757
 30
0.0
 10
1273.390264045782
 20
333.4111929474757
 30
0.0
 10
1273.390264045782
 20
333.4111929474757
 30
0.0
 10
1239.325719715647
 20
333.4111929474757
 30
0.0
 10
1239.325719715647
 20
333.4111929474757
 30
0.0
 10
1239.325719715647
 20
333.4111929474757
 30
0.0
 10
1239.325719715647
 20
327.1964129468593
 30
0.0
 10
1239.325719715647
 20
327.1964129468593
 30
0.0
  0
LWPOLYLINE
  5
87
330
70
100
AcDbEntity
  8
Layer 1
 62
   230
420
 16723048
370
   100
100
AcDbPolyline
 90
       13
 70
     1
 43
0.0
 10
392.7661970537954
 20
508.5122776421194
 10
392.7661970537954
 20
543.0327803597263
 10
392.7661970537954
 20
612.1686981755585
 10
473.6374020031957
 20
612.1686981755585
 10
473.6374020031957
 20
646.2332425056926
 10
254.9541094146374
 20
646.2332425056926
 10
254.9541094146374
 20
612.1686981755585
 10
329.4541270283909
 20
612.1686981755585
 10
385.7401831937898
 20
612.1686981755585
 10
385.7401831937898
 20
543.0327803597263
 10
385.7265750666231
 20
543.0327803597263
 10
385.7265750666231
 20
435.4419100592042
 10
392.7661970537954
 20
435.4419100592042
  0
LWPOLYLINE
  5
88
330
70
100
AcDbEntity
  8
Layer 1
 62
   230
420
 16723048
370
   100
100
AcDbPolyline
 90
       13
 70
     1
 43
0.0
 10
392.7661970592146
 20
796.1084924663656
 10
392.7661970576643
 20
761.5879897487587
 10
392.7661970545604
 20
692.4520719329263
 10
473.6374020039606
 20
692.4520719292956
 10
473.6374020024315
 20
658.3875275991617
 10
254.9541094138731
 20
658.3875276089797
 10
254.9541094154023
 20
692.4520719391137
 10
329.4541270291558
 20
692.4520719357691
 10
385.7401831945547
 20
692.4520719332421
 10
385.7401831976586
 20
761.5879897490745
 10
385.7265750704919
 20
761.5879897490745
 10
385.7265750753226
 20
869.1788600495968
 10
392.766197062495
 20
869.1788600492804
  0
SPLINE
  5
89
330
70
100
AcDbEntity
  8
Layer 1
 62
   230
420
 16723048
370
   100
100
AcDbSpline
210
0.0
220
0.0
230
1.0
 70
    11
 71
     3
 72
    92
 73
    88
 74
     0
 42
0.0000000001
 43
0.0000000001
 40
0.0
 40
0.0
 40
0.0
 40
0.0
 40
1.0
 40
1.0
 40
1.0
 40
2.0
 40
2.0
 40
2.0
 40
3.0
 40
3.0
 40
3.0
 40
4.0
 40
4.0
 40
4.0
 40
5.0
 40
5.0
 40
5.0
 40
6.0
 40
6.0
 40
6.0
 40
7.0
 40
7.0
 40
7.0
 40
8.0
 40
8.0
 40
8.0
 40
9.0
 40
9.0
 40
9.0
 40
10.0
 40
10.0
 40
10.0
 40
11.0
 40
11.0
 40
11.0
 40
12.0
 40
12.0
 40
12.0
 40
13.0
 40
13.0
 40
13.0
 40
14.0
 40
14.0
 40
14.0
 40
15.0
 40
15.0
 40
15.0
 40
16.0
 40
16.0
 40
16.0
 40
17.0
 40
17.0
 40
17.0
 40
18.0
 40
18.0
 40
18.0
 40
19.0
 40
19.0
 40
19.0
 40
20.0
 40
20.0
 40
20.0
 40
21.0
 40
21.0
 40
21.0
 40
22.0
 40
22.0
 40
22.0
 40
23.0
 40
23.0
 40
23.0
 40
24.0
 40
24.0
 40
24.0
 40
25.0
 40
25.0
 40
25.0
 40
26.0
 40
26.0
 40
26.0
 40
27.0
 40
27.0
 40
27.0
 40
28.0
 40
28.0
 40
28.0
 40
29.0
 40
29.0
 40
29.0
 40
29.0
 10
382.7232318300316
 20
368.9156169369823
 30
0.0
 10
382.7232318300316
 20
368.9156169369823
 30
0.0
 10
382.7232318300316
 20
453.6045044483621
 30
0.0
 10
382.7232318300316
 20
453.6045044483621
 30
0.0
 10
382.7232318300316
 20
453.6045044483621
 30
0.0
 10
382.5943852588832
 20
453.6045044483621
 30
0.0
 10
382.5943852588832
 20
453.6045044483621
 30
0.0
 10
382.5943852588832
 20
453.6045044483621
 30
0.0
 10
382.5943852588832
 20
454.0924160964606
 30
0.0
 10
382.5943852588832
 20
454.0924160964606
 30
0.0
 10
382.5943852588832
 20
454.0924160964606
 30
0.0
 10
310.2015387668361
 20
454.0924160964606
 30
0.0
 10
310.2015387668361
 20
454.0924160964606
 30
0.0
 10
310.2015387668361
 20
454.0924160964606
 30
0.0
 10
310.2015387668361
 20
515.0054077533244
 30
0.0
 10
310.2015387668361
 20
515.0054077533244
 30
0.0
 10
322.1931840682001
 20
507.1085598820347
 30
0.0
 10
334.1848939651045
 20
499.2116258833578
 30
0.0
 10
346.176603862009
 20
491.3148641394553
 30
0.0
 10
352.6603596926362
 20
499.8313985611543
 30
0.0
 10
357.1158586200163
 20
507.6812208790704
 30
0.0
 10
360.1524734399494
 20
513.8443244474081
 30
0.0
 10
367.2674568908616
 20
528.285217320317
 30
0.0
 10
369.9245298475541
 20
540.2301385141623
 30
0.0
 10
371.5819868173546
 20
547.9177829621102
 30
0.0
 10
373.7307359351985
 20
557.884444200938
 30
0.0
 10
374.0858391523407
 20
564.174499537907
 30
0.0
 10
374.1590474314022
 20
566.7957865652466
 30
0.0
 10
374.1639997561622
 20
566.9758789317381
 30
0.0
 10
373.2527720003137
 20
580.1820495827334
 30
0.0
 10
372.0819778314983
 20
584.3609504063414
 30
0.0
 10
351.600497598446
 20
579.5347161410549
 30
0.0
 10
331.1191896201679
 20
574.7083096209942
 30
0.0
 10
310.6377093871154
 20
569.8820753557076
 30
0.0
 10
311.6951814463129
 20
563.3891038946573
 30
0.0
 10
311.2308687022883
 20
558.0879632167291
 30
0.0
 10
310.6377093871154
 20
554.5560513252509
 30
0.0
 10
310.6278262694421
 20
554.4966234281304
 30
0.0
 10
310.6157038397034
 20
554.4400377347852
 30
0.0
 10
310.6054546806348
 20
554.380868219826
 30
0.0
 10
310.6054546806348
 20
554.380868219826
 30
0.0
 10
308.8233498498086
 20
547.4131626009081
 30
0.0
 10
308.8233498498086
 20
547.4131626009081
 30
0.0
 10
307.3887474942103
 20
543.219706248875
 30
0.0
 10
305.5317118365799
 20
539.7243984969276
 30
0.0
 10
303.7979890654747
 20
536.5136556320619
 30
0.0
 10
300.9975570729022
 20
531.3278395255024
 30
0.0
 10
298.0711853084971
 20
527.2839864449162
 30
0.0
 10
295.8268778546311
 20
524.4714966181454
 30
0.0
 10
298.0544550635469
 20
523.0044888331389
 30
0.0
 10
300.2820538043094
 20
521.5375671755195
 30
0.0
 10
302.5096310132251
 20
520.0706455179
 30
0.0
 10
302.5096310132251
 20
520.0706455179
 30
0.0
 10
302.5096310132251
 20
454.0924160964606
 30
0.0
 10
302.5096310132251
 20
454.0924160964606
 30
0.0
 10
302.5096310132251
 20
454.0924160964606
 30
0.0
 10
302.5096310132251
 20
447.0664022364549
 30
0.0
 10
302.5096310132251
 20
447.0664022364549
 30
0.0
 10
302.5096310132251
 20
447.0664022364549
 30
0.0
 10
310.2015387668361
 20
447.0664022364549
 30
0.0
 10
310.2015387668361
 20
447.0664022364549
 30
0.0
 10
310.2015387668361
 20
447.0664022364549
 30
0.0
 10
375.031388671961
 20
447.0664022364549
 30
0.0
 10
375.031388671961
 20
447.0664022364549
 30
0.0
 10
375.031388671961
 20
447.0664022364549
 30
0.0
 10
375.031388671961
 20
368.9156169369823
 30
0.0
 10
375.031388671961
 20
368.9156169369823
 30
0.0
 10
375.031388671961
 20
368.9156169369823
 30
0.0
 10
375.031388671961
 20
361.8110548999129
 30
0.0
 10
375.031388671961
 20
361.8110548999129
 30
0.0
 10
375.031388671961
 20
361.8110548999129
 30
0.0
 10
378.1394892232131
 20
361.8110548999129
 30
0.0
 10
378.1394892232131
 20
361.8110548999129
 30
0.0
 10
378.1394892232131
 20
361.8110548999129
 30
0.0
 10
382.7232318300316
 20
361.8110548999129
 30
0.0
 10
382.7232318300316
 20
361.8110548999129
 30
0.0
 10
382.7232318300316
 20
361.8110548999129
 30
0.0
 10
408.495754304871
 20
361.8110548999129
 30
0.0
 10
408.495754304871
 20
361.8110548999129
 30
0.0
 10
408.495754304871
 20
361.8110548999129
 30
0.0
 10
506.6182103011194
 20
361.8110548999129
 30
0.0
 10
506.6182103011194
 20
361.8110548999129
 30
0.0
 10
506.6182103011194
 20
361.8110548999129
 30
0.0
 10
506.6182103011194
 20
368.9156169369823
 30
0.0
 10
506.6182103011194
 20
368.9156169369823
 30
0.0
 10
506.6182103011194
 20
368.9156169369823
 30
0.0
 10
382.7232318300316
 20
368.9156169369823
 30
0.0
 10
382.7232318300316
 20
368.9156169369823
 30
0.0
  0
SPLINE
  5
8A
330
70
100
AcDbEntity
  8
Layer 1
 62
   230
420
 16723048
370
   100
100
AcDbSpline
210
0.0
220
0.0
230
1.0
 70
    11
 71
     3
 72
    92
 73
    88
 74
     0
 42
0.0000000001
 43
0.0000000001
 40
0.0
 40
0.0
 40
0.0
 40
0.0
 40
1.0
 40
1.0
 40
1.0
 40
2.0
 40
2.0
 40
2.0
 40
3.0
 40
3.0
 40
3.0
 40
4.0
 40
4.0
 40
4.0
 40
5.0
 40
5.0
 40
5.0
 40
6.0
 40
6.0
 40
6.0
 40
7.0
 40
7.0
 40
7.0
 40
8.0
 40
8.0
 40
8.0
 40
9.0
 40
9.0
 40
9.0
 40
10.0
 40
10.0
 40
10.0
 40
11.0
 40
11.0
 40
11.0
 40
12.0
 40
12.0
 40
12.0
 40
13.0
 40
13.0
 40
13.0
 40
14.0
 40
14.0
 40
14.0
 40
15.0
 40
15.0
 40
15.0
 40
16.0
 40
16.0
 40
16.0
 40
17.0
 40
17.0
 40
17.0
 40
18.0
 40
18.0
 40
18.0
 40
19.0
 40
19.0
 40
19.0
 40
20.0
 40
20.0
 40
20.0
 40
21.0
 40
21.0
 40
21.0
 40
22.0
 40
22.0
 40
22.0
 40
23.0
 40
23.0
 40
23.0
 40
24.0
 40
24.0
 40
24.0
 40
25.0
 40
25.0
 40
25.0
 40
26.0
 40
26.0
 40
26.0
 40
27.0
 40
27.0
 40
27.0
 40
28.0
 40
28.0
 40
28.0
 40
29.0
 40
29.0
 40
29.0
 40
29.0
 10
487.0699648995381
 20
680.8107911770325
 30
0.0
 10
487.0699648995381
 20
680.8107911770325
 30
0.0
 10
485.8538943385134
 20
596.130635058224
 30
0.0
 10
485.8538943385134
 20
596.130635058224
 30
0.0
 10
485.8538943385134
 20
596.130635058224
 30
0.0
 10
485.7250610513982
 20
596.1324852008659
 30
0.0
 10
485.7250610513982
 20
596.1324852008659
 30
0.0
 10
485.7250610513982
 20
596.1324852008659
 30
0.0
 10
485.7180549965413
 20
595.6446238562754
 30
0.0
 10
485.7180549965413
 20
595.6446238562754
 30
0.0
 10
485.7180549965413
 20
595.6446238562754
 30
0.0
 10
413.3326721798436
 20
596.6841322502898
 30
0.0
 10
413.3326721798436
 20
596.6841322502898
 30
0.0
 10
413.3326721798436
 20
596.6841322502898
 30
0.0
 10
412.4580061154449
 20
535.7774207000428
 30
0.0
 10
412.4580061154449
 20
535.7774207000428
 30
0.0
 10
424.5618080496042
 20
543.5012631424195
 30
0.0
 10
436.6656758093703
 20
551.2251907757585
 30
0.0
 10
448.7695410956845
 20
558.9489461720829
 30
0.0
 10
455.1303372403873
 20
550.3401878044253
 30
0.0
 10
459.4726590931596
 20
542.4271970903105
 30
0.0
 10
462.4204631740316
 20
536.2211253650171
 30
0.0
 10
469.3273523999621
 20
521.6795553777587
 30
0.0
 10
471.8126310706248
 20
509.6977120740965
 30
0.0
 10
473.3595281986397
 20
501.9870603480655
 30
0.0
 10
475.3649418063235
 20
491.9905722005661
 30
0.0
 10
475.6296878125852
 20
485.6960663431434
 30
0.0
 10
475.6652487769884
 20
483.0739983521042
 30
0.0
 10
475.6676145963374
 20
482.8938534413023
 30
0.0
 10
474.5668498240395
 20
469.7021289064933
 30
0.0
 10
473.3361704004455
 20
465.5404706750146
 30
0.0
 10
452.9261029989068
 20
470.6603064521677
 30
0.0
 10
432.5162103078366
 20
475.7803119928826
 30
0.0
 10
412.1061429062989
 20
480.9001477700357
 30
0.0
 10
413.2567402677103
 20
487.3772652818543
 30
0.0
 10
412.8685959019074
 20
492.6845266059973
 30
0.0
 10
412.3262134160039
 20
496.2245916931574
 30
0.0
 10
412.3171846584682
 20
496.2841553776346
 30
0.0
 10
412.305876007769
 20
496.3409093062514
 30
0.0
 10
412.2964775363972
 20
496.4002198912936
 30
0.0
 10
412.2964775363972
 20
496.4002198912936
 30
0.0
 10
410.6146076028217
 20
503.3927968659489
 30
0.0
 10
410.6146076028217
 20
503.3927968659489
 30
0.0
 10
409.2403681241631
 20
507.6064207160801
 30
0.0
 10
407.4337139922746
 20
511.1280337786219
 30
0.0
 10
405.7462738894893
 20
514.3633406096425
 30
0.0
 10
403.0205951515558
 20
519.5888342182544
 30
0.0
 10
400.1525918712614
 20
523.6742909399811
 30
0.0
 10
397.9489011040947
 20
526.5187174157177
 30
0.0
 10
400.1973138108061
 20
527.9535875712541
 30
0.0
 10
402.4457468104174
 20
529.3883712991017
 30
0.0
 10
404.6941582804029
 20
530.8231553361308
 30
0.0
 10
404.6941582804029
 20
530.8231553361308
 30
0.0
 10
405.64155745904
 20
596.7945824268378
 30
0.0
 10
405.64155745904
 20
596.7945824268378
 30
0.0
 10
405.64155745904
 20
596.7945824268378
 30
0.0
 10
405.742445885699
 20
603.8198719074467
 30
0.0
 10
405.742445885699
 20
603.8198719074467
 30
0.0
 10
405.742445885699
 20
603.8198719074467
 30
0.0
 10
413.4335606065026
 20
603.7094217308987
 30
0.0
 10
413.4335606065026
 20
603.7094217308987
 30
0.0
 10
413.4335606065026
 20
603.7094217308987
 30
0.0
 10
478.2567265783926
 20
602.7785124432458
 30
0.0
 10
478.2567265783926
 20
602.7785124432458
 30
0.0
 10
478.2567265783926
 20
602.7785124432458
 30
0.0
 10
479.3789147676153
 20
680.9212404260356
 30
0.0
 10
479.3789147676153
 20
680.9212404260356
 30
0.0
 10
479.3789147676153
 20
680.9212404260356
 30
0.0
 10
479.4809310887194
 20
688.0250699854208
 30
0.0
 10
479.4809310887194
 20
688.0250699854208
 30
0.0
 10
479.4809310887194
 20
688.0250699854208
 30
0.0
 10
482.5887111959693
 20
687.980439931914
 30
0.0
 10
482.5887111959693
 20
687.980439931914
 30
0.0
 10
482.5887111959693
 20
687.980439931914
 30
0.0
 10
487.1719812206422
 20
687.9146207364177
 30
0.0
 10
487.1719812206422
 20
687.9146207364177
 30
0.0
 10
487.1719812206422
 20
687.9146207364177
 30
0.0
 10
512.9418465580709
 20
687.5445461400213
 30
0.0
 10
512.9418465580709
 20
687.5445461400213
 30
0.0
 10
512.9418465580709
 20
687.5445461400213
 30
0.0
 10
611.0541861658695
 20
686.1355793485222
 30
0.0
 10
611.0541861658695
 20
686.1355793485222
 30
0.0
 10
611.0541861658695
 20
686.1355793485222
 30
0.0
 10
610.9521698447661
 20
679.031749789137
 30
0.0
 10
610.9521698447661
 20
679.031749789137
 30
0.0
 10
610.9521698447661
 20
679.031749789137
 30
0.0
 10
487.0699648995381
 20
680.8107911770325
 30
0.0
 10
487.0699648995381
 20
680.8107911770325
 30
0.0
  0
SPLINE
  5
8B
330
70
100
AcDbEntity
  8
Layer 1
 62
   230
420
 16723048
370
   100
100
AcDbSpline
210
0.0
220
0.0
230
1.0
 70
    11
 71
     3
 72
    50
 73
    46
 74
     0
 42
0.0000000001
 43
0.0000000001
 40
0.0
 40
0.0
 40
0.0
 40
0.0
 40
1.0
 40
1.0
 40
1.0
 40
2.0
 40
2.0
 40
2.0
 40
3.0
 40
3.0
 40
3.0
 40
4.0
 40
4.0
 40
4.0
 40
5.0
 40
5.0
 40
5.0
 40
6.0
 40
6.0
 40
6.0
 40
7.0
 40
7.0
 40
7.0
 40
8.0
 40
8.0
 40
8.0
 40
9.0
 40
9.0
 40
9.0
 40
10.0
 40
10.0
 40
10.0
 40
11.0
 40
11.0
 40
11.0
 40
12.0
 40
12.0
 40
12.0
 40
13.0
 40
13.0
 40
13.0
 40
14.0
 40
14.0
 40
14.0
 40
15.0
 40
15.0
 40
15.0
 40
15.0
 10
375.413902024476
 20
747.490850166916
 30
0.0
 10
375.413902024476
 20
747.490850166916
 30
0.0
 10
377.4409100806098
 20
789.2155212448096
 30
0.0
 10
377.4409100806098
 20
789.2155212448096
 30
0.0
 10
377.4409100806098
 20
789.2155212448096
 30
0.0
 10
377.4166221574388
 20
789.2167054963826
 30
0.0
 10
377.4166221574388
 20
789.2167054963826
 30
0.0
 10
377.4166221574388
 20
789.2167054963826
 30
0.0
 10
377.4242874948935
 20
789.3734358091146
 30
0.0
 10
377.4242874948935
 20
789.3734358091146
 30
0.0
 10
377.4242874948935
 20
789.3734358091146
 30
0.0
 10
371.1410362215078
 20
789.6822455556737
 30
0.0
 10
371.1410362215078
 20
789.6822455556737
 30
0.0
 10
371.1410362215078
 20
789.6822455556737
 30
0.0
 10
371.1331125018917
 20
789.5219624882225
 30
0.0
 10
371.1331125018917
 20
789.5219624882225
 30
0.0
 10
371.1331125018917
 20
789.5219624882225
 30
0.0
 10
371.1250165275013
 20
789.5223500614646
 30
0.0
 10
371.1250165275013
 20
789.5223500614646
 30
0.0
 10
371.1250165275013
 20
789.5223500614646
 30
0.0
 10
370.7283137823748
 20
781.3557081499863
 30
0.0
 10
370.7283137823748
 20
781.3557081499863
 30
0.0
 10
359.4831776089709
 20
789.206650123935
 30
0.0
 10
343.6704477138355
 20
798.2663899762708
 30
0.0
 10
323.5312807809362
 20
804.4050979622035
 30
0.0
 10
305.392939178483
 20
809.9338517924728
 30
0.0
 10
289.3060658101088
 20
811.3982326921718
 30
0.0
 10
277.2050817907817
 20
811.491702439056
 30
0.0
 10
280.0761382408018
 20
806.113800727347
 30
0.0
 10
282.930916614654
 20
800.2444346128205
 30
0.0
 10
285.657537436455
 20
793.8797068312086
 30
0.0
 10
291.5706993273378
 20
780.0760704956838
 30
0.0
 10
295.5490955937044
 20
767.0487003003729
 30
0.0
 10
298.2682233328249
 20
755.5510816915937
 30
0.0
 10
313.3926231500073
 20
762.2941240211796
 30
0.0
 10
331.2847265526524
 20
768.7419647313732
 30
0.0
 10
351.7174156208949
 20
773.3624837324968
 30
0.0
 10
358.2002240502638
 20
774.8284579888577
 30
0.0
 10
364.4741735658394
 20
776.0032355493279
 30
0.0
 10
370.513856588418
 20
776.9414642410421
 30
0.0
 10
370.513856588418
 20
776.9414642410421
 30
0.0
 10
369.0980945987546
 20
747.7976359198775
 30
0.0
 10
369.0980945987546
 20
747.7976359198775
 30
0.0
 10
369.0980945987546
 20
747.7976359198775
 30
0.0
 10
375.413902024476
 20
747.490850166916
 30
0.0
 10
375.413902024476
 20
747.490850166916
 30
0.0
  0
SPLINE
  5
8C
330
70
100
AcDbEntity
  8
Layer 1
 62
   230
420
 16723048
370
   100
100
AcDbSpline
210
0.0
220
0.0
230
1.0
 70
    11
 71
     3
 72
    50
 73
    46
 74
     0
 42
0.0000000001
 43
0.0000000001
 40
0.0
 40
0.0
 40
0.0
 40
0.0
 40
1.0
 40
1.0
 40
1.0
 40
2.0
 40
2.0
 40
2.0
 40
3.0
 40
3.0
 40
3.0
 40
4.0
 40
4.0
 40
4.0
 40
5.0
 40
5.0
 40
5.0
 40
6.0
 40
6.0
 40
6.0
 40
7.0
 40
7.0
 40
7.0
 40
8.0
 40
8.0
 40
8.0
 40
9.0
 40
9.0
 40
9.0
 40
10.0
 40
10.0
 40
10.0
 40
11.0
 40
11.0
 40
11.0
 40
12.0
 40
12.0
 40
12.0
 40
13.0
 40
13.0
 40
13.0
 40
14.0
 40
14.0
 40
14.0
 40
15.0
 40
15.0
 40
15.0
 40
15.0
 10
354.1451704053801
 20
758.677491016629
 30
0.0
 10
354.1451704053801
 20
758.677491016629
 30
0.0
 10
353.3064523525035
 20
716.9120329173128
 30
0.0
 10
353.3064523525035
 20
716.9120329173128
 30
0.0
 10
353.3064523525035
 20
716.9120329173128
 30
0.0
 10
353.282140390279
 20
716.912516814559
 30
0.0
 10
353.282140390279
 20
716.912516814559
 30
0.0
 10
353.282140390279
 20
716.912516814559
 30
0.0
 10
353.279041084793
 20
716.7556297767488
 30
0.0
 10
353.279041084793
 20
716.7556297767488
 30
0.0
 10
353.279041084793
 20
716.7556297767488
 30
0.0
 10
346.989403257564
 20
716.8783735194033
 30
0.0
 10
346.989403257564
 20
716.8783735194033
 30
0.0
 10
346.989403257564
 20
716.8783735194033
 30
0.0
 10
346.9924883924306
 20
717.0388226670704
 30
0.0
 10
346.9924883924306
 20
717.0388226670704
 30
0.0
 10
346.9924883924306
 20
717.0388226670704
 30
0.0
 10
346.9843848971504
 20
717.0389911265433
 30
0.0
 10
346.9843848971504
 20
717.0389911265433
 30
0.0
 10
346.9843848971504
 20
717.0389911265433
 30
0.0
 10
347.1485818470656
 20
725.2136135973334
 30
0.0
 10
347.1485818470656
 20
725.2136135973334
 30
0.0
 10
335.3915920178479
 20
718.1521996034947
 30
0.0
 10
318.9948741629114
 20
710.1980210466542
 30
0.0
 10
298.4821894135483
 20
705.4546525325071
 30
0.0
 10
280.0074440327189
 20
701.1826110864856
 30
0.0
 10
263.858022521728
 20
700.8247129866569
 30
0.0
 10
251.7791094146669
 20
701.5611971899123
 30
0.0
 10
255.0121579409975
 20
706.7295808043891
 30
0.0
 10
258.2626651770306
 20
712.3893882974639
 30
0.0
 10
261.4192821829523
 20
718.5521790547284
 30
0.0
 10
268.265007878504
 20
731.9178776646955
 30
0.0
 10
273.1272948451669
 20
744.6417990929242
 30
0.0
 10
276.628385787387
 20
755.9259141024808
 30
0.0
 10
291.2548366273831
 20
748.1616996854426
 30
0.0
 10
308.6627184403871
 20
740.502217667743
 30
0.0
 10
328.7305014449308
 20
734.4915551683396
 30
0.0
 10
335.0975343017603
 20
732.5845212797398
 30
0.0
 10
341.2761664215646
 20
730.9823196792206
 30
0.0
 10
347.2373029586238
 20
729.6321732880076
 30
0.0
 10
347.2373029586238
 20
729.6321732880076
 30
0.0
 10
347.8231918274802
 20
758.8044862826643
 30
0.0
 10
347.8231918274802
 20
758.8044862826643
 30
0.0
 10
347.8231918274802
 20
758.8044862826643
 30
0.0
 10
354.1451704053801
 20
758.677491016629
 30
0.0
 10
354.1451704053801
 20
758.677491016629
 30
0.0
  0
LWPOLYLINE
  5
8D
330
70
100
AcDbEntity
  8
Layer 1
 62
   230
420
 16723048
370
   100
100
AcDbPolyline
 90
       72
 70
     1
 43
0.0
 10
161.2457563708705
 20
433.9816384843603
 10
161.2457563708705
 20
426.4558489286776
 10
161.2457563708705
 20
161.8761114799054
 10
168.7715243947027
 20
161.8761114799054
 10
168.7715243947027
 20
426.4558489286776
 10
226.4636101550193
 20
426.4558489286776
 10
233.5791534339504
 20
426.4558489286776
 10
296.5936533368153
 20
426.4558489286776
 10
296.5936533368153
 20
433.9816384843603
 10
233.5791534339504
 20
433.9816384843603
 10
233.5791534339504
 20
446.4252157178463
 10
296.5936533368153
 20
446.4252157178463
 10
296.5936533368153
 20
453.9510052735304
 10
233.5791534339504
 20
453.9510052735304
 10
233.5791534339504
 20
467.6331373976585
 10
296.5989071074316
 20
467.6331373976585
 10
296.5989071074316
 20
475.1589269533387
 10
233.5791534339504
 20
475.1589269533387
 10
233.5791534339504
 20
489.1136953214333
 10
296.4344037980109
 20
489.1136953214333
 10
296.4344037980109
 20
496.6394848771161
 10
233.5791534339504
 20
496.6394848771161
 10
233.5791534339504
 20
510.3216170012455
 10
296.4291500273946
 20
510.3216170012455
 10
296.4291500273946
 20
517.8474065569256
 10
233.5791534339504
 20
517.8474065569256
 10
233.5791534339504
 20
530.2909837904142
 10
296.4291500273946
 20
530.2909837904142
 10
296.4291500273946
 20
537.8167733460957
 10
233.5791534339504
 20
537.8167733460957
 10
226.4636101550193
 20
537.8167733460957
 10
168.607021085282
 20
537.8167733460957
 10
168.607021085282
 20
802.3964892630234
 10
161.0812530614498
 20
802.3964892630234
 10
161.0812530614498
 20
537.8167733460957
 10
161.0812530614498
 20
530.2909837904142
 10
168.607021085282
 20
530.2909837904142
 10
226.4636101550193
 20
530.2909837904142
 10
226.4636101550193
 20
517.8474065569256
 10
132.5647766281467
 20
517.8474065569256
 10
132.5647766281467
 20
782.4270794101598
 10
125.0390086043146
 20
782.4270794101598
 10
125.0390086043146
 20
517.8474065569256
 10
125.0390086043146
 20
510.3216170012455
 10
132.5647766281467
 20
510.3216170012455
 10
226.4636101550193
 20
510.3216170012455
 10
226.4636101550193
 20
496.6394848771161
 10
103.6288598195183
 20
496.6394848771161
 10
103.6288598195183
 20
761.2191577303492
 10
96.10304873199002
 20
761.2191577303492
 10
96.10304873199002
 20
489.1136953214333
 10
96.11347014583417
 20
489.1136953214333
 10
103.6288598195183
 20
489.1136953214333
 10
226.4636101550193
 20
489.1136953214333
 10
226.4636101550193
 20
475.1589269533387
 10
103.7933631289389
 20
475.1589269533387
 10
96.27797345525486
 20
475.1589269533387
 10
96.26755204141069
 20
475.1589269533387
 10
96.26755204141069
 20
203.0534430125798
 10
103.7933631289389
 20
203.0534430125798
 10
103.7933631289389
 20
467.6331373976585
 10
226.4636101550193
 20
467.6331373976585
 10
226.4636101550193
 20
453.9510052735304
 10
132.7292799375674
 20
453.9510052735304
 10
125.2035119137353
 20
453.9510052735304
 10
125.2035119137353
 20
446.4252157178463
 10
125.2035119137353
 20
181.8455213327664
 10
132.7292799375674
 20
181.8455213327664
 10
132.7292799375674
 20
446.4252157178463
 10
226.4636101550193
 20
446.4252157178463
 10
226.4636101550193
 20
433.9816384843603
 10
168.7715243947027
 20
433.9816384843603
  0
LWPOLYLINE
  5
8E
330
70
100
AcDbEntity
  8
Layer 1
 62
   230
420
 16723048
370
   100
100
AcDbPolyline
 90
       51
 70
     1
 43
0.0
 10
236.1187055709029
 20
847.4516061163644
 10
236.1187916982901
 20
683.6977772185004
 10
220.5827890980074
 20
683.6977772185004
 10
220.5827029706203
 20
824.4569717905157
 10
220.5473046145093
 20
824.4569717905157
 10
220.5473046145093
 20
847.4516061163644
 10
211.2696624727315
 20
847.4516061163644
 10
211.2696624727315
 20
824.4569717905157
 10
211.2696624727315
 20
817.8246462170871
 10
211.2697486001187
 20
683.6977772185004
 10
196.1225250253464
 20
683.6977772185004
 10
196.1224388979593
 20
798.690930401558
 10
196.1643829354922
 20
798.690930401558
 10
196.1643829354922
 20
847.4516061163644
 10
186.8093984000705
 20
847.4516061163644
 10
186.8093984000705
 20
801.4426142930142
 10
186.8093984000705
 20
798.690930401558
 10
186.8094845274577
 20
683.6977772185004
 10
186.8094845274577
 20
673.6840042989118
 10
186.8094845274577
 20
558.8562156991465
 10
186.8094845274577
 20
551.078223622098
 10
196.1225250253464
 20
551.078223622098
 10
262.6922773416033
 20
551.078223622098
 10
281.8713822901506
 20
551.078223622098
 10
296.5989071074322
 20
551.078223622098
 10
296.5989071074322
 20
558.8397653682044
 10
281.8713822901506
 20
558.8397653682044
 10
281.8713822901506
 20
558.8562156991465
 10
196.1225250253464
 20
558.8562156991465
 10
196.1225250253464
 20
673.6840042989118
 10
211.2697486001187
 20
673.6840042989118
 10
211.2697486001187
 20
581.8705731966481
 10
211.2697486001187
 20
574.0925811195995
 10
220.5827890980074
 20
574.0925811195995
 10
266.8427561274581
 20
574.0925811195995
 10
296.5989071074322
 20
574.0925811195995
 10
296.5989071074322
 20
581.8983062153043
 10
266.8427561274581
 20
581.8983062153043
 10
266.8427561274581
 20
581.8705731966481
 10
220.5827890980074
 20
581.8705731966481
 10
220.5827890980074
 20
673.6840042989118
 10
236.1187916982901
 20
673.6840042989118
 10
236.1187916982901
 20
604.8652075224967
 10
236.1187916982901
 20
597.0872154454482
 10
245.4318321961789
 20
597.0872154454482
 10
296.5989071074322
 20
597.0872585091417
 10
296.5989071074322
 20
604.8652505861903
 10
245.4318321961789
 20
604.8652075224967
 10
245.4318321961789
 20
673.6840042989118
 10
245.4318321961789
 20
683.6977772185004
 10
245.4317460687917
 20
847.4516061163644
  0
LWPOLYLINE
  5
8F
330
70
100
AcDbEntity
  8
Layer 1
 62
   230
420
 16723048
370
   100
100
AcDbPolyline
 90
       51
 70
     1
 43
0.0
 10
296.5989071074316
 20
358.2175064675764
 10
296.5989071074316
 20
365.9954985446249
 10
245.4318321961782
 20
365.9955416083185
 10
236.1187916982895
 20
365.9955416083185
 10
236.1187916982895
 20
358.2175495312699
 10
236.1187916982895
 20
289.3987527548548
 10
220.5827890980068
 20
289.3987527548548
 10
220.5827890980068
 20
381.2121838571185
 10
266.8427561274574
 20
381.2121838571185
 10
266.8427561274574
 20
381.1844508384622
 10
296.5989071074316
 20
381.1844508384622
 10
296.5989071074316
 20
388.9901328704735
 10
266.8427561274574
 20
388.990175934167
 10
220.5827890980068
 20
388.990175934167
 10
211.269748600118
 20
388.990175934167
 10
211.269748600118
 20
381.2121838571185
 10
211.269748600118
 20
289.3987527548548
 10
196.1225250253458
 20
289.3987527548548
 10
196.1225250253458
 20
404.2265413546201
 10
281.87138229015
 20
404.2265413546201
 10
281.87138229015
 20
404.2429916855621
 10
296.5989071074316
 20
404.2429916855621
 10
296.5989071074316
 20
412.0045334316686
 10
281.87138229015
 20
412.0045334316686
 10
262.6922773416027
 20
412.0045334316686
 10
196.1225250253458
 20
412.0045334316686
 10
186.809484527457
 20
412.0045334316686
 10
186.809484527457
 20
404.2265413546201
 10
186.809484527457
 20
289.3987527548548
 10
186.809484527457
 20
279.3849798352663
 10
186.8093984000705
 20
164.3918266522089
 10
186.8093984000705
 20
161.6401427607528
 10
186.8093984000705
 20
115.6311509374026
 10
196.1643829354922
 20
115.6311509374026
 10
196.1643829354922
 20
164.3918266522089
 10
196.1224388979593
 20
164.3918266522089
 10
196.1225250253458
 20
279.3849798352663
 10
211.269748600118
 20
279.3849798352663
 10
211.2696624727315
 20
145.2581108366799
 10
211.2696624727315
 20
138.6257852632511
 10
211.2696624727315
 20
115.6311509374026
 10
220.5473046145093
 20
115.6311509374026
 10
220.5473046145093
 20
138.6257852632511
 10
220.5827029706203
 20
138.6257852632511
 10
220.5827890980068
 20
279.3849798352663
 10
236.1187916982895
 20
279.3849798352663
 10
236.1187055709029
 20
115.6311294055558
 10
245.4317460687917
 20
115.6311294055558
 10
245.4318321961782
 20
279.3849798352663
 10
245.4318321961782
 20
289.3987527548548
 10
245.4318321961782
 20
358.2175495312699
  0
ENDSEC
  0
SECTION
  2
OBJECTS
  0
DICTIONARY
  5
C
330
0
100
AcDbDictionary
281
     1
  3
ACAD_COLOR
350
63
  3
ACAD_DETAILVIEWSTYLE
350
6A
  3
ACAD_GROUP
350
D
  3
ACAD_LAYOUT
350
62
  3
ACAD_MATERIAL
350
10
  3
ACAD_MLEADERSTYLE
350
66
  3
ACAD_MLINESTYLE
350
5F
  3
ACAD_PLOTSETTINGS
350
61
  3
ACAD_PLOTSTYLENAME
350
E
  3
ACAD_SCALELIST
350
42
  3
ACAD_SECTIONVIEWSTYLE
350
68
  3
ACAD_TABLESTYLE
350
64
  3
ACAD_VISUALSTYLE
350
29
  3
ACDB_RECOMPOSE_DATA
350
98
  3
AcDbVariableDictionary
350
90
  0
DICTIONARY
  5
63
102
{ACAD_REACTORS
330
C
102
}
330
C
100
AcDbDictionary
281
     1
  0
DICTIONARY
  5
6A
102
{ACAD_REACTORS
330
C
102
}
330
C
100
AcDbDictionary
281
     1
  3
Imperial24
350
6B
  0
DICTIONARY
  5
D
102
{ACAD_REACTORS
330
C
102
}
330
C
100
AcDbDictionary
281
     1
  0
DICTIONARY
  5
62
102
{ACAD_REACTORS
330
C
102
}
330
C
100
AcDbDictionary
281
     1
  3
Layout1
350
6F
  3
Layout2
350
77
  3
Model
350
73
  0
DICTIONARY
  5
10
102
{ACAD_REACTORS
330
C
102
}
330
C
100
AcDbDictionary
281
     1
  3
ByBlock
350
19
  3
ByLayer
350
11
  3
Global
350
21
  0
DICTIONARY
  5
66
102
{ACAD_REACTORS
330
C
102
}
330
C
100
AcDbDictionary
281
     1
  3
Standard
350
67
  0
DICTIONARY
  5
5F
102
{ACAD_REACTORS
330
C
102
}
330
C
100
AcDbDictionary
281
     1
  3
Standard
350
60
  0
DICTIONARY
  5
61
102
{ACAD_REACTORS
330
C
102
}
330
C
100
AcDbDictionary
281
     1
  0
ACDBDICTIONARYWDFLT
  5
E
102
{ACAD_REACTORS
330
C
102
}
330
C
100
AcDbDictionary
281
     1
  3
Normal
350
F
100
AcDbDictionaryWithDefault
340
F
  0
DICTIONARY
  5
42
102
{ACAD_REACTORS
330
C
102
}
330
C
100
AcDbDictionary
281
     1
  3
A0
350
43
  3
A1
350
44
  3
A2
350
45
  3
A3
350
46
  3
A4
350
47
  3
A5
350
48
  3
A6
350
49
  3
A7
350
4A
  3
A8
350
4B
  3
A9
350
4C
  3
B0
350
4D
  3
B1
350
4E
  3
B2
350
4F
  3
B3
350
50
  3
B4
350
51
  3
B5
350
52
  3
B6
350
53
  0
DICTIONARY
  5
68
102
{ACAD_REACTORS
330
C
102
}
330
C
100
AcDbDictionary
281
     1
  3
Imperial24
350
69
  0
DICTIONARY
  5
64
102
{ACAD_REACTORS
330
C
102
}
330
C
100
AcDbDictionary
281
     1
  3
Standard
350
65
  0
DICTIONARY
  5
29
102
{ACAD_REACTORS
330
C
102
}
330
C
100
AcDbDictionary
281
     1
  3
2dWireframe
350
2F
  3
Basic
350
2E
  3
Brighten
350
35
  3
ColorChange
350
39
  3
Conceptual
350
32
  3
Dim
350
34
  3
EdgeColorOff
350
41
  3
Facepattern
350
38
  3
Flat
350
2A
  3
FlatWithEdges
350
2B
  3
Gouraud
350
2C
  3
GouraudWithEdges
350
2D
  3
Hidden
350
31
  3
JitterOff
350
3F
  3
Linepattern
350
37
  3
OverhangOff
350
40
  3
Realistic
350
33
  3
Shaded
350
3E
  3
Shaded with edges
350
3D
  3
Shades of Gray
350
3A
  3
Sketchy
350
3B
  3
Thicken
350
36
  3
Wireframe
350
30
  3
X-Ray
350
3C
  0
XRECORD
  5
98
102
{ACAD_REACTORS
330
C
102
}
330
C
100
AcDbXrecord
280
     1
 90
        1
330
65
  0
DICTIONARY
  5
90
102
{ACAD_REACTORS
330
C
102
}
330
C
100
AcDbDictionary
281
     1
  3
CANNOSCALE
350
95
  3
CMLEADERSTYLE
350
92
  3
CTABLESTYLE
350
91
  3
CVIEWDETAILSTYLE
350
93
  3
CVIEWSECTIONSTYLE
350
94
  0
ACDBDETAILVIEWSTYLE
  5
6B
102
{ACAD_REACTORS
330
6A
102
}
330
6A
100
AcDbModelDocViewStyle
 70
     0
  3
Imperial24
290
     1
300
Imperial24
 90
        0
100
AcDbDetailViewStyle
 70
     0
 71
     0
 90
        3
 71
     1
340
55
 62
   256
 40
0.24
340
0
 62
   256
 40
0.24
300

 40
0.36
280
     3
 71
     2
340
5D
 90
       25
 62
   256
 71
     3
340
55
 62
   256
 40
0.24
 90
        1
 40
0.75
 90
        1
300
%<\AcVar ViewType \f "%tc1">% %<\AcVar ViewDetailId>%\PSCALE %<\AcVar ViewScale \f "%sn">%
 71
     4
340
5D
 90
       25
 62
   256
340
5D
 90
       25
 62
   256
280
     0
  0
LAYOUT
  5
6F
102
{ACAD_REACTORS
330
62
102
}
330
62
100
AcDbPlotSettings
  1

  2

  4

  6

 40
0.0
 41
0.0
 42
0.0
 43
0.0
 44
0.0
 45
0.0
 46
0.0
 47
0.0
 48
0.0
 49
0.0
140
0.0
141
0.0
142
1.0
143
1.0
 70
   688
 72
     0
 73
     0
 74
     5
  7

 75
    16
147
1.0
 76
     0
 77
     2
 78
   300
148
0.0
149
0.0
100
AcDbLayout
  1
Layout1
 70
     1
 71
     1
 10
0.0
 20
0.0
 11
12.0
 21
9.0
 12
0.0
 22
0.0
 32
0.0
 14
0.0
 24
0.0
 34
0.0
 15
0.0
 25
0.0
 35
0.0
146
0.0
 13
0.0
 23
0.0
 33
0.0
 16
1.0
 26
0.0
 36
0.0
 17
0.0
 27
1.0
 37
0.0
 76
     0
330
6C
  0
LAYOUT
  5
77
102
{ACAD_REACTORS
330
62
102
}
330
62
100
AcDbPlotSettings
  1

  2

  4

  6

 40
0.0
 41
0.0
 42
0.0
 43
0.0
 44
0.0
 45
0.0
 46
0.0
 47
0.0
 48
0.0
 49
0.0
140
0.0
141
0.0
142
1.0
143
1.0
 70
   688
 72
     0
 73
     0
 74
     5
  7

 75
    16
147
1.0
 76
     0
 77
     2
 78
   300
148
0.0
149
0.0
100
AcDbLayout
  1
Layout2
 70
     1
 71
     2
 10
0.0
 20
0.0
 11
12.0
 21
9.0
 12
0.0
 22
0.0
 32
0.0
 14
0.0
 24
0.0
 34
0.0
 15
0.0
 25
0.0
 35
0.0
146
0.0
 13
0.0
 23
0.0
 33
0.0
 16
1.0
 26
0.0
 36
0.0
 17
0.0
 27
1.0
 37
0.0
 76
     0
330
74
  0
LAYOUT
  5
73
102
{ACAD_REACTORS
330
62
102
}
330
62
100
AcDbPlotSettings
  1

  2

  4

  6

 40
0.0
 41
0.0
 42
0.0
 43
0.0
 44
0.0
 45
0.0
 46
0.0
 47
0.0
 48
0.0
 49
0.0
140
0.0
141
0.0
142
1.0
143
1.0
 70
  1712
 72
     0
 73
     0
 74
     0
  7

 75
     0
147
1.0
 76
     0
 77
     2
 78
   300
148
0.0
149
0.0
100
AcDbLayout
  1
Model
 70
     1
 71
     0
 10
0.0
 20
0.0
 11
12.0
 21
9.0
 12
0.0
 22
0.0
 32
0.0
 14
0.0
 24
0.0
 34
0.0
 15
0.0
 25
0.0
 35
0.0
146
0.0
 13
0.0
 23
0.0
 33
0.0
 16
1.0
 26
0.0
 36
0.0
 17
0.0
 27
1.0
 37
0.0
 76
     0
330
70
  0
MATERIAL
  5
19
102
{ACAD_XDICTIONARY
360
1A
102
}
102
{ACAD_REACTORS
330
10
102
}
330
10
100
AcDbMaterial
  1
ByBlock
 72
     0
 43
0.0208333333333333
 43
0.0
 43
0.0
 43
0.0
 43
0.0
 43
0.0208333333333333
 43
0.0
 43
0.0
 43
0.0
 43
0.0
 43
1.0
 43
0.0
 43
0.0
 43
0.0
 43
0.0
 43
1.0
 77
     0
 47
0.0208333333333333
 47
0.0
 47
0.0
 47
0.0
 47
0.0
 47
0.0208333333333333
 47
0.0
 47
0.0
 47
0.0
 47
0.0
 47
1.0
 47
0.0
 47
0.0
 47
0.0
 47
0.0
 47
1.0
171
     0
 49
0.0208333333333333
 49
0.0
 49
0.0
 49
0.0
 49
0.0
 49
0.0208333333333333
 49
0.0
 49
0.0
 49
0.0
 49
0.0
 49
1.0
 49
0.0
 49
0.0
 49
0.0
 49
0.0
 49
1.0
175
     0
142
0.0208333333333333
142
0.0
142
0.0
142
0.0
142
0.0
142
0.0208333333333333
142
0.0
142
0.0
142
0.0
142
0.0
142
1.0
142
0.0
142
0.0
142
0.0
142
0.0
142
1.0
179
     0
144
0.0208333333333333
144
0.0
144
0.0
144
0.0
144
0.0
144
0.0208333333333333
144
0.0
144
0.0
144
0.0
144
0.0
144
1.0
144
0.0
144
0.0
144
0.0
144
0.0
144
1.0
147
0.0208333333333333
147
0.0
147
0.0
147
0.0
147
0.0
147
0.0208333333333333
147
0.0
147
0.0
147
0.0
147
0.0
147
1.0
147
0.0
147
0.0
147
0.0
147
0.0
147
1.0
  0
MATERIAL
  5
11
102
{ACAD_XDICTIONARY
360
12
102
}
102
{ACAD_REACTORS
330
10
102
}
330
10
100
AcDbMaterial
  1
ByLayer
 72
     0
 43
0.0208333333333333
 43
0.0
 43
0.0
 43
0.0
 43
0.0
 43
0.0208333333333333
 43
0.0
 43
0.0
 43
0.0
 43
0.0
 43
1.0
 43
0.0
 43
0.0
 43
0.0
 43
0.0
 43
1.0
 77
     0
 47
0.0208333333333333
 47
0.0
 47
0.0
 47
0.0
 47
0.0
 47
0.0208333333333333
 47
0.0
 47
0.0
 47
0.0
 47
0.0
 47
1.0
 47
0.0
 47
0.0
 47
0.0
 47
0.0
 47
1.0
171
     0
 49
0.0208333333333333
 49
0.0
 49
0.0
 49
0.0
 49
0.0
 49
0.0208333333333333
 49
0.0
 49
0.0
 49
0.0
 49
0.0
 49
1.0
 49
0.0
 49
0.0
 49
0.0
 49
0.0
 49
1.0
175
     0
142
0.0208333333333333
142
0.0
142
0.0
142
0.0
142
0.0
142
0.0208333333333333
142
0.0
142
0.0
142
0.0
142
0.0
142
1.0
142
0.0
142
0.0
142
0.0
142
0.0
142
1.0
179
     0
144
0.0208333333333333
144
0.0
144
0.0
144
0.0
144
0.0
144
0.0208333333333333
144
0.0
144
0.0
144
0.0
144
0.0
144
1.0
144
0.0
144
0.0
144
0.0
144
0.0
144
1.0
147
0.0208333333333333
147
0.0
147
0.0
147
0.0
147
0.0
147
0.0208333333333333
147
0.0
147
0.0
147
0.0
147
0.0
147
1.0
147
0.0
147
0.0
147
0.0
147
0.0
147
1.0
  0
MATERIAL
  5
21
102
{ACAD_XDICTIONARY
360
22
102
}
102
{ACAD_REACTORS
330
10
102
}
330
10
100
AcDbMaterial
  1
Global
 72
     0
 43
0.0208333333333333
 43
0.0
 43
0.0
 43
0.0
 43
0.0
 43
0.0208333333333333
 43
0.0
 43
0.0
 43
0.0
 43
0.0
 43
1.0
 43
0.0
 43
0.0
 43
0.0
 43
0.0
 43
1.0
 77
     0
 47
0.0208333333333333
 47
0.0
 47
0.0
 47
0.0
 47
0.0
 47
0.0208333333333333
 47
0.0
 47
0.0
 47
0.0
 47
0.0
 47
1.0
 47
0.0
 47
0.0
 47
0.0
 47
0.0
 47
1.0
171
     0
 49
0.0208333333333333
 49
0.0
 49
0.0
 49
0.0
 49
0.0
 49
0.0208333333333333
 49
0.0
 49
0.0
 49
0.0
 49
0.0
 49
1.0
 49
0.0
 49
0.0
 49
0.0
 49
0.0
 49
1.0
175
     0
142
0.0208333333333333
142
0.0
142
0.0
142
0.0
142
0.0
142
0.0208333333333333
142
0.0
142
0.0
142
0.0
142
0.0
142
1.0
142
0.0
142
0.0
142
0.0
142
0.0
142
1.0
179
     0
144
0.0208333333333333
144
0.0
144
0.0
144
0.0
144
0.0
144
0.0208333333333333
144
0.0
144
0.0
144
0.0
144
0.0
144
1.0
144
0.0
144
0.0
144
0.0
144
0.0
144
1.0
147
0.0208333333333333
147
0.0
147
0.0
147
0.0
147
0.0
147
0.0208333333333333
147
0.0
147
0.0
147
0.0
147
0.0
147
1.0
147
0.0
147
0.0
147
0.0
147
0.0
147
1.0
  0
MLEADERSTYLE
  5
67
102
{ACAD_REACTORS
330
66
102
}
330
66
100
AcDbMLeaderStyle
179
     2
170
     2
171
     1
172
     0
 90
        2
 40
0.0
 41
0.0
173
     1
 91
-1056964608
340
5B
 92
       -2
290
     1
 42
0.09
291
     1
 43
0.36
  3
Standard
 44
0.18
300

342
55
174
     1
178
     6
175
     1
176
     0
 93
-1056964608
 45
0.18
292
     0
297
     0
 46
0.18
 94
-1056964608
 47
1.0
 49
1.0
140
1.0
293
     1
141
0.0
294
     1
177
     0
142
1.0
295
     1
296
     0
143
0.125
271
     0
272
     9
273
     9
298
     1
  0
MLINESTYLE
  5
60
102
{ACAD_REACTORS
330
5F
102
}
330
5F
100
AcDbMlineStyle
  2
STANDARD
 70
     0
  3

 62
   256
 51
90.0
 52
90.0
 71
     2
 49
0.5
 62
   256
  6
BYLAYER
 49
-0.5
 62
   256
  6
BYLAYER
  0
ACDBPLACEHOLDER
  5
F
102
{ACAD_REACTORS
330
E
102
}
330
E
  0
SCALE
  5
43
102
{ACAD_REACTORS
330
42
102
}
330
42
100
AcDbScale
 70
     0
300
1:1
140
1.0
141
1.0
290
     1
  0
SCALE
  5
44
102
{ACAD_REACTORS
330
42
102
}
330
42
100
AcDbScale
 70
     0
300
1/128" = 1'-0"
140
0.0078125
141
12.0
290
     0
  0
SCALE
  5
45
102
{ACAD_REACTORS
330
42
102
}
330
42
100
AcDbScale
 70
     0
300
1/64" = 1'-0"
140
0.015625
141
12.0
290
     0
  0
SCALE
  5
46
102
{ACAD_REACTORS
330
42
102
}
330
42
100
AcDbScale
 70
     0
300
1/32" = 1'-0"
140
0.03125
141
12.0
290
     0
  0
SCALE
  5
47
102
{ACAD_REACTORS
330
42
102
}
330
42
100
AcDbScale
 70
     0
300
1/16" = 1'-0"
140
0.0625
141
12.0
290
     0
  0
SCALE
  5
48
102
{ACAD_REACTORS
330
42
102
}
330
42
100
AcDbScale
 70
     0
300
3/32" = 1'-0"
140
0.09375
141
12.0
290
     0
  0
SCALE
  5
49
102
{ACAD_REACTORS
330
42
102
}
330
42
100
AcDbScale
 70
     0
300
1/8" = 1'-0"
140
0.125
141
12.0
290
     0
  0
SCALE
  5
4A
102
{ACAD_REACTORS
330
42
102
}
330
42
100
AcDbScale
 70
     0
300
3/16" = 1'-0"
140
0.1875
141
12.0
290
     0
  0
SCALE
  5
4B
102
{ACAD_REACTORS
330
42
102
}
330
42
100
AcDbScale
 70
     0
300
1/4" = 1'-0"
140
0.25
141
12.0
290
     0
  0
SCALE
  5
4C
102
{ACAD_REACTORS
330
42
102
}
330
42
100
AcDbScale
 70
     0
300
3/8" = 1'-0"
140
0.375
141
12.0
290
     0
  0
SCALE
  5
4D
102
{ACAD_REACTORS
330
42
102
}
330
42
100
AcDbScale
 70
     0
300
1/2" = 1'-0"
140
0.5
141
12.0
290
     0
  0
SCALE
  5
4E
102
{ACAD_REACTORS
330
42
102
}
330
42
100
AcDbScale
 70
     0
300
3/4" = 1'-0"
140
0.75
141
12.0
290
     0
  0
SCALE
  5
4F
102
{ACAD_REACTORS
330
42
102
}
330
42
100
AcDbScale
 70
     0
300
1" = 1'-0"
140
1.0
141
12.0
290
     0
  0
SCALE
  5
50
102
{ACAD_REACTORS
330
42
102
}
330
42
100
AcDbScale
 70
     0
300
1-1/2" = 1'-0"
140
1.5
141
12.0
290
     0
  0
SCALE
  5
51
102
{ACAD_REACTORS
330
42
102
}
330
42
100
AcDbScale
 70
     0
300
3" = 1'-0"
140
3.0
141
12.0
290
     0
  0
SCALE
  5
52
102
{ACAD_REACTORS
330
42
102
}
330
42
100
AcDbScale
 70
     0
300
6" = 1'-0"
140
6.0
141
12.0
290
     0
  0
SCALE
  5
53
102
{ACAD_REACTORS
330
42
102
}
330
42
100
AcDbScale
 70
     0
300
1'-0" = 1'-0"
140
12.0
141
12.0
290
     0
  0
ACDBSECTIONVIEWSTYLE
  5
69
102
{ACAD_REACTORS
330
68
102
}
330
68
100
AcDbModelDocViewStyle
 70
     0
  3
Imperial24
290
     1
300
Imperial24
 90
        0
100
AcDbSectionViewStyle
 70
     0
 71
     0
 90
       78
 71
     1
340
55
 62
   256
 40
0.24
340
0
340
0
 62
   256
 40
0.24
300
I, O, Q, S, X, Z
 40
0.48
 90
        3
 40
0.18
 90
        1
 71
     2
340
5D
 90
       25
 62
   256
340
5D
 90
       50
 62
   256
 40
0.24
 40
0.0
 40
0.24
 71
     3
340
55
 62
   256
 40
0.24
 90
        1
 40
0.75
 90
        1
300
%<\AcVar ViewType \f "%tc1">% %<\AcVar ViewSectionStartId>%-%<\AcVar ViewSectionEndId>%\PSCALE %<\AcVar ViewScale \f "%sn">%
 71
     4
 62
   256
 62
   257
300
ANSI31
 40
1.0
 90
        0
290
     0
290
     0
 90
        6
 40
0.0
 40
1.570796326794896
 40
0.2617993877991494
 40
1.308996938995747
 40
-0.2617993877991494
 40
1.832595714594046
  0
TABLESTYLE
  5
65
102
{ACAD_XDICTIONARY
360
96
102
}
102
{ACAD_REACTORS
330
64
102
}
330
64
100
AcDbTableStyle
280
     0
  3
Standard
 70
     0
 71
     0
 40
0.06
 41
0.06
280
     0
281
     0
  7
Standard
140
0.18
170
     2
 62
     0
 63
     7
283
     0
 90
      512
 91
        0
  1

274
    -2
284
     1
 64
     0
275
    -2
285
     1
 65
     0
276
    -2
286
     1
 66
     0
277
    -2
287
     1
 67
     0
278
    -2
288
     1
 68
     0
279
    -2
289
     1
 69
     0
  7
Standard
140
0.25
170
     5
 62
     0
 63
     7
283
     0
 90
      512
 91
        0
  1

274
    -2
284
     1
 64
     0
275
    -2
285
     1
 65
     0
276
    -2
286
     1
 66
     0
277
    -2
287
     1
 67
     0
278
    -2
288
     1
 68
     0
279
    -2
289
     1
 69
     0
  7
Standard
140
0.18
170
     5
 62
     0
 63
     7
283
     0
 90
      512
 91
        0
  1

274
    -2
284
     1
 64
     0
275
    -2
285
     1
 65
     0
276
    -2
286
     1
 66
     0
277
    -2
287
     1
 67
     0
278
    -2
288
     1
 68
     0
279
    -2
289
     1
 69
     0
  0
VISUALSTYLE
  5
2F
102
{ACAD_REACTORS
330
29
102
}
330
29
100
AcDbVisualStyle
  2
2dWireframe
 70
     4
177
     3
291
     0
 70
    58
 90
        0
176
     1
 90
        2
176
     1
 90
        0
176
     1
 90
        0
176
     1
 40
0.6
176
     1
 40
30.0
176
     1
 62
     7
420
 16777215
176
     1
 90
        1
176
     1
 90
        4
176
     1
 62
     7
176
     1
 62
   257
176
     1
 90
        1
176
     1
 90
        1
176
     1
 40
1.0
176
     1
 90
        0
176
     1
 62
   257
176
     1
 40
1.0
176
     1
 90
        1
176
     1
 90
        6
176
     1
 90
        2
176
     1
 62
     7
176
     1
 90
        5
176
     1
 90
        0
176
     1
 90
        0
176
     1
290
     0
176
     1
 90
        1
176
     1
 40
0.0
176
     1
 90
        0
176
     1
290
     1
176
     1
290
     1
176
     1
290
     0
176
     1
290
     0
176
     1
290
     0
176
     1
290
     0
176
     1
290
     0
176
     1
290
     0
176
     1
290
     0
176
     1
 90
       50
176
     1
 40
0.0
176
     1
 40
1.0
176
     1
 90
        0
176
     1
 62
    18
420
        0
176
     1
 90
       50
176
     1
 90
        3
176
     1
 62
     5
420
      255
176
     1
290
     0
176
     1
 90
       50
176
     1
 90
       50
176
     1
 90
       50
176
     1
290
     0
176
     1
 90
       50
176
     1
 62
   256
176
     0
 40
1.0
176
     0
 90
        2
176
     1
  1
strokes_ogs.tif
176
     1
290
     0
176
     1
 40
1.0
176
     1
 40
1.0
176
     1
  0
VISUALSTYLE
  5
2E
102
{ACAD_REACTORS
330
29
102
}
330
29
100
AcDbVisualStyle
  2
Basic
 70
     7
177
     3
291
     1
 70
    58
 90
        1
176
     1
 90
        0
176
     1
 90
        1
176
     1
 90
        0
176
     1
 40
0.6
176
     1
 40
30.0
176
     1
 62
     7
420
 16777215
176
     1
 90
        0
176
     1
 90
        4
176
     1
 62
     7
176
     1
 62
   257
176
     1
 90
        1
176
     1
 90
        1
176
     1
 40
1.0
176
     1
 90
        8
176
     1
 62
     7
176
     1
 40
1.0
176
     1
 90
        1
176
     1
 90
        6
176
     1
 90
        2
176
     1
 62
     7
176
     1
 90
        5
176
     1
 90
        0
176
     1
 90
        0
176
     1
290
     0
176
     1
 90
        1
176
     1
 40
0.0
176
     1
 90
        0
176
     1
290
     0
176
     1
290
     1
176
     1
290
     1
176
     1
290
     0
176
     1
290
     0
176
     1
290
     0
176
     1
290
     0
176
     1
290
     0
176
     1
290
     0
176
     1
 90
       50
176
     1
 40
0.0
176
     1
 40
1.0
176
     1
 90
        0
176
     1
 62
    18
420
        0
176
     1
 90
       50
176
     1
 90
        3
176
     1
 62
     5
420
      255
176
     1
290
     0
176
     1
 90
       50
176
     1
 90
       50
176
     1
 90
       50
176
     1
290
     0
176
     1
 90
       50
176
     1
 62
   256
176
     0
 40
1.0
176
     0
 90
        2
176
     1
  1
strokes_ogs.tif
176
     1
290
     0
176
     1
 40
1.0
176
     1
 40
1.0
176
     1
  0
VISUALSTYLE
  5
35
102
{ACAD_REACTORS
330
29
102
}
330
29
100
AcDbVisualStyle
  2
Brighten
 70
    12
177
     3
291
     1
 70
    58
 90
        2
176
     1
 90
        2
176
     1
 90
        0
176
     1
 90
        0
176
     1
 40
0.6
176
     1
 40
30.0
176
     1
 62
     7
420
 16777215
176
     1
 90
        1
176
     1
 90
        4
176
     1
 62
     7
176
     1
 62
   257
176
     1
 90
        1
176
     1
 90
        1
176
     1
 40
1.0
176
     1
 90
        8
176
     1
 62
     7
176
     1
 40
1.0
176
     1
 90
        1
176
     1
 90
        6
176
     1
 90
        2
176
     1
 62
     7
176
     1
 90
        5
176
     1
 90
        0
176
     1
 90
        0
176
     1
290
     0
176
     1
 90
        1
176
     1
 40
50.0
176
     1
 90
        0
176
     1
290
     0
176
     1
290
     1
176
     1
290
     1
176
     1
290
     0
176
     1
290
     0
176
     1
290
     0
176
     1
290
     0
176
     1
290
     0
176
     1
290
     0
176
     1
 90
       50
176
     1
 40
0.0
176
     1
 40
1.0
176
     1
 90
        0
176
     1
 62
    18
420
        0
176
     1
 90
       50
176
     1
 90
        3
176
     1
 62
     5
420
      255
176
     1
290
     0
176
     1
 90
       50
176
     1
 90
       50
176
     1
 90
       50
176
     1
290
     0
176
     1
 90
       50
176
     1
 62
   256
176
     0
 40
1.0
176
     0
 90
        2
176
     1
  1
strokes_ogs.tif
176
     1
290
     0
176
     1
 40
1.0
176
     1
 40
1.0
176
     1
  0
VISUALSTYLE
  5
39
102
{ACAD_REACTORS
330
29
102
}
330
29
100
AcDbVisualStyle
  2
ColorChange
 70
    16
177
     3
291
     1
 70
    58
 90
        2
176
     1
 90
        2
176
     1
 90
        3
176
     1
 90
        0
176
     1
 40
0.6
176
     1
 40
30.0
176
     1
 62
     8
420
  8421504
176
     1
 90
        1
176
     1
 90
        4
176
     1
 62
     7
176
     1
 62
   257
176
     1
 90
        1
176
     1
 90
        1
176
     1
 40
1.0
176
     1
 90
        8
176
     1
 62
     8
420
  8421504
176
     1
 40
1.0
176
     1
 90
        1
176
     1
 90
        6
176
     1
 90
        2
176
     1
 62
     7
176
     1
 90
        5
176
     1
 90
        0
176
     1
 90
        0
176
     1
290
     0
176
     1
 90
        1
176
     1
 40
0.0
176
     1
 90
        0
176
     1
290
     0
176
     1
290
     1
176
     1
290
     1
176
     1
290
     0
176
     1
290
     0
176
     1
290
     0
176
     1
290
     0
176
     1
290
     0
176
     1
290
     0
176
     1
 90
       50
176
     1
 40
0.0
176
     1
 40
1.0
176
     1
 90
        0
176
     1
 62
    18
420
        0
176
     1
 90
       50
176
     1
 90
        3
176
     1
 62
     5
420
      255
176
     1
290
     0
176
     1
 90
       50
176
     1
 90
       50
176
     1
 90
       50
176
     1
290
     0
176
     1
 90
       50
176
     1
 62
   256
176
     0
 40
1.0
176
     0
 90
        2
176
     1
  1
strokes_ogs.tif
176
     1
290
     0
176
     1
 40
1.0
176
     1
 40
1.0
176
     1
  0
VISUALSTYLE
  5
32
102
{ACAD_REACTORS
330
29
102
}
330
29
100
AcDbVisualStyle
  2
Conceptual
 70
     9
177
     3
291
     0
 70
    58
 90
        3
176
     1
 90
        2
176
     1
 90
        0
176
     1
 90
        0
176
     1
 40
0.6
176
     1
 40
30.0
176
     1
 62
     7
420
 16777215
176
     1
 90
        2
176
     1
 90
        2
176
     1
 62
     7
176
     1
 62
   257
176
     1
 90
        1
176
     1
 90
        1
176
     1
 40
179.0
176
     1
 90
        8
176
     1
 62
     7
176
     1
 40
1.0
176
     1
 90
        1
176
     1
 90
        6
176
     1
 90
        2
176
     1
 62
     7
176
     1
 90
        3
176
     1
 90
        0
176
     1
 90
        0
176
     1
290
     0
176
     1
 90
        1
176
     1
 40
0.0
176
     1
 90
        0
176
     1
290
     0
176
     1
290
     1
176
     1
290
     1
176
     1
290
     0
176
     1
290
     0
176
     1
290
     0
176
     1
290
     0
176
     1
290
     0
176
     1
290
     0
176
     1
 90
       50
176
     1
 40
0.0
176
     1
 40
1.0
176
     1
 90
        0
176
     1
 62
    18
420
        0
176
     1
 90
       50
176
     1
 90
        3
176
     1
 62
     5
420
      255
176
     1
290
     0
176
     1
 90
       50
176
     1
 90
       50
176
     1
 90
       50
176
     1
290
     0
176
     1
 90
       50
176
     1
 62
   256
176
     0
 40
1.0
176
     0
 90
        2
176
     1
  1
strokes_ogs.tif
176
     1
290
     0
176
     1
 40
1.0
176
     1
 40
1.0
176
     1
  0
VISUALSTYLE
  5
34
102
{ACAD_REACTORS
330
29
102
}
330
29
100
AcDbVisualStyle
  2
Dim
 70
    11
177
     3
291
     1
 70
    58
 90
        2
176
     1
 90
        2
176
     1
 90
        0
176
     1
 90
        0
176
     1
 40
0.6
176
     1
 40
30.0
176
     1
 62
     7
420
 16777215
176
     1
 90
        1
176
     1
 90
        4
176
     1
 62
     7
176
     1
 62
   257
176
     1
 90
        1
176
     1
 90
        1
176
     1
 40
1.0
176
     1
 90
        8
176
     1
 62
     7
176
     1
 40
1.0
176
     1
 90
        1
176
     1
 90
        6
176
     1
 90
        2
176
     1
 62
     7
176
     1
 90
        5
176
     1
 90
        0
176
     1
 90
        0
176
     1
290
     0
176
     1
 90
        1
176
     1
 40
-50.0
176
     1
 90
        0
176
     1
290
     0
176
     1
290
     1
176
     1
290
     1
176
     1
290
     0
176
     1
290
     0
176
     1
290
     0
176
     1
290
     0
176
     1
290
     0
176
     1
290
     0
176
     1
 90
       50
176
     1
 40
0.0
176
     1
 40
1.0
176
     1
 90
        0
176
     1
 62
    18
420
        0
176
     1
 90
       50
176
     1
 90
        3
176
     1
 62
     5
420
      255
176
     1
290
     0
176
     1
 90
       50
176
     1
 90
       50
176
     1
 90
       50
176
     1
290
     0
176
     1
 90
       50
176
     1
 62
   256
176
     0
 40
1.0
176
     0
 90
        2
176
     1
  1
strokes_ogs.tif
176
     1
290
     0
176
     1
 40
1.0
176
     1
 40
1.0
176
     1
  0
VISUALSTYLE
  5
41
102
{ACAD_REACTORS
330
29
102
}
330
29
100
AcDbVisualStyle
  2
EdgeColorOff
 70
    22
177
     3
291
     1
 70
    58
 90
        2
176
     0
 90
        2
176
     0
 90
        0
176
     0
 90
        0
176
     0
 40
0.6
176
     0
 40
30.0
176
     0
 62
     7
420
 16777215
176
     0
 90
        1
176
     0
 90
        4
176
     0
 62
     7
176
     0
 62
   257
176
     0
 90
        1
176
     0
 90
        1
176
     0
 40
1.0
176
     0
 90
        8
176
     2
 62
     7
176
     0
 40
1.0
176
     0
 90
        1
176
     0
 90
        6
176
     0
 90
        2
176
     0
 62
     7
176
     0
 90
        5
176
     0
 90
        0
176
     0
 90
        0
176
     0
290
     0
176
     0
 90
        1
176
     0
 40
0.0
176
     0
 90
        0
176
     0
290
     0
176
     0
290
     1
176
     0
290
     1
176
     0
290
     0
176
     0
290
     0
176
     0
290
     0
176
     0
290
     0
176
     0
290
     0
176
     0
290
     0
176
     0
 90
       50
176
     0
 40
0.0
176
     0
 40
1.0
176
     0
 90
        0
176
     0
 62
    18
420
        0
176
     0
 90
       50
176
     0
 90
        3
176
     0
 62
     5
420
      255
176
     0
290
     0
176
     0
 90
       50
176
     0
 90
       50
176
     0
 90
       50
176
     0
290
     0
176
     0
 90
       50
176
     0
 62
   256
176
     0
 40
1.0
176
     0
 90
        2
176
     0
  1
strokes_ogs.tif
176
     0
290
     0
176
     0
 40
1.0
176
     0
 40
1.0
176
     0
  0
VISUALSTYLE
  5
38
102
{ACAD_REACTORS
330
29
102
}
330
29
100
AcDbVisualStyle
  2
Facepattern
 70
    15
177
     3
291
     1
 70
    58
 90
        2
176
     1
 90
        2
176
     1
 90
        0
176
     1
 90
        0
176
     1
 40
0.6
176
     1
 40
30.0
176
     1
 62
     7
420
 16777215
176
     1
 90
        1
176
     1
 90
        4
176
     1
 62
     7
176
     1
 62
   257
176
     1
 90
        1
176
     1
 90
        1
176
     1
 40
1.0
176
     1
 90
        8
176
     1
 62
     7
176
     1
 40
1.0
176
     1
 90
        1
176
     1
 90
        6
176
     1
 90
        2
176
     1
 62
     7
176
     1
 90
        5
176
     1
 90
        0
176
     1
 90
        0
176
     1
290
     0
176
     1
 90
        1
176
     1
 40
0.0
176
     1
 90
        0
176
     1
290
     0
176
     1
290
     1
176
     1
290
     1
176
     1
290
     0
176
     1
290
     0
176
     1
290
     0
176
     1
290
     0
176
     1
290
     0
176
     1
290
     0
176
     1
 90
       50
176
     1
 40
0.0
176
     1
 40
1.0
176
     1
 90
        0
176
     1
 62
    18
420
        0
176
     1
 90
       50
176
     1
 90
        3
176
     1
 62
     5
420
      255
176
     1
290
     0
176
     1
 90
       50
176
     1
 90
       50
176
     1
 90
       50
176
     1
290
     0
176
     1
 90
       50
176
     1
 62
   256
176
     0
 40
1.0
176
     0
 90
        2
176
     1
  1
strokes_ogs.tif
176
     1
290
     0
176
     1
 40
1.0
176
     1
 40
1.0
176
     1
  0
VISUALSTYLE
  5
2A
102
{ACAD_REACTORS
330
29
102
}
330
29
100
AcDbVisualStyle
  2
Flat
 70
     0
177
     3
291
     1
 70
    58
 90
        2
176
     1
 90
        1
176
     1
 90
        1
176
     1
 90
        2
176
     1
 40
0.6
176
     1
 40
30.0
176
     1
 62
     7
420
 16777215
176
     1
 90
        0
176
     1
 90
        0
176
     1
 62
     7
176
     1
 62
   257
176
     1
 90
        1
176
     1
 90
        1
176
     1
 40
1.0
176
     1
 90
        8
176
     1
 62
     7
176
     1
 40
1.0
176
     1
 90
        1
176
     1
 90
        6
176
     1
 90
        2
176
     1
 62
     7
176
     1
 90
        5
176
     1
 90
        0
176
     1
 90
        0
176
     1
290
     0
176
     1
 90
       13
176
     1
 40
0.0
176
     1
 90
        0
176
     1
290
     0
176
     1
290
     1
176
     1
290
     1
176
     1
290
     0
176
     1
290
     0
176
     1
290
     0
176
     1
290
     0
176
     1
290
     0
176
     1
290
     0
176
     1
 90
       50
176
     1
 40
0.0
176
     1
 40
1.0
176
     1
 90
        0
176
     1
 62
    18
420
        0
176
     1
 90
       50
176
     1
 90
        3
176
     1
 62
     5
420
      255
176
     1
290
     0
176
     1
 90
       50
176
     1
 90
       50
176
     1
 90
       50
176
     1
290
     0
176
     1
 90
       50
176
     1
 62
   256
176
     0
 40
1.0
176
     0
 90
        2
176
     1
  1
strokes_ogs.tif
176
     1
290
     0
176
     1
 40
1.0
176
     1
 40
1.0
176
     1
  0
VISUALSTYLE
  5
2B
102
{ACAD_REACTORS
330
29
102
}
330
29
100
AcDbVisualStyle
  2
FlatWithEdges
 70
     1
177
     3
291
     1
 70
    58
 90
        2
176
     1
 90
        1
176
     1
 90
        1
176
     1
 90
        2
176
     1
 40
0.6
176
     1
 40
30.0
176
     1
 62
     7
420
 16777215
176
     1
 90
        1
176
     1
 90
        0
176
     1
 62
     7
176
     1
 62
   257
176
     1
 90
        1
176
     1
 90
        1
176
     1
 40
1.0
176
     1
 90
        0
176
     1
 62
   257
176
     1
 40
1.0
176
     1
 90
        1
176
     1
 90
        6
176
     1
 90
        2
176
     1
 62
     7
176
     1
 90
        5
176
     1
 90
        0
176
     1
 90
        0
176
     1
290
     0
176
     1
 90
       13
176
     1
 40
0.0
176
     1
 90
        0
176
     1
290
     0
176
     1
290
     1
176
     1
290
     1
176
     1
290
     0
176
     1
290
     0
176
     1
290
     0
176
     1
290
     0
176
     1
290
     0
176
     1
290
     0
176
     1
 90
       50
176
     1
 40
0.0
176
     1
 40
1.0
176
     1
 90
        0
176
     1
 62
    18
420
        0
176
     1
 90
       50
176
     1
 90
        3
176
     1
 62
     5
420
      255
176
     1
290
     0
176
     1
 90
       50
176
     1
 90
       50
176
     1
 90
       50
176
     1
290
     0
176
     1
 90
       50
176
     1
 62
   256
176
     0
 40
1.0
176
     0
 90
        2
176
     1
  1
strokes_ogs.tif
176
     1
290
     0
176
     1
 40
1.0
176
     1
 40
1.0
176
     1
  0
VISUALSTYLE
  5
2C
102
{ACAD_REACTORS
330
29
102
}
330
29
100
AcDbVisualStyle
  2
Gouraud
 70
     2
177
     3
291
     1
 70
    58
 90
        2
176
     1
 90
        2
176
     1
 90
        1
176
     1
 90
        2
176
     1
 40
0.6
176
     1
 40
30.0
176
     1
 62
     7
420
 16777215
176
     1
 90
        0
176
     1
 90
        0
176
     1
 62
     7
176
     1
 62
   257
176
     1
 90
        1
176
     1
 90
        1
176
     1
 40
1.0
176
     1
 90
        0
176
     1
 62
     7
176
     1
 40
1.0
176
     1
 90
        1
176
     1
 90
        6
176
     1
 90
        2
176
     1
 62
     7
176
     1
 90
        5
176
     1
 90
        0
176
     1
 90
        0
176
     1
290
     0
176
     1
 90
       13
176
     1
 40
0.0
176
     1
 90
        0
176
     1
290
     0
176
     1
290
     1
176
     1
290
     1
176
     1
290
     0
176
     1
290
     0
176
     1
290
     0
176
     1
290
     0
176
     1
290
     0
176
     1
290
     0
176
     1
 90
       50
176
     1
 40
0.0
176
     1
 40
1.0
176
     1
 90
        0
176
     1
 62
    18
420
        0
176
     1
 90
       50
176
     1
 90
        3
176
     1
 62
     5
420
      255
176
     1
290
     0
176
     1
 90
       50
176
     1
 90
       50
176
     1
 90
       50
176
     1
290
     0
176
     1
 90
       50
176
     1
 62
   256
176
     0
 40
1.0
176
     0
 90
        2
176
     1
  1
strokes_ogs.tif
176
     1
290
     0
176
     1
 40
1.0
176
     1
 40
1.0
176
     1
  0
VISUALSTYLE
  5
2D
102
{ACAD_REACTORS
330
29
102
}
330
29
100
AcDbVisualStyle
  2
GouraudWithEdges
 70
     3
177
     3
291
     1
 70
    58
 90
        2
176
     1
 90
        2
176
     1
 90
        1
176
     1
 90
        2
176
     1
 40
0.6
176
     1
 40
30.0
176
     1
 62
     7
420
 16777215
176
     1
 90
        1
176
     1
 90
        0
176
     1
 62
     7
176
     1
 62
   257
176
     1
 90
        1
176
     1
 90
        1
176
     1
 40
1.0
176
     1
 90
        0
176
     1
 62
   257
176
     1
 40
1.0
176
     1
 90
        1
176
     1
 90
        6
176
     1
 90
        2
176
     1
 62
     7
176
     1
 90
        5
176
     1
 90
        0
176
     1
 90
        0
176
     1
290
     0
176
     1
 90
       13
176
     1
 40
0.0
176
     1
 90
        0
176
     1
290
     0
176
     1
290
     1
176
     1
290
     1
176
     1
290
     0
176
     1
290
     0
176
     1
290
     0
176
     1
290
     0
176
     1
290
     0
176
     1
290
     0
176
     1
 90
       50
176
     1
 40
0.0
176
     1
 40
1.0
176
     1
 90
        0
176
     1
 62
    18
420
        0
176
     1
 90
       50
176
     1
 90
        3
176
     1
 62
     5
420
      255
176
     1
290
     0
176
     1
 90
       50
176
     1
 90
       50
176
     1
 90
       50
176
     1
290
     0
176
     1
 90
       50
176
     1
 62
   256
176
     0
 40
1.0
176
     0
 90
        2
176
     1
  1
strokes_ogs.tif
176
     1
290
     0
176
     1
 40
1.0
176
     1
 40
1.0
176
     1
  0
VISUALSTYLE
  5
31
102
{ACAD_REACTORS
330
29
102
}
330
29
100
AcDbVisualStyle
  2
Hidden
 70
     6
177
     3
291
     0
 70
    58
 90
        1
176
     1
 90
        2
176
     1
 90
        2
176
     1
 90
        0
176
     1
 40
0.6
176
     1
 40
30.0
176
     1
 62
     7
420
 16777215
176
     1
 90
        2
176
     1
 90
        2
176
     1
 62
     7
176
     1
 62
   257
176
     1
 90
        2
176
     1
 90
        1
176
     1
 40
40.0
176
     1
 90
        0
176
     1
 62
   257
176
     1
 40
1.0
176
     1
 90
        1
176
     1
 90
        6
176
     1
 90
        2
176
     1
 62
     7
176
     1
 90
        3
176
     1
 90
        0
176
     1
 90
        0
176
     1
290
     0
176
     1
 90
        1
176
     1
 40
0.0
176
     1
 90
        0
176
     1
290
     0
176
     1
290
     1
176
     1
290
     1
176
     1
290
     0
176
     1
290
     0
176
     1
290
     0
176
     1
290
     0
176
     1
290
     0
176
     1
290
     0
176
     1
 90
       50
176
     1
 40
0.0
176
     1
 40
1.0
176
     1
 90
        0
176
     1
 62
    18
420
        0
176
     1
 90
       50
176
     1
 90
        3
176
     1
 62
     5
420
      255
176
     1
290
     0
176
     1
 90
       50
176
     1
 90
       50
176
     1
 90
       50
176
     1
290
     0
176
     1
 90
       50
176
     1
 62
   256
176
     0
 40
1.0
176
     0
 90
        2
176
     1
  1
strokes_ogs.tif
176
     1
290
     0
176
     1
 40
1.0
176
     1
 40
1.0
176
     1
  0
VISUALSTYLE
  5
3F
102
{ACAD_REACTORS
330
29
102
}
330
29
100
AcDbVisualStyle
  2
JitterOff
 70
    20
177
     3
291
     1
 70
    58
 90
        2
176
     0
 90
        2
176
     0
 90
        0
176
     0
 90
        0
176
     0
 40
0.6
176
     0
 40
30.0
176
     0
 62
     7
420
 16777215
176
     0
 90
        1
176
     0
 90
        4
176
     0
 62
     7
176
     0
 62
   257
176
     0
 90
        1
176
     0
 90
        1
176
     0
 40
1.0
176
     0
 90
       10
176
     2
 62
     7
176
     0
 40
1.0
176
     0
 90
        1
176
     0
 90
        6
176
     0
 90
        2
176
     0
 62
     7
176
     0
 90
        5
176
     0
 90
        0
176
     0
 90
        0
176
     0
290
     0
176
     0
 90
        1
176
     0
 40
0.0
176
     0
 90
        0
176
     0
290
     0
176
     0
290
     1
176
     0
290
     1
176
     0
290
     0
176
     0
290
     0
176
     0
290
     0
176
     0
290
     0
176
     0
290
     0
176
     0
290
     0
176
     0
 90
       50
176
     0
 40
0.0
176
     0
 40
1.0
176
     0
 90
        0
176
     0
 62
    18
420
        0
176
     0
 90
       50
176
     0
 90
        3
176
     0
 62
     5
420
      255
176
     0
290
     0
176
     0
 90
       50
176
     0
 90
       50
176
     0
 90
       50
176
     0
290
     0
176
     0
 90
       50
176
     0
 62
   256
176
     0
 40
1.0
176
     0
 90
        2
176
     0
  1
strokes_ogs.tif
176
     0
290
     0
176
     0
 40
1.0
176
     0
 40
1.0
176
     0
  0
VISUALSTYLE
  5
37
102
{ACAD_REACTORS
330
29
102
}
330
29
100
AcDbVisualStyle
  2
Linepattern
 70
    14
177
     3
291
     1
 70
    58
 90
        2
176
     1
 90
        2
176
     1
 90
        0
176
     1
 90
        0
176
     1
 40
0.6
176
     1
 40
30.0
176
     1
 62
     7
420
 16777215
176
     1
 90
        1
176
     1
 90
        4
176
     1
 62
     7
176
     1
 62
   257
176
     1
 90
        7
176
     1
 90
        7
176
     1
 40
1.0
176
     1
 90
        8
176
     1
 62
     7
176
     1
 40
1.0
176
     1
 90
        1
176
     1
 90
        6
176
     1
 90
        2
176
     1
 62
     7
176
     1
 90
        5
176
     1
 90
        0
176
     1
 90
        0
176
     1
290
     0
176
     1
 90
        1
176
     1
 40
0.0
176
     1
 90
        0
176
     1
290
     0
176
     1
290
     1
176
     1
290
     1
176
     1
290
     0
176
     1
290
     0
176
     1
290
     0
176
     1
290
     0
176
     1
290
     0
176
     1
290
     0
176
     1
 90
       50
176
     1
 40
0.0
176
     1
 40
1.0
176
     1
 90
        0
176
     1
 62
    18
420
        0
176
     1
 90
       50
176
     1
 90
        3
176
     1
 62
     5
420
      255
176
     1
290
     0
176
     1
 90
       50
176
     1
 90
       50
176
     1
 90
       50
176
     1
290
     0
176
     1
 90
       50
176
     1
 62
   256
176
     0
 40
1.0
176
     0
 90
        2
176
     1
  1
strokes_ogs.tif
176
     1
290
     0
176
     1
 40
1.0
176
     1
 40
1.0
176
     1
  0
VISUALSTYLE
  5
40
102
{ACAD_REACTORS
330
29
102
}
330
29
100
AcDbVisualStyle
  2
OverhangOff
 70
    21
177
     3
291
     1
 70
    58
 90
        2
176
     0
 90
        2
176
     0
 90
        0
176
     0
 90
        0
176
     0
 40
0.6
176
     0
 40
30.0
176
     0
 62
     7
420
 16777215
176
     0
 90
        1
176
     0
 90
        4
176
     0
 62
     7
176
     0
 62
   257
176
     0
 90
        1
176
     0
 90
        1
176
     0
 40
1.0
176
     0
 90
        9
176
     2
 62
     7
176
     0
 40
1.0
176
     0
 90
        1
176
     0
 90
        6
176
     0
 90
        2
176
     0
 62
     7
176
     0
 90
        5
176
     0
 90
        0
176
     0
 90
        0
176
     0
290
     0
176
     0
 90
        1
176
     0
 40
0.0
176
     0
 90
        0
176
     0
290
     0
176
     0
290
     1
176
     0
290
     1
176
     0
290
     0
176
     0
290
     0
176
     0
290
     0
176
     0
290
     0
176
     0
290
     0
176
     0
290
     0
176
     0
 90
       50
176
     0
 40
0.0
176
     0
 40
1.0
176
     0
 90
        0
176
     0
 62
    18
420
        0
176
     0
 90
       50
176
     0
 90
        3
176
     0
 62
     5
420
      255
176
     0
290
     0
176
     0
 90
       50
176
     0
 90
       50
176
     0
 90
       50
176
     0
290
     0
176
     0
 90
       50
176
     0
 62
   256
176
     0
 40
1.0
176
     0
 90
        2
176
     0
  1
strokes_ogs.tif
176
     0
290
     0
176
     0
 40
1.0
176
     0
 40
1.0
176
     0
  0
VISUALSTYLE
  5
33
102
{ACAD_REACTORS
330
29
102
}
330
29
100
AcDbVisualStyle
  2
Realistic
 70
     8
177
     3
291
     0
 70
    58
 90
        2
176
     1
 90
        3
176
     1
 90
        0
176
     1
 90
        2
176
     1
 40
0.6
176
     1
 40
30.0
176
     1
 62
     7
420
 16777215
176
     1
 90
        0
176
     1
 90
        0
176
     1
 62
     7
176
     1
 62
   257
176
     1
 90
        1
176
     1
 90
        1
176
     1
 40
1.0
176
     1
 90
        8
176
     1
 62
   257
176
     1
 40
1.0
176
     1
 90
        1
176
     1
 90
        6
176
     1
 90
        2
176
     1
 62
     7
176
     1
 90
        3
176
     1
 90
        0
176
     1
 90
        0
176
     1
290
     0
176
     1
 90
       13
176
     1
 40
0.0
176
     1
 90
        0
176
     1
290
     0
176
     1
290
     1
176
     1
290
     1
176
     1
290
     0
176
     1
290
     0
176
     1
290
     0
176
     1
290
     0
176
     1
290
     0
176
     1
290
     0
176
     1
 90
       50
176
     1
 40
0.0
176
     1
 40
1.0
176
     1
 90
        0
176
     1
 62
    18
420
        0
176
     1
 90
       50
176
     1
 90
        3
176
     1
 62
     5
420
      255
176
     1
290
     0
176
     1
 90
       50
176
     1
 90
       50
176
     1
 90
       50
176
     1
290
     0
176
     1
 90
       50
176
     1
 62
   256
176
     0
 40
1.0
176
     0
 90
        2
176
     1
  1
strokes_ogs.tif
176
     1
290
     0
176
     1
 40
1.0
176
     1
 40
1.0
176
     1
  0
VISUALSTYLE
  5
3E
102
{ACAD_REACTORS
330
29
102
}
330
29
100
AcDbVisualStyle
  2
Shaded
 70
    27
177
     3
291
     0
 70
    58
 90
        2
176
     1
 90
        2
176
     1
 90
        1
176
     1
 90
        2
176
     1
 40
0.6
176
     1
 40
30.0
176
     1
 62
     7
420
 16777215
176
     1
 90
        0
176
     1
 90
        4
176
     1
 62
     7
176
     1
 62
   257
176
     1
 90
        1
176
     1
 90
        1
176
     1
 40
1.0
176
     1
 90
        8
176
     1
 62
   257
176
     1
 40
1.0
176
     1
 90
        1
176
     1
 90
        6
176
     1
 90
        2
176
     1
 62
     8
420
  7895160
176
     1
 90
        3
176
     1
 90
        0
176
     1
 90
        0
176
     1
290
     0
176
     1
 90
        5
176
     1
 40
0.0
176
     1
 90
        0
176
     1
290
     0
176
     1
290
     1
176
     1
290
     1
176
     1
290
     0
176
     1
290
     0
176
     1
290
     0
176
     1
290
     0
176
     1
290
     0
176
     1
290
     0
176
     1
 90
       50
176
     1
 40
0.0
176
     1
 40
1.0
176
     1
 90
        0
176
     1
 62
    18
420
        0
176
     1
 90
       50
176
     1
 90
        3
176
     1
 62
     5
420
      255
176
     1
290
     0
176
     1
 90
       50
176
     1
 90
       50
176
     1
 90
       50
176
     1
290
     0
176
     1
 90
       50
176
     1
 62
   256
176
     0
 40
1.0
176
     0
 90
        2
176
     1
  1
strokes_ogs.tif
176
     1
290
     0
176
     1
 40
1.0
176
     1
 40
1.0
176
     1
  0
VISUALSTYLE
  5
3D
102
{ACAD_REACTORS
330
29
102
}
330
29
100
AcDbVisualStyle
  2
Shaded with edges
 70
    26
177
     3
291
     0
 70
    58
 90
        2
176
     1
 90
        2
176
     1
 90
        1
176
     1
 90
        2
176
     1
 40
0.6
176
     1
 40
30.0
176
     1
 62
     7
420
 16777215
176
     1
 90
        1
176
     1
 90
        2
176
     1
 62
     7
176
     1
 62
   257
176
     1
 90
        2
176
     1
 90
        1
176
     1
 40
1.0
176
     1
 90
        8
176
     1
 62
   257
176
     1
 40
1.0
176
     1
 90
        1
176
     1
 90
        6
176
     1
 90
        2
176
     1
 62
     7
176
     1
 90
        3
176
     1
 90
        0
176
     1
 90
        0
176
     1
290
     0
176
     1
 90
        5
176
     1
 40
0.0
176
     1
 90
        0
176
     1
290
     0
176
     1
290
     1
176
     1
290
     1
176
     1
290
     0
176
     1
290
     0
176
     1
290
     0
176
     1
290
     0
176
     1
290
     0
176
     1
290
     0
176
     1
 90
       50
176
     1
 40
0.0
176
     1
 40
1.0
176
     1
 90
        0
176
     1
 62
    18
420
        0
176
     1
 90
       50
176
     1
 90
        3
176
     1
 62
     5
420
      255
176
     1
290
     0
176
     1
 90
       50
176
     1
 90
       50
176
     1
 90
       50
176
     1
290
     0
176
     1
 90
       50
176
     1
 62
   256
176
     0
 40
1.0
176
     0
 90
        2
176
     1
  1
strokes_ogs.tif
176
     1
290
     0
176
     1
 40
1.0
176
     1
 40
1.0
176
     1
  0
VISUALSTYLE
  5
3A
102
{ACAD_REACTORS
330
29
102
}
330
29
100
AcDbVisualStyle
  2
Shades of Gray
 70
    23
177
     3
291
     0
 70
    58
 90
        2
176
     1
 90
        2
176
     1
 90
        3
176
     1
 90
        0
176
     1
 40
0.6
176
     1
 40
30.0
176
     1
 62
     7
420
 16777215
176
     1
 90
        2
176
     1
 90
        2
176
     1
 62
     7
176
     1
 62
     7
176
     1
 90
        1
176
     1
 90
        1
176
     1
 40
40.0
176
     1
 90
        8
176
     1
 62
     7
176
     1
 40
1.0
176
     1
 90
        1
176
     1
 90
        6
176
     1
 90
        2
176
     1
 62
     7
176
     1
 90
        3
176
     1
 90
        0
176
     1
 90
        0
176
     1
290
     0
176
     1
 90
        1
176
     1
 40
0.0
176
     1
 90
        0
176
     1
290
     0
176
     1
290
     1
176
     1
290
     1
176
     1
290
     0
176
     1
290
     0
176
     1
290
     0
176
     1
290
     0
176
     1
290
     0
176
     1
290
     0
176
     1
 90
       50
176
     1
 40
0.0
176
     1
 40
1.0
176
     1
 90
        0
176
     1
 62
    18
420
        0
176
     1
 90
       50
176
     1
 90
        3
176
     1
 62
     5
420
      255
176
     1
290
     0
176
     1
 90
       50
176
     1
 90
       50
176
     1
 90
       50
176
     1
290
     0
176
     1
 90
       50
176
     1
 62
   256
176
     0
 40
1.0
176
     0
 90
        2
176
     1
  1
strokes_ogs.tif
176
     1
290
     0
176
     1
 40
1.0
176
     1
 40
1.0
176
     1
  0
VISUALSTYLE
  5
3B
102
{ACAD_REACTORS
330
29
102
}
330
29
100
AcDbVisualStyle
  2
Sketchy
 70
    24
177
     3
291
     0
 70
    58
 90
        1
176
     1
 90
        2
176
     1
 90
        2
176
     1
 90
        0
176
     1
 40
0.6
176
     1
 40
30.0
176
     1
 62
     7
420
 16777215
176
     1
 90
        2
176
     1
 90
        2
176
     1
 62
     7
176
     1
 62
     7
176
     1
 90
        1
176
     1
 90
        1
176
     1
 40
40.0
176
     1
 90
       11
176
     1
 62
     7
176
     1
 40
1.0
176
     1
 90
        1
176
     1
 90
        6
176
     1
 90
        2
176
     1
 62
     7
176
     1
 90
        6
176
     1
 90
        0
176
     1
 90
        0
176
     1
290
     0
176
     1
 90
        1
176
     1
 40
0.0
176
     1
 90
        0
176
     1
290
     0
176
     1
290
     1
176
     1
290
     1
176
     1
290
     0
176
     1
290
     0
176
     1
290
     0
176
     1
290
     0
176
     1
290
     0
176
     1
290
     0
176
     1
 90
       50
176
     1
 40
0.0
176
     1
 40
1.0
176
     1
 90
        0
176
     1
 62
    18
420
        0
176
     1
 90
       50
176
     1
 90
        3
176
     1
 62
     5
420
      255
176
     1
290
     0
176
     1
 90
       50
176
     1
 90
       50
176
     1
 90
       50
176
     1
290
     0
176
     1
 90
       50
176
     1
 62
   256
176
     0
 40
1.0
176
     0
 90
        2
176
     1
  1
strokes_ogs.tif
176
     1
290
     0
176
     1
 40
1.0
176
     1
 40
1.0
176
     1
  0
VISUALSTYLE
  5
36
102
{ACAD_REACTORS
330
29
102
}
330
29
100
AcDbVisualStyle
  2
Thicken
 70
    13
177
     3
291
     1
 70
    58
 90
        2
176
     1
 90
        2
176
     1
 90
        0
176
     1
 90
        0
176
     1
 40
0.6
176
     1
 40
30.0
176
     1
 62
     7
420
 16777215
176
     1
 90
        1
176
     1
 90
        4
176
     1
 62
     7
176
     1
 62
   257
176
     1
 90
        1
176
     1
 90
        1
176
     1
 40
1.0
176
     1
 90
       12
176
     1
 62
     7
176
     1
 40
1.0
176
     1
 90
        1
176
     1
 90
        6
176
     1
 90
        2
176
     1
 62
     7
176
     1
 90
        5
176
     1
 90
        0
176
     1
 90
        0
176
     1
290
     0
176
     1
 90
        1
176
     1
 40
0.0
176
     1
 90
        0
176
     1
290
     0
176
     1
290
     1
176
     1
290
     1
176
     1
290
     0
176
     1
290
     0
176
     1
290
     0
176
     1
290
     0
176
     1
290
     0
176
     1
290
     0
176
     1
 90
       50
176
     1
 40
0.0
176
     1
 40
1.0
176
     1
 90
        0
176
     1
 62
    18
420
        0
176
     1
 90
       50
176
     1
 90
        3
176
     1
 62
     5
420
      255
176
     1
290
     0
176
     1
 90
       50
176
     1
 90
       50
176
     1
 90
       50
176
     1
290
     0
176
     1
 90
       50
176
     1
 62
   256
176
     0
 40
1.0
176
     0
 90
        2
176
     1
  1
strokes_ogs.tif
176
     1
290
     0
176
     1
 40
1.0
176
     1
 40
1.0
176
     1
  0
VISUALSTYLE
  5
30
102
{ACAD_REACTORS
330
29
102
}
330
29
100
AcDbVisualStyle
  2
Wireframe
 70
     5
177
     3
291
     0
 70
    58
 90
        0
176
     1
 90
        2
176
     1
 90
        0
176
     1
 90
        0
176
     1
 40
0.6
176
     1
 40
30.0
176
     1
 62
     7
420
 16777215
176
     1
 90
        1
176
     1
 90
        4
176
     1
 62
     7
176
     1
 62
   257
176
     1
 90
        1
176
     1
 90
        1
176
     1
 40
1.0
176
     1
 90
        0
176
     1
 62
   257
176
     1
 40
1.0
176
     1
 90
        1
176
     1
 90
        6
176
     1
 90
        2
176
     1
 62
     7
176
     1
 90
        3
176
     1
 90
        0
176
     1
 90
        0
176
     1
290
     0
176
     1
 90
        1
176
     1
 40
0.0
176
     1
 90
        0
176
     1
290
     0
176
     1
290
     1
176
     1
290
     1
176
     1
290
     0
176
     1
290
     0
176
     1
290
     0
176
     1
290
     0
176
     1
290
     0
176
     1
290
     0
176
     1
 90
       50
176
     1
 40
0.0
176
     1
 40
1.0
176
     1
 90
        0
176
     1
 62
    18
420
        0
176
     1
 90
       50
176
     1
 90
        3
176
     1
 62
     5
420
      255
176
     1
290
     0
176
     1
 90
       50
176
     1
 90
       50
176
     1
 90
       50
176
     1
290
     0
176
     1
 90
       50
176
     1
 62
   256
176
     0
 40
1.0
176
     0
 90
        2
176
     1
  1
strokes_ogs.tif
176
     1
290
     0
176
     1
 40
1.0
176
     1
 40
1.0
176
     1
  0
VISUALSTYLE
  5
3C
102
{ACAD_REACTORS
330
29
102
}
330
29
100
AcDbVisualStyle
  2
X-Ray
 70
    25
177
     3
291
     0
 70
    58
 90
        2
176
     1
 90
        2
176
     1
 90
        1
176
     1
 90
        1
176
     1
 40
0.5
176
     1
 40
30.0
176
     1
 62
     7
420
 16777215
176
     1
 90
        1
176
     1
 90
        0
176
     1
 62
     7
176
     1
 62
   257
176
     1
 90
        1
176
     1
 90
        1
176
     1
 40
1.0
176
     1
 90
        8
176
     1
 62
     7
176
     1
 40
1.0
176
     1
 90
        1
176
     1
 90
        6
176
     1
 90
        2
176
     1
 62
     7
176
     1
 90
        3
176
     1
 90
        0
176
     1
 90
        0
176
     1
290
     0
176
     1
 90
       13
176
     1
 40
0.0
176
     1
 90
        0
176
     1
290
     0
176
     1
290
     1
176
     1
290
     1
176
     1
290
     0
176
     1
290
     0
176
     1
290
     0
176
     1
290
     0
176
     1
290
     0
176
     1
290
     0
176
     1
 90
       50
176
     1
 40
0.0
176
     1
 40
1.0
176
     1
 90
        0
176
     1
 62
    18
420
        0
176
     1
 90
       50
176
     1
 90
        3
176
     1
 62
     5
420
      255
176
     1
290
     0
176
     1
 90
       50
176
     1
 90
       50
176
     1
 90
       50
176
     1
290
     0
176
     1
 90
       50
176
     1
 62
   256
176
     0
 40
1.0
176
     0
 90
        2
176
     1
  1
strokes_ogs.tif
176
     1
290
     0
176
     1
 40
1.0
176
     1
 40
1.0
176
     1
  0
DICTIONARYVAR
  5
95
102
{ACAD_REACTORS
330
90
102
}
330
90
100
DictionaryVariables
280
     0
  1
1:1
  0
DICTIONARYVAR
  5
92
102
{ACAD_REACTORS
330
90
102
}
330
90
100
DictionaryVariables
280
     0
  1
STANDARD
  0
DICTIONARYVAR
  5
91
102
{ACAD_REACTORS
330
90
102
}
330
90
100
DictionaryVariables
280
     0
  1
STANDARD
  0
DICTIONARYVAR
  5
93
102
{ACAD_REACTORS
330
90
102
}
330
90
100
DictionaryVariables
280
     0
  1
Imperial24
  0
DICTIONARYVAR
  5
94
102
{ACAD_REACTORS
330
90
102
}
330
90
100
DictionaryVariables
280
     0
  1
Imperial24
  0
DICTIONARY
  5
1A
330
19
100
AcDbDictionary
280
     1
281
     1
  3
BUMPTILE
360
1C
  3
DIFFUSETILE
360
1B
  3
OPACITYTILE
360
1F
  3
REFLECTIONTILE
360
1E
  3
REFRACTIONTILE
360
20
  3
SPECULARTILE
360
1D
  0
DICTIONARY
  5
12
330
11
100
AcDbDictionary
280
     1
281
     1
  3
BUMPTILE
360
14
  3
DIFFUSETILE
360
13
  3
OPACITYTILE
360
17
  3
REFLECTIONTILE
360
16
  3
REFRACTIONTILE
360
18
  3
SPECULARTILE
360
15
  0
DICTIONARY
  5
22
330
21
100
AcDbDictionary
280
     1
281
     1
  3
BUMPTILE
360
24
  3
DIFFUSETILE
360
23
  3
OPACITYTILE
360
27
  3
REFLECTIONTILE
360
26
  3
REFRACTIONTILE
360
28
  3
SPECULARTILE
360
25
  0
DICTIONARY
  5
96
330
65
100
AcDbDictionary
280
     1
281
     1
  3
ACAD_ROUNDTRIP_2008_TABLESTYLE_CELLSTYLEMAP
360
97
  0
XRECORD
  5
1C
102
{ACAD_REACTORS
330
1A
102
}
330
1A
100
AcDbXrecord
280
     1
270
     1
271
     1
  0
XRECORD
  5
1B
102
{ACAD_REACTORS
330
1A
102
}
330
1A
100
AcDbXrecord
280
     1
270
     1
271
     1
  0
XRECORD
  5
1F
102
{ACAD_REACTORS
330
1A
102
}
330
1A
100
AcDbXrecord
280
     1
270
     1
271
     1
  0
XRECORD
  5
1E
102
{ACAD_REACTORS
330
1A
102
}
330
1A
100
AcDbXrecord
280
     1
270
     1
271
     1
  0
XRECORD
  5
20
102
{ACAD_REACTORS
330
1A
102
}
330
1A
100
AcDbXrecord
280
     1
270
     1
271
     1
  0
XRECORD
  5
1D
102
{ACAD_REACTORS
330
1A
102
}
330
1A
100
AcDbXrecord
280
     1
270
     1
271
     1
  0
XRECORD
  5
14
102
{ACAD_REACTORS
330
12
102
}
330
12
100
AcDbXrecord
280
     1
270
     1
271
     1
  0
XRECORD
  5
13
102
{ACAD_REACTORS
330
12
102
}
330
12
100
AcDbXrecord
280
     1
270
     1
271
     1
  0
XRECORD
  5
17
102
{ACAD_REACTORS
330
12
102
}
330
12
100
AcDbXrecord
280
     1
270
     1
271
     1
  0
XRECORD
  5
16
102
{ACAD_REACTORS
330
12
102
}
330
12
100
AcDbXrecord
280
     1
270
     1
271
     1
  0
XRECORD
  5
18
102
{ACAD_REACTORS
330
12
102
}
330
12
100
AcDbXrecord
280
     1
270
     1
271
     1
  0
XRECORD
  5
15
102
{ACAD_REACTORS
330
12
102
}
330
12
100
AcDbXrecord
280
     1
270
     1
271
     1
  0
XRECORD
  5
24
102
{ACAD_REACTORS
330
22
102
}
330
22
100
AcDbXrecord
280
     1
270
     1
271
     1
  0
XRECORD
  5
23
102
{ACAD_REACTORS
330
22
102
}
330
22
100
AcDbXrecord
280
     1
270
     1
271
     1
  0
XRECORD
  5
27
102
{ACAD_REACTORS
330
22
102
}
330
22
100
AcDbXrecord
280
     1
270
     1
271
     1
  0
XRECORD
  5
26
102
{ACAD_REACTORS
330
22
102
}
330
22
100
AcDbXrecord
280
     1
270
     1
271
     1
  0
XRECORD
  5
28
102
{ACAD_REACTORS
330
22
102
}
330
22
100
AcDbXrecord
280
     1
270
     1
271
     1
  0
XRECORD
  5
25
102
{ACAD_REACTORS
330
22
102
}
330
22
100
AcDbXrecord
280
     1
270
     1
271
     1
  0
CELLSTYLEMAP
  5
97
102
{ACAD_REACTORS
330
96
102
}
330
96
100
AcDbCellStyleMap
 90
        3
300
CELLSTYLE
  1
TABLEFORMAT_BEGIN
 90
        5
170
     1
 91
        0
 92
    32768
 62
   257
 93
        1
300
CONTENTFORMAT
  1
CONTENTFORMAT_BEGIN
 90
        0
 91
        0
 92
      512
 93
        0
300

 40
0.0
140
1.0
 94
        5
 62
     0
340
55
144
0.25
309
CONTENTFORMAT_END
171
     0
 94
        0
309
TABLEFORMAT_END
  1
CELLSTYLE_BEGIN
 90
        1
 91
        1
300
_TITLE
309
CELLSTYLE_END
300
CELLSTYLE
  1
TABLEFORMAT_BEGIN
 90
        5
170
     1
 91
        0
 92
        0
 62
   257
 93
        1
300
CONTENTFORMAT
  1
CONTENTFORMAT_BEGIN
 90
        0
 91
        0
 92
      512
 93
        0
300

 40
0.0
140
1.0
 94
        5
 62
     0
340
55
144
0.18
309
CONTENTFORMAT_END
171
     0
 94
        0
309
TABLEFORMAT_END
  1
CELLSTYLE_BEGIN
 90
        2
 91
        1
300
_HEADER
309
CELLSTYLE_END
300
CELLSTYLE
  1
TABLEFORMAT_BEGIN
 90
        5
170
     1
 91
        0
 92
        0
 62
   257
 93
        1
300
CONTENTFORMAT
  1
CONTENTFORMAT_BEGIN
 90
        0
 91
        0
 92
      512
 93
        0
300

 40
0.0
140
1.0
 94
        2
 62
     0
340
55
144
0.18
309
CONTENTFORMAT_END
171
     0
 94
        0
309
TABLEFORMAT_END
  1
CELLSTYLE_BEGIN
 90
        3
 91
        2
300
_DATA
309
CELLSTYLE_END
  0
ENDSEC
  0
EOF
