  0
SECTION
  2
HEADER
  9
$ACADVER
  1
AC1032
  9
$ACADMAINTVER
 90
      251
  9
$DWGCODEPAGE
  3
ANSI_1252
  9
$REQUIREDVERSIONS
160
                 0
  9
$INSBASE
 10
0.0
 20
0.0
 30
0.0
  9
$EXTMIN
 10
1.000000000000000E+20
 20
1.000000000000000E+20
 30
1.000000000000000E+20
  9
$EXTMAX
 10
-1.000000000000000E+20
 20
-1.000000000000000E+20
 30
-1.000000000000000E+20
  9
$LIMMIN
 10
0.0
 20
0.0
  9
$LIMMAX
 10
12.0
 20
9.0
  9
$ORTHOMODE
 70
     0
  9
$REGENMODE
 70
     1
  9
$FILLMODE
 70
     1
  9
$QTEXTMODE
 70
     0
  9
$MIRRTEXT
 70
     0
  9
$LTSCALE
 40
1.0
  9
$ATTMODE
 70
     1
  9
$TEXTSIZE
 40
0.2
  9
$TRACEWID
 40
0.05
  9
$TEXTSTYLE
  7
Standard
  9
$CLAYER
  8
0
  9
$CELTYPE
  6
ByLayer
  9
$CECOLOR
 62
   256
  9
$CELTSCALE
 40
1.0
  9
$DISPSILH
 70
     0
  9
$DIMSCALE
 40
1.0
  9
$DIMASZ
 40
0.18
  9
$DIMEXO
 40
0.0625
  9
$DIMDLI
 40
0.38
  9
$DIMRND
 40
0.0
  9
$DIMDLE
 40
0.0
  9
$DIMEXE
 40
0.18
  9
$DIMTP
 40
0.0
  9
$DIMTM
 40
0.0
  9
$DIMTXT
 40
0.18
  9
$DIMCEN
 40
0.09
  9
$DIMTSZ
 40
0.0
  9
$DIMTOL
 70
     0
  9
$DIMLIM
 70
     0
  9
$DIMTIH
 70
     1
  9
$DIMTOH
 70
     1
  9
$DIMSE1
 70
     0
  9
$DIMSE2
 70
     0
  9
$DIMTAD
 70
     0
  9
$DIMZIN
 70
     0
  9
$DIMBLK
  1

  9
$DIMASO
 70
     1
  9
$DIMSHO
 70
     1
  9
$DIMPOST
  1

  9
$DIMAPOST
  1

  9
$DIMALT
 70
     0
  9
$DIMALTD
 70
     2
  9
$DIMALTF
 40
25.4
  9
$DIMLFAC
 40
1.0
  9
$DIMTOFL
 70
     0
  9
$DIMTVP
 40
0.0
  9
$DIMTIX
 70
     0
  9
$DIMSOXD
 70
     0
  9
$DIMSAH
 70
     0
  9
$DIMBLK1
  1

  9
$DIMBLK2
  1

  9
$DIMSTYLE
  2
Standard
  9
$DIMCLRD
 70
     0
  9
$DIMCLRE
 70
     0
  9
$DIMCLRT
 70
     0
  9
$DIMTFAC
 40
1.0
  9
$DIMGAP
 40
0.09
  9
$DIMJUST
 70
     0
  9
$DIMSD1
 70
     0
  9
$DIMSD2
 70
     0
  9
$DIMTOLJ
 70
     1
  9
$DIMTZIN
 70
     0
  9
$DIMALTZ
 70
     0
  9
$DIMALTTZ
 70
     0
  9
$DIMUPT
 70
     0
  9
$DIMDEC
 70
     4
  9
$DIMTDEC
 70
     4
  9
$DIMALTU
 70
     2
  9
$DIMALTTD
 70
     2
  9
$DIMTXSTY
  7
Standard
  9
$DIMAUNIT
 70
     0
  9
$DIMADEC
 70
     0
  9
$DIMALTRND
 40
0.0
  9
$DIMAZIN
 70
     0
  9
$DIMDSEP
 70
    46
  9
$DIMATFIT
 70
     3
  9
$DIMFRAC
 70
     0
  9
$DIMLDRBLK
  1

  9
$DIMLUNIT
 70
     2
  9
$DIMLWD
 70
    -2
  9
$DIMLWE
 70
    -2
  9
$DIMTMOVE
 70
     0
  9
$DIMFXL
 40
1.0
  9
$DIMFXLON
 70
     0
  9
$DIMJOGANG
 40
0.7853981633974483
  9
$DIMTFILL
 70
     0
  9
$DIMTFILLCLR
 70
     0
  9
$DIMARCSYM
 70
     0
  9
$DIMLTYPE
  6

  9
$DIMLTEX1
  6

  9
$DIMLTEX2
  6

  9
$DIMTXTDIRECTION
 70
     0
  9
$LUNITS
 70
     2
  9
$LUPREC
 70
     4
  9
$SKETCHINC
 40
0.1
  9
$FILLETRAD
 40
0.0
  9
$AUNITS
 70
     0
  9
$AUPREC
 70
     0
  9
$MENU
  1
.
  9
$ELEVATION
 40
0.0
  9
$PELEVATION
 40
0.0
  9
$THICKNESS
 40
0.0
  9
$LIMCHECK
 70
     0
  9
$CHAMFERA
 40
0.0
  9
$CHAMFERB
 40
0.0
  9
$CHAMFERC
 40
0.0
  9
$CHAMFERD
 40
0.0
  9
$SKPOLY
 70
     0
  9
$TDCREATE
 40
2459858.707685185
  9
$TDUCREATE
 40
2459858.624351852
  9
$TDUPDATE
 40
2459858.707685185
  9
$TDUUPDATE
 40
2459858.624351852
  9
$TDINDWG
 40
0.0000000000
  9
$TDUSRTIMER
 40
0.0000000000
  9
$USRTIMER
 70
     1
  9
$ANGBASE
 50
0.0
  9
$ANGDIR
 70
     0
  9
$PDMODE
 70
     0
  9
$PDSIZE
 40
0.0
  9
$PLINEWID
 40
0.0
  9
$SPLFRAME
 70
     0
  9
$SPLINETYPE
 70
     6
  9
$SPLINESEGS
 70
     8
  9
$HANDSEED
  5
4EC
  9
$SURFTAB1
 70
     6
  9
$SURFTAB2
 70
     6
  9
$SURFTYPE
 70
     6
  9
$SURFU
 70
     6
  9
$SURFV
 70
     6
  9
$UCSBASE
  2

  9
$UCSNAME
  2

  9
$UCSORG
 10
0.0
 20
0.0
 30
0.0
  9
$UCSXDIR
 10
1.0
 20
0.0
 30
0.0
  9
$UCSYDIR
 10
0.0
 20
1.0
 30
0.0
  9
$UCSORTHOREF
  2

  9
$UCSORTHOVIEW
 70
     0
  9
$UCSORGTOP
 10
0.0
 20
0.0
 30
0.0
  9
$UCSORGBOTTOM
 10
0.0
 20
0.0
 30
0.0
  9
$UCSORGLEFT
 10
0.0
 20
0.0
 30
0.0
  9
$UCSORGRIGHT
 10
0.0
 20
0.0
 30
0.0
  9
$UCSORGFRONT
 10
0.0
 20
0.0
 30
0.0
  9
$UCSORGBACK
 10
0.0
 20
0.0
 30
0.0
  9
$PUCSBASE
  2

  9
$PUCSNAME
  2

  9
$PUCSORG
 10
0.0
 20
0.0
 30
0.0
  9
$PUCSXDIR
 10
1.0
 20
0.0
 30
0.0
  9
$PUCSYDIR
 10
0.0
 20
1.0
 30
0.0
  9
$PUCSORTHOREF
  2

  9
$PUCSORTHOVIEW
 70
     0
  9
$PUCSORGTOP
 10
0.0
 20
0.0
 30
0.0
  9
$PUCSORGBOTTOM
 10
0.0
 20
0.0
 30
0.0
  9
$PUCSORGLEFT
 10
0.0
 20
0.0
 30
0.0
  9
$PUCSORGRIGHT
 10
0.0
 20
0.0
 30
0.0
  9
$PUCSORGFRONT
 10
0.0
 20
0.0
 30
0.0
  9
$PUCSORGBACK
 10
0.0
 20
0.0
 30
0.0
  9
$USERI1
 70
     0
  9
$USERI2
 70
     0
  9
$USERI3
 70
     0
  9
$USERI4
 70
     0
  9
$USERI5
 70
     0
  9
$USERR1
 40
0.0
  9
$USERR2
 40
0.0
  9
$USERR3
 40
0.0
  9
$USERR4
 40
0.0
  9
$USERR5
 40
0.0
  9
$WORLDVIEW
 70
     1
  9
$SHADEDGE
 70
     3
  9
$SHADEDIF
 70
    70
  9
$TILEMODE
 70
     1
  9
$MAXACTVP
 70
    64
  9
$PINSBASE
 10
0.0
 20
0.0
 30
0.0
  9
$PLIMCHECK
 70
     0
  9
$PEXTMIN
 10
1.000000000000000E+20
 20
1.000000000000000E+20
 30
1.000000000000000E+20
  9
$PEXTMAX
 10
-1.000000000000000E+20
 20
-1.000000000000000E+20
 30
-1.000000000000000E+20
  9
$PLIMMIN
 10
0.0
 20
0.0
  9
$PLIMMAX
 10
12.0
 20
9.0
  9
$UNITMODE
 70
     0
  9
$VISRETAIN
 70
     1
  9
$PLINEGEN
 70
     0
  9
$PSLTSCALE
 70
     1
  9
$TREEDEPTH
 70
  3020
  9
$CMLSTYLE
  2
Standard
  9
$CMLJUST
 70
     0
  9
$CMLSCALE
 40
1.0
  9
$PROXYGRAPHICS
 70
     1
  9
$MEASUREMENT
 70
     0
  9
$CELWEIGHT
370
    -1
  9
$ENDCAPS
280
     0
  9
$JOINSTYLE
280
     0
  9
$LWDISPLAY
290
     1
  9
$INSUNITS
 70
     4
  9
$HYPERLINKBASE
  1

  9
$STYLESHEET
  1

  9
$XEDIT
290
     1
  9
$CEPSNTYPE
380
     0
  9
$PSTYLEMODE
290
     1
  9
$FINGERPRINTGUID
  2
{0781D85A-F2E4-CB45-912E-EC89B0DC844C}
  9
$VERSIONGUID
  2
{BAD2EA6E-D7D0-7543-93BD-C5431E4E2003}
  9
$EXTNAMES
290
     1
  9
$PSVPSCALE
 40
0.0
  9
$OLESTARTUP
290
     0
  9
$SORTENTS
280
   127
  9
$INDEXCTL
280
     0
  9
$HIDETEXT
280
     1
  9
$XCLIPFRAME
280
     2
  9
$HALOGAP
280
     0
  9
$OBSCOLOR
 70
   257
  9
$OBSLTYPE
280
     0
  9
$INTERSECTIONDISPLAY
280
     0
  9
$INTERSECTIONCOLOR
 70
   257
  9
$DIMASSOC
280
     2
  9
$PROJECTNAME
  1

  9
$CAMERADISPLAY
290
     0
  9
$LENSLENGTH
 40
50.0
  9
$CAMERAHEIGHT
 40
0.0
  9
$STEPSPERSEC
 40
2.0
  9
$STEPSIZE
 40
6.0
  9
$3DDWFPREC
 40
2.0
  9
$PSOLWIDTH
 40
0.25
  9
$PSOLHEIGHT
 40
4.0
  9
$LOFTANG1
 40
1.570796326794896
  9
$LOFTANG2
 40
1.570796326794896
  9
$LOFTMAG1
 40
0.0
  9
$LOFTMAG2
 40
0.0
  9
$LOFTPARAM
 70
     7
  9
$LOFTNORMALS
280
     1
  9
$LATITUDE
 40
37.795
  9
$LONGITUDE
 40
-122.394
  9
$NORTHDIRECTION
 40
0.0
  9
$TIMEZONE
 70
 -8000
  9
$LIGHTGLYPHDISPLAY
280
     1
  9
$TILEMODELIGHTSYNCH
280
     1
  9
$CMATERIAL
347
11
  9
$SOLIDHIST
280
     0
  9
$SHOWHIST
280
     1
  9
$DWFFRAME
280
     2
  9
$DGNFRAME
280
     0
  9
$REALWORLDSCALE
290
     1
  9
$INTERFERECOLOR
 62
     1
  9
$INTERFEREOBJVS
345
33
  9
$INTERFEREVPVS
346
30
  9
$CSHADOW
280
     0
  9
$SHADOWPLANELOCATION
 40
0.0
  0
ENDSEC
  0
SECTION
  2
CLASSES
  0
CLASS
  1
ACDBDICTIONARYWDFLT
  2
AcDbDictionaryWithDefault
  3
ObjectDBX Classes
 90
        0
 91
        1
280
     0
281
     0
  0
CLASS
  1
MATERIAL
  2
AcDbMaterial
  3
ObjectDBX Classes
 90
     1153
 91
        3
280
     0
281
     0
  0
CLASS
  1
VISUALSTYLE
  2
AcDbVisualStyle
  3
ObjectDBX Classes
 90
     4095
 91
       24
280
     0
281
     0
  0
CLASS
  1
SCALE
  2
AcDbScale
  3
ObjectDBX Classes
 90
     1153
 91
       17
280
     0
281
     0
  0
CLASS
  1
TABLESTYLE
  2
AcDbTableStyle
  3
ObjectDBX Classes
 90
     4095
 91
        1
280
     0
281
     0
  0
CLASS
  1
MLEADERSTYLE
  2
AcDbMLeaderStyle
  3
ACDB_MLEADERSTYLE_CLASS
 90
     4095
 91
        1
280
     0
281
     0
  0
CLASS
  1
ACDBSECTIONVIEWSTYLE
  2
AcDbSectionViewStyle
  3
ObjectDBX Classes
 90
     1025
 91
        1
280
     0
281
     0
  0
CLASS
  1
ACDBDETAILVIEWSTYLE
  2
AcDbDetailViewStyle
  3
ObjectDBX Classes
 90
     1025
 91
        1
280
     0
281
     0
  0
CLASS
  1
DICTIONARYVAR
  2
AcDbDictionaryVar
  3
ObjectDBX Classes
 90
        0
 91
        5
280
     0
281
     0
  0
CLASS
  1
CELLSTYLEMAP
  2
AcDbCellStyleMap
  3
ObjectDBX Classes
 90
     1152
 91
        1
280
     0
281
     0
  0
ENDSEC
  0
SECTION
  2
TABLES
  0
TABLE
  2
VPORT
  5
8
330
0
100
AcDbSymbolTable
 70
     1
  0
VPORT
  5
57
330
8
100
AcDbSymbolTableRecord
100
AcDbViewportTableRecord
  2
*Active
 70
     0
 10
0.0
 20
0.0
 11
1.0
 21
1.0
 12
0.0
 22
0.0
 13
0.0
 23
0.0
 14
1.0
 24
1.0
 15
0.0
 25
0.0
 16
0.0
 26
0.0
 36
1.0
 17
1747.055555118816
 27
379.999999904997
 37
0.0
 40
775.199999806194
 41
1.526315789473717
 42
50.0
 43
0.0
 44
0.0
 50
0.0
 51
0.0
 71
     0
 72
   100
 73
     1
 74
     1
 75
     0
 76
     0
 77
     0
 78
     0
281
     0
 65
     1
110
0.0
120
0.0
130
0.0
111
1.0
121
0.0
131
0.0
112
0.0
122
1.0
132
0.0
 79
     0
146
0.0
 60
     3
 61
     5
292
     1
282
     1
141
0.0
142
0.0
 63
   250
421
  3355443
  0
ENDTAB
  0
TABLE
  2
LTYPE
  5
5
330
0
100
AcDbSymbolTable
 70
     1
  0
LTYPE
  5
5B
330
5
100
AcDbSymbolTableRecord
100
AcDbLinetypeTableRecord
  2
ByBlock
 70
     0
  3

 72
    65
 73
     0
 40
0.0
  0
LTYPE
  5
5C
330
5
100
AcDbSymbolTableRecord
100
AcDbLinetypeTableRecord
  2
ByLayer
 70
     0
  3

 72
    65
 73
     0
 40
0.0
  0
LTYPE
  5
5D
330
5
100
AcDbSymbolTableRecord
100
AcDbLinetypeTableRecord
  2
Continuous
 70
     0
  3
Solid line
 72
    65
 73
     0
 40
0.0
  0
ENDTAB
  0
TABLE
  2
LAYER
  5
2
330
0
100
AcDbSymbolTable
 70
     2
  0
LAYER
  5
54
330
2
100
AcDbSymbolTableRecord
100
AcDbLayerTableRecord
  2
0
 70
     0
 62
     7
  6
Continuous
370
    -3
390
F
347
21
348
0
  0
LAYER
  5
78
330
2
100
AcDbSymbolTableRecord
100
AcDbLayerTableRecord
  2
Layer 01
 70
     0
 62
     7
  6
Continuous
370
     0
390
F
347
21
348
0
  0
ENDTAB
  0
TABLE
  2
STYLE
  5
3
330
0
100
AcDbSymbolTable
 70
     2
  0
STYLE
  5
55
330
3
100
AcDbSymbolTableRecord
100
AcDbTextStyleTableRecord
  2
Standard
 70
     0
 40
0.0
 41
1.0
 50
0.0
 71
     0
 42
0.2
  3
txt
  4

  0
STYLE
  5
5A
330
3
100
AcDbSymbolTableRecord
100
AcDbTextStyleTableRecord
  2
Annotative
 70
     0
 40
0.0
 41
1.0
 50
0.0
 71
     0
 42
0.2
  3
txt
  4

1001
AcadAnnotative
1000
AnnotativeData
1002
{
1070
     1
1070
     1
1002
}
  0
ENDTAB
  0
TABLE
  2
VIEW
  5
6
330
0
100
AcDbSymbolTable
 70
     0
  0
ENDTAB
  0
TABLE
  2
UCS
  5
7
330
0
100
AcDbSymbolTable
 70
     0
  0
ENDTAB
  0
TABLE
  2
APPID
  5
9
330
0
100
AcDbSymbolTable
 70
     2
  0
APPID
  5
56
330
9
100
AcDbSymbolTableRecord
100
AcDbRegAppTableRecord
  2
ACAD
 70
     0
  0
APPID
  5
5E
330
9
100
AcDbSymbolTableRecord
100
AcDbRegAppTableRecord
  2
AcadAnnotative
 70
     0
  0
ENDTAB
  0
TABLE
  2
DIMSTYLE
  5
A
330
0
100
AcDbSymbolTable
 70
     2
100
AcDbDimStyleTable
 71
     0
  0
DIMSTYLE
105
58
330
A
100
AcDbSymbolTableRecord
100
AcDbDimStyleTableRecord
  2
Standard
 70
     0
340
55
  0
DIMSTYLE
105
59
330
A
100
AcDbSymbolTableRecord
100
AcDbDimStyleTableRecord
  2
Annotative
 70
     0
340
55
1001
AcadAnnotative
1000
AnnotativeData
1002
{
1070
     1
1070
     1
1002
}
  0
ENDTAB
  0
TABLE
  2
BLOCK_RECORD
  5
1
330
0
100
AcDbSymbolTable
 70
    11
  0
BLOCK_RECORD
  5
70
330
1
100
AcDbSymbolTableRecord
100
AcDbBlockTableRecord
  2
*Model_Space
340
73
 70
     0
280
     1
281
     0
  0
BLOCK_RECORD
  5
6C
330
1
100
AcDbSymbolTableRecord
100
AcDbBlockTableRecord
  2
*Paper_Space
340
6F
 70
     0
280
     1
281
     0
  0
BLOCK_RECORD
  5
74
330
1
100
AcDbSymbolTableRecord
100
AcDbBlockTableRecord
  2
*Paper_Space0
340
77
 70
     0
280
     1
281
     0
  0
BLOCK_RECORD
  5
79
330
1
100
AcDbSymbolTableRecord
100
AcDbBlockTableRecord
  2
Block_0
340
0
102
{BLKREFS
331
7A
102
}
 70
     0
280
     1
281
     0
  0
BLOCK_RECORD
  5
F2
330
1
100
AcDbSymbolTableRecord
100
AcDbBlockTableRecord
  2
Block_1
340
0
102
{BLKREFS
331
F3
102
}
 70
     0
280
     1
281
     0
  0
BLOCK_RECORD
  5
169
330
1
100
AcDbSymbolTableRecord
100
AcDbBlockTableRecord
  2
Block_2
340
0
102
{BLKREFS
331
16A
102
}
 70
     0
280
     1
281
     0
  0
BLOCK_RECORD
  5
1D7
330
1
100
AcDbSymbolTableRecord
100
AcDbBlockTableRecord
  2
Block_3
340
0
102
{BLKREFS
331
1D8
102
}
 70
     0
280
     1
281
     0
  0
BLOCK_RECORD
  5
1E1
330
1
100
AcDbSymbolTableRecord
100
AcDbBlockTableRecord
  2
Block_4
340
0
102
{BLKREFS
331
1E2
102
}
 70
     0
280
     1
281
     0
  0
BLOCK_RECORD
  5
2D1
330
1
100
AcDbSymbolTableRecord
100
AcDbBlockTableRecord
  2
Block_5
340
0
102
{BLKREFS
331
2D2
102
}
 70
     0
280
     1
281
     0
  0
BLOCK_RECORD
  5
31F
330
1
100
AcDbSymbolTableRecord
100
AcDbBlockTableRecord
  2
Block_6
340
0
102
{BLKREFS
331
320
102
}
 70
     0
280
     1
281
     0
  0
BLOCK_RECORD
  5
37B
330
1
100
AcDbSymbolTableRecord
100
AcDbBlockTableRecord
  2
Block_7
340
0
102
{BLKREFS
331
37C
102
}
 70
     0
280
     1
281
     0
  0
BLOCK_RECORD
  5
3C0
330
1
100
AcDbSymbolTableRecord
100
AcDbBlockTableRecord
  2
Block_8
340
0
102
{BLKREFS
331
3C1
102
}
 70
     0
280
     1
281
     0
  0
BLOCK_RECORD
  5
498
330
1
100
AcDbSymbolTableRecord
100
AcDbBlockTableRecord
  2
Block_9
340
0
102
{BLKREFS
331
499
102
}
 70
     0
280
     1
281
     0
  0
ENDTAB
  0
ENDSEC
  0
SECTION
  2
BLOCKS
  0
BLOCK
  5
71
330
70
100
AcDbEntity
  8
0
100
AcDbBlockBegin
  2
*Model_Space
 70
     0
 10
0.0
 20
0.0
 30
0.0
  3
*Model_Space
  1

  0
ENDBLK
  5
72
330
70
100
AcDbEntity
  8
0
100
AcDbBlockEnd
  0
BLOCK
  5
6D
330
6C
100
AcDbEntity
 67
     1
  8
0
100
AcDbBlockBegin
  2
*Paper_Space
 70
     0
 10
0.0
 20
0.0
 30
0.0
  3
*Paper_Space
  1

  0
ENDBLK
  5
6E
330
6C
100
AcDbEntity
 67
     1
  8
0
100
AcDbBlockEnd
  0
BLOCK
  5
75
330
74
100
AcDbEntity
 67
     1
  8
0
100
AcDbBlockBegin
  2
*Paper_Space0
 70
     0
 10
0.0
 20
0.0
 30
0.0
  3
*Paper_Space0
  1

  0
ENDBLK
  5
76
330
74
100
AcDbEntity
 67
     1
  8
0
100
AcDbBlockEnd
  0
BLOCK
  5
7B
330
79
100
AcDbEntity
  8
0
100
AcDbBlockBegin
  2
Block_0
 70
     0
 10
0.0
 20
0.0
 30
0.0
  3
Block_0
  1

  0
LINE
  5
7D
330
79
100
AcDbEntity
  8
Layer 01
 62
     5
420
      255
370
    25
100
AcDbLine
 10
2309.342181521442
 20
13.02717679332872
 30
0.0
 11
2309.34470984224
 21
161.3823135636316
 31
0.0
  0
LINE
  5
7E
330
79
100
AcDbEntity
  8
Layer 01
 62
     5
420
      255
370
    25
100
AcDbLine
 10
2309.34470984224
 20
161.3823135636316
 30
0.0
 11
2223.710082949319
 21
161.835516301482
 31
0.0
  0
LINE
  5
7F
330
79
100
AcDbEntity
  8
Layer 01
 62
     5
420
      255
370
    25
100
AcDbLine
 10
2223.710082949319
 20
161.835516301482
 30
0.0
 11
2223.710223890949
 21
170.1055961191912
 31
0.0
  0
LINE
  5
80
330
79
100
AcDbEntity
  8
Layer 01
 62
     5
420
      255
370
    25
100
AcDbLine
 10
2223.710223890949
 20
170.1055961191912
 30
0.0
 11
2309.313838154118
 21
170.1041372320736
 31
0.0
  0
LINE
  5
81
330
79
100
AcDbEntity
  8
Layer 01
 62
     5
420
      255
370
    25
100
AcDbLine
 10
2309.313838154118
 20
170.1041372320736
 30
0.0
 11
2309.349924579944
 21
467.3692464656703
 31
0.0
  0
LINE
  5
82
330
79
100
AcDbEntity
  8
Layer 01
 62
     5
420
      255
370
    25
100
AcDbLine
 10
2309.349924579944
 20
467.3692464656703
 30
0.0
 11
2237.285339170111
 21
467.8222149263846
 31
0.0
  0
LINE
  5
83
330
79
100
AcDbEntity
  8
Layer 01
 62
     5
420
      255
370
    25
100
AcDbLine
 10
2237.285339170111
 20
467.8222149263846
 30
0.0
 11
2237.28548011174
 21
476.0922947440887
 31
0.0
  0
LINE
  5
84
330
79
100
AcDbEntity
  8
Layer 01
 62
     5
420
      255
370
    25
100
AcDbLine
 10
2237.28548011174
 20
476.0922947440887
 30
0.0
 11
2309.319052891772
 21
476.0910671224236
 31
0.0
  0
LINE
  5
85
330
79
100
AcDbEntity
  8
Layer 01
 62
     5
420
      255
370
    25
100
AcDbLine
 10
2309.319052891772
 20
476.0910671224236
 30
0.0
 11
2309.352582121579
 21
623.3067182768772
 31
0.0
  0
LINE
  5
86
330
79
100
AcDbEntity
  8
Layer 01
 62
     5
420
      255
370
    25
100
AcDbLine
 10
2309.352582121579
 20
623.3067182768772
 30
0.0
 11
2287.493421429189
 21
623.6877795082094
 31
0.0
  0
LINE
  5
87
330
79
100
AcDbEntity
  8
Layer 01
 62
     5
420
      255
370
    25
100
AcDbLine
 10
2287.493421429189
 20
623.6877795082094
 30
0.0
 11
2216.808268083756
 21
624.5069841896413
 31
0.0
  0
LINE
  5
88
330
79
100
AcDbEntity
  8
Layer 01
 62
     5
420
      255
370
    25
100
AcDbLine
 10
2216.808268083756
 20
624.5069841896413
 30
0.0
 11
2150.618685105881
 21
624.5575851224457
 31
0.0
  0
LINE
  5
89
330
79
100
AcDbEntity
  8
Layer 01
 62
     5
420
      255
370
    25
100
AcDbLine
 10
2150.618685105881
 20
624.5575851224457
 30
0.0
 11
2147.761302972289
 21
598.9167030890756
 31
0.0
  0
LINE
  5
8A
330
79
100
AcDbEntity
  8
Layer 01
 62
     5
420
      255
370
    25
100
AcDbLine
 10
2147.761302972289
 20
598.9167030890756
 30
0.0
 11
2164.273601742996
 21
476.993604411612
 31
0.0
  0
LINE
  5
8B
330
79
100
AcDbEntity
  8
Layer 01
 62
     5
420
      255
370
    25
100
AcDbLine
 10
2164.273601742996
 20
476.993604411612
 30
0.0
 11
2171.045793661859
 21
443.5609263574085
 31
0.0
  0
LINE
  5
8C
330
79
100
AcDbEntity
  8
Layer 01
 62
     5
420
      255
370
    25
100
AcDbLine
 10
2171.045793661859
 20
443.5609263574085
 30
0.0
 11
2183.648418502866
 21
402.6793458692259
 31
0.0
  0
LINE
  5
8D
330
79
100
AcDbEntity
  8
Layer 01
 62
     5
420
      255
370
    25
100
AcDbLine
 10
2183.648418502866
 20
402.6793458692259
 30
0.0
 11
2202.356453468652
 21
351.2598449106196
 31
0.0
  0
LINE
  5
8E
330
79
100
AcDbEntity
  8
Layer 01
 62
     5
420
      255
370
    25
100
AcDbLine
 10
2202.356453468652
 20
351.2598449106196
 30
0.0
 11
2186.122918738156
 21
287.9658185856722
 31
0.0
  0
LINE
  5
8F
330
79
100
AcDbEntity
  8
Layer 01
 62
     5
420
      255
370
    25
100
AcDbLine
 10
2186.122918738156
 20
287.9658185856722
 30
0.0
 11
2181.139486584566
 21
252.0149088220833
 31
0.0
  0
LINE
  5
90
330
79
100
AcDbEntity
  8
Layer 01
 62
     5
420
      255
370
    25
100
AcDbLine
 10
2181.139486584566
 20
252.0149088220833
 30
0.0
 11
2139.634884783439
 21
170.9872834874219
 31
0.0
  0
LINE
  5
91
330
79
100
AcDbEntity
  8
Layer 01
 62
     5
420
      255
370
    25
100
AcDbLine
 10
2139.634884783439
 20
170.9872834874219
 30
0.0
 11
2135.85819251911
 21
156.1198856407673
 31
0.0
  0
LINE
  5
92
330
79
100
AcDbEntity
  8
Layer 01
 62
     5
420
      255
370
    25
100
AcDbLine
 10
2135.85819251911
 20
156.1198856407673
 30
0.0
 11
2126.962907873517
 21
143.3583885234921
 31
0.0
  0
LINE
  5
93
330
79
100
AcDbEntity
  8
Layer 01
 62
     5
420
      255
370
    25
100
AcDbLine
 10
2126.962907873517
 20
143.3583885234921
 30
0.0
 11
2102.723796530444
 21
115.1836576165477
 31
0.0
  0
LINE
  5
94
330
79
100
AcDbEntity
  8
Layer 01
 62
     5
420
      255
370
    25
100
AcDbLine
 10
2102.723796530444
 20
115.1836576165477
 30
0.0
 11
2097.316168936964
 21
96.02229407039695
 31
0.0
  0
LINE
  5
95
330
79
100
AcDbEntity
  8
Layer 01
 62
     5
420
      255
370
    25
100
AcDbLine
 10
2097.316168936964
 20
96.02229407039695
 30
0.0
 11
2097.35662840175
 21
54.87784215664087
 31
0.0
  0
LINE
  5
96
330
79
100
AcDbEntity
  8
Layer 01
 62
     5
420
      255
370
    25
100
AcDbLine
 10
2097.35662840175
 20
54.87784215664087
 30
0.0
 11
2146.714911206929
 21
24.3616141237383
 31
0.0
  0
LINE
  5
97
330
79
100
AcDbEntity
  8
Layer 01
 62
     5
420
      255
370
    25
100
AcDbLine
 10
2146.714911206929
 20
24.3616141237383
 30
0.0
 11
2183.446728786444
 21
27.31029254328123
 31
0.0
  0
LINE
  5
98
330
79
100
AcDbEntity
  8
Layer 01
 62
     5
420
      255
370
    25
100
AcDbLine
 10
2183.446728786444
 20
27.31029254328123
 30
0.0
 11
2214.71233764828
 21
15.28659357991753
 31
0.0
  0
LINE
  5
99
330
79
100
AcDbEntity
  8
Layer 01
 62
     5
420
      255
370
    25
100
AcDbLine
 10
2214.71233764828
 20
15.28659357991753
 30
0.0
 11
2219.776090382876
 21
16.89632680671991
 31
0.0
  0
LINE
  5
9A
330
79
100
AcDbEntity
  8
Layer 01
 62
     5
420
      255
370
    25
100
AcDbLine
 10
2219.776090382876
 20
16.89632680671991
 30
0.0
 11
2223.893959896637
 21
13.49204361194351
 31
0.0
  0
LINE
  5
9B
330
79
100
AcDbEntity
  8
Layer 01
 62
     5
420
      255
370
    25
100
AcDbLine
 10
2223.893959896637
 20
13.49204361194351
 30
0.0
 11
2281.991840151745
 21
13.156850105072
 31
0.0
  0
LINE
  5
9C
330
79
100
AcDbEntity
  8
Layer 01
 62
     5
420
      255
370
    25
100
AcDbLine
 10
2281.991840151745
 20
13.156850105072
 30
0.0
 11
2306.690834245855
 21
12.98938018940122
 31
0.0
  0
LINE
  5
9D
330
79
100
AcDbEntity
  8
Layer 01
 62
     5
420
      255
370
    25
100
AcDbLine
 10
2306.690834245855
 20
12.98938018940122
 30
0.0
 11
2309.342181521442
 21
13.02717679332872
 31
0.0
  0
LINE
  5
9E
330
79
100
AcDbEntity
  8
Layer 01
 62
     1
420
 16711680
370
    25
100
AcDbLine
 10
2217.227430010949
 20
479.1856343864766
 30
0.0
 11
2217.227183645392
 21
464.7295589585876
 31
0.0
  0
LINE
  5
9F
330
79
100
AcDbEntity
  8
Layer 01
 62
     1
420
 16711680
370
    25
100
AcDbLine
 10
2217.227183645392
 20
464.7295589585876
 30
0.0
 11
2220.441007711331
 21
467.9441829967134
 31
0.0
  0
LINE
  5
A0
330
79
100
AcDbEntity
  8
Layer 01
 62
     1
420
 16711680
370
    25
100
AcDbLine
 10
2202.049368475821
 20
173.1990805327661
 30
0.0
 11
2208.469654905139
 21
173.1989711159698
 31
0.0
  0
LINE
  5
A1
330
79
100
AcDbEntity
  8
Layer 01
 62
     1
420
 16711680
370
    25
100
AcDbLine
 10
2208.469654905139
 20
173.1989711159698
 30
0.0
 11
2202.536935625051
 21
163.6484190313074
 31
0.0
  0
LINE
  5
A2
330
79
100
AcDbEntity
  8
Layer 01
 62
     1
420
 16711680
370
    25
100
AcDbLine
 10
2202.536935625051
 20
163.6484190313074
 30
0.0
 11
2202.536935625051
 21
163.6484190313074
 31
0.0
  0
LINE
  5
A3
330
79
100
AcDbEntity
  8
Layer 01
 62
     1
420
 16711680
370
    25
100
AcDbLine
 10
2202.536935625051
 20
163.6484190313074
 30
0.0
 11
2202.529842963479
 21
163.6396431097221
 31
0.0
  0
LINE
  5
A4
330
79
100
AcDbEntity
  8
Layer 01
 62
     1
420
 16711680
370
    25
100
AcDbLine
 10
2202.529842963479
 20
163.6396431097221
 30
0.0
 11
2202.523042433816
 21
163.6307918910971
 31
0.0
  0
LINE
  5
A5
330
79
100
AcDbEntity
  8
Layer 01
 62
     1
420
 16711680
370
    25
100
AcDbLine
 10
2202.523042433816
 20
163.6307918910971
 30
0.0
 11
2202.516488859592
 21
163.6217930958322
 31
0.0
  0
LINE
  5
A6
330
79
100
AcDbEntity
  8
Layer 01
 62
     1
420
 16711680
370
    25
100
AcDbLine
 10
2202.516488859592
 20
163.6217930958322
 30
0.0
 11
2202.510134052555
 21
163.6125684209974
 31
0.0
  0
LINE
  5
A7
330
79
100
AcDbEntity
  8
Layer 01
 62
     1
420
 16711680
370
    25
100
AcDbLine
 10
2202.510134052555
 20
163.6125684209974
 30
0.0
 11
2202.503935847923
 21
163.6030455869375
 31
0.0
  0
LINE
  5
A8
330
79
100
AcDbEntity
  8
Layer 01
 62
     1
420
 16711680
370
    25
100
AcDbLine
 10
2202.503935847923
 20
163.6030455869375
 30
0.0
 11
2202.497852080908
 21
163.5931523139982
 31
0.0
  0
LINE
  5
A9
330
79
100
AcDbEntity
  8
Layer 01
 62
     1
420
 16711680
370
    25
100
AcDbLine
 10
2202.497852080908
 20
163.5931523139982
 30
0.0
 11
2202.491834563204
 21
163.5828072875688
 31
0.0
  0
LINE
  5
AA
330
79
100
AcDbEntity
  8
Layer 01
 62
     1
420
 16711680
370
    25
100
AcDbLine
 10
2202.491834563204
 20
163.5828072875688
 30
0.0
 11
2202.485838118451
 21
163.5719442514123
 31
0.0
  0
LINE
  5
AB
330
79
100
AcDbEntity
  8
Layer 01
 62
     1
420
 16711680
370
    25
100
AcDbLine
 10
2202.485838118451
 20
163.5719442514123
 30
0.0
 11
2202.479820581709
 21
163.5604818908213
 31
0.0
  0
LINE
  5
AC
330
79
100
AcDbEntity
  8
Layer 01
 62
     1
420
 16711680
370
    25
100
AcDbLine
 10
2202.479820581709
 20
163.5604818908213
 30
0.0
 11
2202.479820581709
 21
163.5604818908213
 31
0.0
  0
LINE
  5
AD
330
79
100
AcDbEntity
  8
Layer 01
 62
     1
420
 16711680
370
    25
100
AcDbLine
 10
2202.479820581709
 20
163.5604818908213
 30
0.0
 11
2202.234859443758
 21
163.0345499478504
 31
0.0
  0
LINE
  5
AE
330
79
100
AcDbEntity
  8
Layer 01
 62
     1
420
 16711680
370
    25
100
AcDbLine
 10
2202.234859443758
 20
163.0345499478504
 30
0.0
 11
2202.091750064269
 21
162.4893716186787
 31
0.0
  0
LINE
  5
AF
330
79
100
AcDbEntity
  8
Layer 01
 62
     1
420
 16711680
370
    25
100
AcDbLine
 10
2202.091750064269
 20
162.4893716186787
 30
0.0
 11
2202.046993078291
 21
161.9372677555502
 31
0.0
  0
LINE
  5
B0
330
79
100
AcDbEntity
  8
Layer 01
 62
     1
420
 16711680
370
    25
100
AcDbLine
 10
2202.046993078291
 20
161.9372677555502
 30
0.0
 11
2202.097077074146
 21
161.3905592109373
 31
0.0
  0
LINE
  5
B1
330
79
100
AcDbEntity
  8
Layer 01
 62
     1
420
 16711680
370
    25
100
AcDbLine
 10
2202.097077074146
 20
161.3905592109373
 30
0.0
 11
2202.238496663412
 21
160.8615608138347
 31
0.0
  0
LINE
  5
B2
330
79
100
AcDbEntity
  8
Layer 01
 62
     1
420
 16711680
370
    25
100
AcDbLine
 10
2202.238496663412
 20
160.8615608138347
 30
0.0
 11
2202.467746457773
 21
160.3625934166096
 31
0.0
  0
LINE
  5
B3
330
79
100
AcDbEntity
  8
Layer 01
 62
     1
420
 16711680
370
    25
100
AcDbLine
 10
2202.467746457773
 20
160.3625934166096
 30
0.0
 11
2202.78131805718
 21
159.9059748599956
 31
0.0
  0
LINE
  5
B4
330
79
100
AcDbEntity
  8
Layer 01
 62
     1
420
 16711680
370
    25
100
AcDbLine
 10
2202.78131805718
 20
159.9059748599956
 30
0.0
 11
2203.175706073322
 21
159.5040259963534
 31
0.0
  0
LINE
  5
B5
330
79
100
AcDbEntity
  8
Layer 01
 62
     1
420
 16711680
370
    25
100
AcDbLine
 10
2203.175706073322
 20
159.5040259963534
 30
0.0
 11
2203.64740210614
 21
159.1690646664179
 31
0.0
  0
LINE
  5
B6
330
79
100
AcDbEntity
  8
Layer 01
 62
     1
420
 16711680
370
    25
100
AcDbLine
 10
2203.64740210614
 20
159.1690646664179
 30
0.0
 11
2203.64740210614
 21
159.1690646664179
 31
0.0
  0
LINE
  5
B7
330
79
100
AcDbEntity
  8
Layer 01
 62
     1
420
 16711680
370
    25
100
AcDbLine
 10
2203.64740210614
 20
159.1690646664179
 30
0.0
 11
2204.174794774338
 21
158.9275819967215
 31
0.0
  0
LINE
  5
B8
330
79
100
AcDbEntity
  8
Layer 01
 62
     1
420
 16711680
370
    25
100
AcDbLine
 10
2204.174794774338
 20
158.9275819967215
 30
0.0
 11
2204.720810388841
 21
158.7866801661486
 31
0.0
  0
LINE
  5
B9
330
79
100
AcDbEntity
  8
Layer 01
 62
     1
420
 16711680
370
    25
100
AcDbLine
 10
2204.720810388841
 20
158.7866801661486
 30
0.0
 11
2205.273233511806
 21
158.7431850696525
 31
0.0
  0
LINE
  5
BA
330
79
100
AcDbEntity
  8
Layer 01
 62
     1
420
 16711680
370
    25
100
AcDbLine
 10
2205.273233511806
 20
158.7431850696525
 30
0.0
 11
2205.819860752287
 21
158.7939316370164
 31
0.0
  0
LINE
  5
BB
330
79
100
AcDbEntity
  8
Layer 01
 62
     1
420
 16711680
370
    25
100
AcDbLine
 10
2205.819860752287
 20
158.7939316370164
 30
0.0
 11
2206.348485707447
 21
158.9357427513537
 31
0.0
  0
LINE
  5
BC
330
79
100
AcDbEntity
  8
Layer 01
 62
     1
420
 16711680
370
    25
100
AcDbLine
 10
2206.348485707447
 20
158.9357427513537
 30
0.0
 11
2206.846901974596
 21
159.1654503308297
 31
0.0
  0
LINE
  5
BD
330
79
100
AcDbEntity
  8
Layer 01
 62
     1
420
 16711680
370
    25
100
AcDbLine
 10
2206.846901974596
 20
159.1654503308297
 30
0.0
 11
2207.302900139322
 21
159.4798832819746
 31
0.0
  0
LINE
  5
BE
330
79
100
AcDbEntity
  8
Layer 01
 62
     1
420
 16711680
370
    25
100
AcDbLine
 10
2207.302900139322
 20
159.4798832819746
 30
0.0
 11
2207.704273798881
 21
159.87587051126
 31
0.0
  0
LINE
  5
BF
330
79
100
AcDbEntity
  8
Layer 01
 62
     1
420
 16711680
370
    25
100
AcDbLine
 10
2207.704273798881
 20
159.87587051126
 30
0.0
 11
2208.038819562281
 21
160.3502439367983
 31
0.0
  0
LINE
  5
C0
330
79
100
AcDbEntity
  8
Layer 01
 62
     1
420
 16711680
370
    25
100
AcDbLine
 10
2208.038819562281
 20
160.3502439367983
 30
0.0
 11
2208.460384549868
 21
161.1588915419143
 31
0.0
  0
LINE
  5
C1
330
79
100
AcDbEntity
  8
Layer 01
 62
     1
420
 16711680
370
    25
100
AcDbLine
 10
2255.65094018966
 20
76.94973426455283
 30
0.0
 11
2270.337708097251
 21
98.19202424478
 31
0.0
  0
LINE
  5
C2
330
79
100
AcDbEntity
  8
Layer 01
 62
     1
420
 16711680
370
    25
100
AcDbLine
 10
2270.337708097251
 20
98.19202424478
 30
0.0
 11
2285.026510660108
 21
76.94923363567667
 31
0.0
  0
LINE
  5
C3
330
79
100
AcDbEntity
  8
Layer 01
 62
     1
420
 16711680
370
    25
100
AcDbLine
 10
2270.337678964112
 20
96.48256923197711
 30
0.0
 11
2270.338096617687
 21
120.9893696384932
 31
0.0
  0
LINE
  5
C4
330
79
100
AcDbEntity
  8
Layer 01
 62
     1
420
 16711680
370
    25
100
AcDbLine
 10
2215.053126210959
 20
98.97036898571411
 30
0.0
 11
2239.131870177329
 21
98.96995862722915
 31
0.0
  0
LINE
  5
C5
330
79
100
AcDbEntity
  8
Layer 01
 62
     1
420
 16711680
370
    25
100
AcDbLine
 10
2198.543723652005
 20
120.9878314708902
 30
0.0
 11
2188.764751809643
 21
120.9879981275885
 31
0.0
  0
LINE
  5
C6
330
79
100
AcDbEntity
  8
Layer 01
 62
     1
420
 16711680
370
    25
100
AcDbLine
 10
2188.764751809643
 20
120.9879981275885
 30
0.0
 11
2188.764751809643
 21
120.9879981275885
 31
0.0
  0
LINE
  5
C7
330
79
100
AcDbEntity
  8
Layer 01
 62
     1
420
 16711680
370
    25
100
AcDbLine
 10
2188.764751809643
 20
120.9879981275885
 30
0.0
 11
2187.005977809025
 21
120.8302550963118
 31
0.0
  0
LINE
  5
C8
330
79
100
AcDbEntity
  8
Layer 01
 62
     1
420
 16711680
370
    25
100
AcDbLine
 10
2187.005977809025
 20
120.8302550963118
 30
0.0
 11
2185.351029509616
 21
120.3755704594938
 31
0.0
  0
LINE
  5
C9
330
79
100
AcDbEntity
  8
Layer 01
 62
     1
420
 16711680
370
    25
100
AcDbLine
 10
2185.351029509616
 20
120.3755704594938
 30
0.0
 11
2183.827428140697
 21
119.6518560204214
 31
0.0
  0
LINE
  5
CA
330
79
100
AcDbEntity
  8
Layer 01
 62
     1
420
 16711680
370
    25
100
AcDbLine
 10
2183.827428140697
 20
119.6518560204214
 30
0.0
 11
2182.46270095498
 21
118.6870265939674
 31
0.0
  0
LINE
  5
CB
330
79
100
AcDbEntity
  8
Layer 01
 62
     1
420
 16711680
370
    25
100
AcDbLine
 10
2182.46270095498
 20
118.6870265939674
 30
0.0
 11
2181.284378216689
 21
117.508987959891
 31
0.0
  0
LINE
  5
CC
330
79
100
AcDbEntity
  8
Layer 01
 62
     1
420
 16711680
370
    25
100
AcDbLine
 10
2181.284378216689
 20
117.508987959891
 30
0.0
 11
2180.319981155163
 21
116.1456549331703
 31
0.0
  0
LINE
  5
CD
330
79
100
AcDbEntity
  8
Layer 01
 62
     1
420
 16711680
370
    25
100
AcDbLine
 10
2180.319981155163
 20
116.1456549331703
 30
0.0
 11
2179.597040034737
 21
114.624939316933
 31
0.0
  0
LINE
  5
CE
330
79
100
AcDbEntity
  8
Layer 01
 62
     1
420
 16711680
370
    25
100
AcDbLine
 10
2179.597040034737
 20
114.624939316933
 30
0.0
 11
2179.143076084695
 21
112.9747529144683
 31
0.0
  0
LINE
  5
CF
330
79
100
AcDbEntity
  8
Layer 01
 62
     1
420
 16711680
370
    25
100
AcDbLine
 10
2179.143076084695
 20
112.9747529144683
 30
0.0
 11
2178.985616557588
 21
111.223001505596
 31
0.0
  0
LINE
  5
D0
330
79
100
AcDbEntity
  8
Layer 01
 62
     1
420
 16711680
370
    25
100
AcDbLine
 10
2178.985616557588
 20
111.223001505596
 30
0.0
 11
2178.985533111623
 21
106.326614314239
 31
0.0
  0
LINE
  5
D1
330
79
100
AcDbEntity
  8
Layer 01
 62
     1
420
 16711680
370
    25
100
AcDbLine
 10
2178.985533111623
 20
106.326614314239
 30
0.0
 11
2178.985533111623
 21
106.326614314239
 31
0.0
  0
LINE
  5
D2
330
79
100
AcDbEntity
  8
Layer 01
 62
     1
420
 16711680
370
    25
100
AcDbLine
 10
2178.985533111623
 20
106.326614314239
 30
0.0
 11
2179.142932943124
 21
104.5755863665547
 31
0.0
  0
LINE
  5
D3
330
79
100
AcDbEntity
  8
Layer 01
 62
     1
420
 16711680
370
    25
100
AcDbLine
 10
2179.142932943124
 20
104.5755863665547
 30
0.0
 11
2179.596840653347
 21
102.9257699871676
 31
0.0
  0
LINE
  5
D4
330
79
100
AcDbEntity
  8
Layer 01
 62
     1
420
 16711680
370
    25
100
AcDbLine
 10
2179.596840653347
 20
102.9257699871676
 30
0.0
 11
2180.319729942156
 21
101.4051441745072
 31
0.0
  0
LINE
  5
D5
330
79
100
AcDbEntity
  8
Layer 01
 62
     1
420
 16711680
370
    25
100
AcDbLine
 10
2180.319729942156
 20
101.4051441745072
 30
0.0
 11
2181.284080532774
 21
100.041687926912
 31
0.0
  0
LINE
  5
D6
330
79
100
AcDbEntity
  8
Layer 01
 62
     1
420
 16711680
370
    25
100
AcDbLine
 10
2181.284080532774
 20
100.041687926912
 30
0.0
 11
2182.462363113377
 21
98.86338024287688
 31
0.0
  0
LINE
  5
D7
330
79
100
AcDbEntity
  8
Layer 01
 62
     1
420
 16711680
370
    25
100
AcDbLine
 10
2182.462363113377
 20
98.86338024287688
 30
0.0
 11
2183.827057407341
 21
97.89820915577806
 31
0.0
  0
LINE
  5
D8
330
79
100
AcDbEntity
  8
Layer 01
 62
     1
420
 16711680
370
    25
100
AcDbLine
 10
2183.827057407341
 20
97.89820915577806
 30
0.0
 11
2185.350634102749
 21
97.17414764074472
 31
0.0
  0
LINE
  5
D9
330
79
100
AcDbEntity
  8
Layer 01
 62
     1
420
 16711680
370
    25
100
AcDbLine
 10
2185.350634102749
 20
97.17414764074472
 30
0.0
 11
2187.005566899555
 21
96.71918071958115
 31
0.0
  0
LINE
  5
DA
330
79
100
AcDbEntity
  8
Layer 01
 62
     1
420
 16711680
370
    25
100
AcDbLine
 10
2187.005566899555
 20
96.71918071958115
 30
0.0
 11
2188.764335520933
 21
96.56128437894221
 31
0.0
  0
LINE
  5
DB
330
79
100
AcDbEntity
  8
Layer 01
 62
     1
420
 16711680
370
    25
100
AcDbLine
 10
2188.764335520933
 20
96.56128437894221
 30
0.0
 11
2193.660725723972
 21
96.56120093292404
 31
0.0
  0
LINE
  5
DC
330
79
100
AcDbEntity
  8
Layer 01
 62
     1
420
 16711680
370
    25
100
AcDbLine
 10
2193.660725723972
 20
96.56120093292404
 30
0.0
 11
2188.764335520933
 21
96.56128437894221
 31
0.0
  0
LINE
  5
DD
330
79
100
AcDbEntity
  8
Layer 01
 62
     1
420
 16711680
370
    25
100
AcDbLine
 10
2188.764335520933
 20
96.56128437894221
 30
0.0
 11
2188.764335520933
 21
96.56128437894221
 31
0.0
  0
LINE
  5
DE
330
79
100
AcDbEntity
  8
Layer 01
 62
     1
420
 16711680
370
    25
100
AcDbLine
 10
2188.764335520933
 20
96.56128437894221
 30
0.0
 11
2187.005561518161
 21
96.40341485700322
 31
0.0
  0
LINE
  5
DF
330
79
100
AcDbEntity
  8
Layer 01
 62
     1
420
 16711680
370
    25
100
AcDbLine
 10
2187.005561518161
 20
96.40341485700322
 30
0.0
 11
2185.350613210335
 21
95.94823630426905
 31
0.0
  0
LINE
  5
E0
330
79
100
AcDbEntity
  8
Layer 01
 62
     1
420
 16711680
370
    25
100
AcDbLine
 10
2185.350613210335
 20
95.94823630426905
 30
0.0
 11
2183.827011824118
 21
95.22350692823938
 31
0.0
  0
LINE
  5
E1
330
79
100
AcDbEntity
  8
Layer 01
 62
     1
420
 16711680
370
    25
100
AcDbLine
 10
2183.827011824118
 20
95.22350692823938
 30
0.0
 11
2182.462284609455
 21
94.25697891291717
 31
0.0
  0
LINE
  5
E2
330
79
100
AcDbEntity
  8
Layer 01
 62
     1
420
 16711680
370
    25
100
AcDbLine
 10
2182.462284609455
 20
94.25697891291717
 30
0.0
 11
2181.283961827945
 21
93.07640444227848
 31
0.0
  0
LINE
  5
E3
330
79
100
AcDbEntity
  8
Layer 01
 62
     1
420
 16711680
370
    25
100
AcDbLine
 10
2181.283961827945
 20
93.07640444227848
 30
0.0
 11
2180.319564706111
 21
91.70953268875951
 31
0.0
  0
LINE
  5
E4
330
79
100
AcDbEntity
  8
Layer 01
 62
     1
420
 16711680
370
    25
100
AcDbLine
 10
2180.319564706111
 20
91.70953268875951
 30
0.0
 11
2179.596623505617
 21
90.18411884801214
 31
0.0
  0
LINE
  5
E5
330
79
100
AcDbEntity
  8
Layer 01
 62
     1
420
 16711680
370
    25
100
AcDbLine
 10
2179.596623505617
 20
90.18411884801214
 30
0.0
 11
2179.142659453026
 21
88.52791510414839
 31
0.0
  0
LINE
  5
E6
330
79
100
AcDbEntity
  8
Layer 01
 62
     1
420
 16711680
370
    25
100
AcDbLine
 10
2179.142659453026
 20
88.52791510414839
 30
0.0
 11
2178.985199798271
 21
86.76867364119436
 31
0.0
  0
LINE
  5
E7
330
79
100
AcDbEntity
  8
Layer 01
 62
     1
420
 16711680
370
    25
100
AcDbLine
 10
2178.985199798271
 20
86.76867364119436
 30
0.0
 11
2178.985199798271
 21
86.76867364119436
 31
0.0
  0
LINE
  5
E8
330
79
100
AcDbEntity
  8
Layer 01
 62
     1
420
 16711680
370
    25
100
AcDbLine
 10
2178.985199798271
 20
86.76867364119436
 30
0.0
 11
2179.142599629821
 21
85.01764870519613
 31
0.0
  0
LINE
  5
E9
330
79
100
AcDbEntity
  8
Layer 01
 62
     1
420
 16711680
370
    25
100
AcDbLine
 10
2179.142599629821
 20
85.01764870519613
 30
0.0
 11
2179.596507339994
 21
83.36782931412292
 31
0.0
  0
LINE
  5
EA
330
79
100
AcDbEntity
  8
Layer 01
 62
     1
420
 16711680
370
    25
100
AcDbLine
 10
2179.596507339994
 20
83.36782931412292
 30
0.0
 11
2180.319396628805
 21
81.84720350146255
 31
0.0
  0
LINE
  5
EB
330
79
100
AcDbEntity
  8
Layer 01
 62
     1
420
 16711680
370
    25
100
AcDbLine
 10
2180.319396628805
 20
81.84720350146255
 30
0.0
 11
2181.28374721942
 21
80.48374725386988
 31
0.0
  0
LINE
  5
EC
330
79
100
AcDbEntity
  8
Layer 01
 62
     1
420
 16711680
370
    25
100
AcDbLine
 10
2181.28374721942
 20
80.48374725386988
 30
0.0
 11
2182.462029800076
 21
79.30544258151444
 31
0.0
  0
LINE
  5
ED
330
79
100
AcDbEntity
  8
Layer 01
 62
     1
420
 16711680
370
    25
100
AcDbLine
 10
2182.462029800076
 20
79.30544258151444
 30
0.0
 11
2183.826724093987
 21
78.34026848273722
 31
0.0
  0
LINE
  5
EE
330
79
100
AcDbEntity
  8
Layer 01
 62
     1
420
 16711680
370
    25
100
AcDbLine
 10
2183.826724093987
 20
78.34026848273722
 30
0.0
 11
2185.350300789396
 21
77.61620696770258
 31
0.0
  0
LINE
  5
EF
330
79
100
AcDbEntity
  8
Layer 01
 62
     1
420
 16711680
370
    25
100
AcDbLine
 10
2185.350300789396
 20
77.61620696770258
 30
0.0
 11
2187.005233586202
 21
77.16124004653645
 31
0.0
  0
LINE
  5
F0
330
79
100
AcDbEntity
  8
Layer 01
 62
     1
420
 16711680
370
    25
100
AcDbLine
 10
2187.005233586202
 20
77.16124004653645
 30
0.0
 11
2188.764002207631
 21
77.00334671758233
 31
0.0
  0
LINE
  5
F1
330
79
100
AcDbEntity
  8
Layer 01
 62
     1
420
 16711680
370
    25
100
AcDbLine
 10
2188.764002207631
 20
77.00334671758233
 30
0.0
 11
2198.542974049994
 21
77.00318006087883
 31
0.0
  0
ENDBLK
  5
7C
330
79
100
AcDbEntity
  8
0
100
AcDbBlockEnd
  0
BLOCK
  5
F4
330
F2
100
AcDbEntity
  8
0
100
AcDbBlockBegin
  2
Block_1
 70
     0
 10
0.0
 20
0.0
 30
0.0
  3
Block_1
  1

  0
LINE
  5
F6
330
F2
100
AcDbEntity
  8
Layer 01
 62
     5
420
      255
370
    25
100
AcDbLine
 10
1680.249998143406
 20
135.9028638813654
 30
0.0
 11
1731.028631563286
 21
136.0396695535334
 31
0.0
  0
LINE
  5
F7
330
F2
100
AcDbEntity
  8
Layer 01
 62
     5
420
      255
370
    25
100
AcDbLine
 10
1731.028631563286
 20
136.0396695535334
 30
0.0
 11
1731.659365192706
 21
164.948640076917
 31
0.0
  0
LINE
  5
F8
330
F2
100
AcDbEntity
  8
Layer 01
 62
     5
420
      255
370
    25
100
AcDbLine
 10
1731.659365192706
 20
164.948640076917
 30
0.0
 11
1714.563020099459
 21
290.6983840599965
 31
0.0
  0
LINE
  5
F9
330
F2
100
AcDbEntity
  8
Layer 01
 62
     5
420
      255
370
    25
100
AcDbLine
 10
1714.563020099459
 20
290.6983840599965
 30
0.0
 11
1698.455515740849
 21
350.3059631515366
 31
0.0
  0
LINE
  5
FA
330
F2
100
AcDbEntity
  8
Layer 01
 62
     5
420
      255
370
    25
100
AcDbLine
 10
1698.455515740849
 20
350.3059631515366
 30
0.0
 11
1679.86283733825
 21
404.7515698402241
 31
0.0
  0
LINE
  5
FB
330
F2
100
AcDbEntity
  8
Layer 01
 62
     5
420
      255
370
    25
100
AcDbLine
 10
1679.86283733825
 20
404.7515698402241
 30
0.0
 11
1674.892621764289
 21
423.9046319835014
 31
0.0
  0
LINE
  5
FC
330
F2
100
AcDbEntity
  8
Layer 01
 62
     5
420
      255
370
    25
100
AcDbLine
 10
1674.892621764289
 20
423.9046319835014
 30
0.0
 11
1706.282095212294
 21
516.6947980492958
 31
0.0
  0
LINE
  5
FD
330
F2
100
AcDbEntity
  8
Layer 01
 62
     5
420
      255
370
    25
100
AcDbLine
 10
1706.282095212294
 20
516.6947980492958
 30
0.0
 11
1707.369023430413
 21
523.2387712632628
 31
0.0
  0
LINE
  5
FE
330
F2
100
AcDbEntity
  8
Layer 01
 62
     5
420
      255
370
    25
100
AcDbLine
 10
1707.369023430413
 20
523.2387712632628
 30
0.0
 11
1710.116012058856
 21
527.047420094644
 31
0.0
  0
LINE
  5
FF
330
F2
100
AcDbEntity
  8
Layer 01
 62
     5
420
      255
370
    25
100
AcDbLine
 10
1710.116012058856
 20
527.047420094644
 30
0.0
 11
1740.560531007876
 21
597.7390082978302
 31
0.0
  0
LINE
  5
100
330
F2
100
AcDbEntity
  8
Layer 01
 62
     5
420
      255
370
    25
100
AcDbLine
 10
1740.560531007876
 20
597.7390082978302
 30
0.0
 11
1751.924581405736
 21
608.8164760353333
 31
0.0
  0
LINE
  5
101
330
F2
100
AcDbEntity
  8
Layer 01
 62
     5
420
      255
370
    25
100
AcDbLine
 10
1751.924581405736
 20
608.8164760353333
 30
0.0
 11
1771.189015563471
 21
640.6840570730444
 31
0.0
  0
LINE
  5
102
330
F2
100
AcDbEntity
  8
Layer 01
 62
     5
420
      255
370
    25
100
AcDbLine
 10
1771.189015563471
 20
640.6840570730444
 30
0.0
 11
1783.474517291012
 21
655.4779167755532
 31
0.0
  0
LINE
  5
103
330
F2
100
AcDbEntity
  8
Layer 01
 62
     5
420
      255
370
    25
100
AcDbLine
 10
1783.474517291012
 20
655.4779167755532
 30
0.0
 11
1784.238939501338
 21
670.8819674219575
 31
0.0
  0
LINE
  5
104
330
F2
100
AcDbEntity
  8
Layer 01
 62
     5
420
      255
370
    25
100
AcDbLine
 10
1784.238939501338
 20
670.8819674219575
 30
0.0
 11
1784.5188542969
 21
679.4810223424133
 31
0.0
  0
LINE
  5
105
330
F2
100
AcDbEntity
  8
Layer 01
 62
     5
420
      255
370
    25
100
AcDbLine
 10
1784.5188542969
 20
679.4810223424133
 30
0.0
 11
1784.295830181521
 21
700.1698557758214
 31
0.0
  0
LINE
  5
106
330
F2
100
AcDbEntity
  8
Layer 01
 62
     5
420
      255
370
    25
100
AcDbLine
 10
1784.295830181521
 20
700.1698557758214
 30
0.0
 11
1749.525794459163
 21
725.4479359970109
 31
0.0
  0
LINE
  5
107
330
F2
100
AcDbEntity
  8
Layer 01
 62
     5
420
      255
370
    25
100
AcDbLine
 10
1749.525794459163
 20
725.4479359970109
 30
0.0
 11
1721.784314657601
 21
742.8647180722626
 31
0.0
  0
LINE
  5
108
330
F2
100
AcDbEntity
  8
Layer 01
 62
     5
420
      255
370
    25
100
AcDbLine
 10
1721.784314657601
 20
742.8647180722626
 30
0.0
 11
1661.380094377615
 21
739.2294728773416
 31
0.0
  0
LINE
  5
109
330
F2
100
AcDbEntity
  8
Layer 01
 62
     5
420
      255
370
    25
100
AcDbLine
 10
1661.380094377615
 20
739.2294728773416
 30
0.0
 11
1634.787020266619
 21
746.3196086677819
 31
0.0
  0
LINE
  5
10A
330
F2
100
AcDbEntity
  8
Layer 01
 62
     5
420
      255
370
    25
100
AcDbLine
 10
1634.787020266619
 20
746.3196086677819
 30
0.0
 11
1572.556603129435
 21
747.3574886266433
 31
0.0
  0
LINE
  5
10B
330
F2
100
AcDbEntity
  8
Layer 01
 62
     5
420
      255
370
    25
100
AcDbLine
 10
1572.556603129435
 20
747.3574886266433
 30
0.0
 11
1572.556603129435
 21
599.2927021098063
 31
0.0
  0
LINE
  5
10C
330
F2
100
AcDbEntity
  8
Layer 01
 62
     5
420
      255
370
    25
100
AcDbLine
 10
1572.556603129435
 20
599.2927021098063
 30
0.0
 11
1656.104581548982
 21
598.8409497526196
 31
0.0
  0
LINE
  5
10D
330
F2
100
AcDbEntity
  8
Layer 01
 62
     5
420
      255
370
    25
100
AcDbLine
 10
1656.104581548982
 20
598.8409497526196
 30
0.0
 11
1656.104581548982
 21
590.570869933713
 31
0.0
  0
LINE
  5
10E
330
F2
100
AcDbEntity
  8
Layer 01
 62
     5
420
      255
370
    25
100
AcDbLine
 10
1656.104581548982
 20
590.570869933713
 30
0.0
 11
1572.587623457957
 21
590.570869933713
 31
0.0
  0
LINE
  5
10F
330
F2
100
AcDbEntity
  8
Layer 01
 62
     5
420
      255
370
    25
100
AcDbLine
 10
1572.587623457957
 20
590.570869933713
 30
0.0
 11
1572.556603129435
 21
293.305772175017
 31
0.0
  0
LINE
  5
110
330
F2
100
AcDbEntity
  8
Layer 01
 62
     5
420
      255
370
    25
100
AcDbLine
 10
1572.556603129435
 20
293.305772175017
 30
0.0
 11
1643.592974754987
 21
292.8540198178307
 31
0.0
  0
LINE
  5
111
330
F2
100
AcDbEntity
  8
Layer 01
 62
     5
420
      255
370
    25
100
AcDbLine
 10
1643.592974754987
 20
292.8540198178307
 30
0.0
 11
1643.592974754987
 21
284.5839399989214
 31
0.0
  0
LINE
  5
112
330
F2
100
AcDbEntity
  8
Layer 01
 62
     5
420
      255
370
    25
100
AcDbLine
 10
1643.592974754987
 20
284.5839399989214
 30
0.0
 11
1572.587623457957
 21
284.5839399989214
 31
0.0
  0
LINE
  5
113
330
F2
100
AcDbEntity
  8
Layer 01
 62
     5
420
      255
370
    25
100
AcDbLine
 10
1572.587623457957
 20
284.5839399989214
 30
0.0
 11
1572.556603129435
 21
137.3285852856039
 31
0.0
  0
LINE
  5
114
330
F2
100
AcDbEntity
  8
Layer 01
 62
     5
420
      255
370
    25
100
AcDbLine
 10
1572.556603129435
 20
137.3285852856039
 30
0.0
 11
1609.753440467869
 21
136.7338623424138
 31
0.0
  0
LINE
  5
115
330
F2
100
AcDbEntity
  8
Layer 01
 62
     5
420
      255
370
    25
100
AcDbLine
 10
1609.753440467869
 20
136.7338623424138
 30
0.0
 11
1680.249998143406
 21
135.9028638813654
 31
0.0
  0
LINE
  5
116
330
F2
100
AcDbEntity
  8
Layer 01
 62
     1
420
 16711680
370
    25
100
AcDbLine
 10
1663.651077570654
 20
281.4909421933785
 30
0.0
 11
1663.651077570654
 21
295.9470176233736
 31
0.0
  0
LINE
  5
117
330
F2
100
AcDbEntity
  8
Layer 01
 62
     1
420
 16711680
370
    25
100
AcDbLine
 10
1663.651077570654
 20
295.9470176233736
 30
0.0
 11
1660.43730527826
 21
292.7323388145818
 31
0.0
  0
LINE
  5
118
330
F2
100
AcDbEntity
  8
Layer 01
 62
     1
420
 16711680
370
    25
100
AcDbLine
 10
1677.765489681217
 20
587.4777546725583
 30
0.0
 11
1671.345200239288
 21
587.4777546725583
 31
0.0
  0
LINE
  5
119
330
F2
100
AcDbEntity
  8
Layer 01
 62
     1
420
 16711680
370
    25
100
AcDbLine
 10
1671.345200239288
 20
587.4777546725583
 30
0.0
 11
1677.277759766308
 21
597.0284108750204
 31
0.0
  0
LINE
  5
11A
330
F2
100
AcDbEntity
  8
Layer 01
 62
     1
420
 16711680
370
    25
100
AcDbLine
 10
1677.277759766308
 20
597.0284108750204
 30
0.0
 11
1677.277759766308
 21
597.0284108750204
 31
0.0
  0
LINE
  5
11B
330
F2
100
AcDbEntity
  8
Layer 01
 62
     1
420
 16711680
370
    25
100
AcDbLine
 10
1677.277759766308
 20
597.0284108750204
 30
0.0
 11
1677.284849266633
 21
597.0371839057954
 31
0.0
  0
LINE
  5
11C
330
F2
100
AcDbEntity
  8
Layer 01
 62
     1
420
 16711680
370
    25
100
AcDbLine
 10
1677.284849266633
 20
597.0371839057954
 30
0.0
 11
1677.291652657131
 21
597.0460352403165
 31
0.0
  0
LINE
  5
11D
330
F2
100
AcDbEntity
  8
Layer 01
 62
     1
420
 16711680
370
    25
100
AcDbLine
 10
1677.291652657131
 20
597.0460352403165
 30
0.0
 11
1677.298206077994
 21
597.0550341472682
 31
0.0
  0
LINE
  5
11E
330
F2
100
AcDbEntity
  8
Layer 01
 62
     1
420
 16711680
370
    25
100
AcDbLine
 10
1677.298206077994
 20
597.0550341472682
 30
0.0
 11
1677.304560727814
 21
597.0642589304049
 31
0.0
  0
LINE
  5
11F
330
F2
100
AcDbEntity
  8
Layer 01
 62
     1
420
 16711680
370
    25
100
AcDbLine
 10
1677.304560727814
 20
597.0642589304049
 30
0.0
 11
1677.310755758477
 21
597.0737818700931
 31
0.0
  0
LINE
  5
120
330
F2
100
AcDbEntity
  8
Layer 01
 62
     1
420
 16711680
370
    25
100
AcDbLine
 10
1677.310755758477
 20
597.0737818700931
 30
0.0
 11
1677.316842368569
 21
597.0836752467162
 31
0.0
  0
LINE
  5
121
330
F2
100
AcDbEntity
  8
Layer 01
 62
     1
420
 16711680
370
    25
100
AcDbLine
 10
1677.316842368569
 20
597.0836752467162
 30
0.0
 11
1677.322859709965
 21
597.0940203756936
 31
0.0
  0
LINE
  5
122
330
F2
100
AcDbEntity
  8
Layer 01
 62
     1
420
 16711680
370
    25
100
AcDbLine
 10
1677.322859709965
 20
597.0940203756936
 30
0.0
 11
1677.328855969583
 21
597.1048835140448
 31
0.0
  0
LINE
  5
123
330
F2
100
AcDbEntity
  8
Layer 01
 62
     1
420
 16711680
370
    25
100
AcDbLine
 10
1677.328855969583
 20
597.1048835140448
 30
0.0
 11
1677.334873310982
 21
597.11634597719
 31
0.0
  0
LINE
  5
124
330
F2
100
AcDbEntity
  8
Layer 01
 62
     1
420
 16711680
370
    25
100
AcDbLine
 10
1677.334873310982
 20
597.11634597719
 30
0.0
 11
1677.334873310982
 21
597.11634597719
 31
0.0
  0
LINE
  5
125
330
F2
100
AcDbEntity
  8
Layer 01
 62
     1
420
 16711680
370
    25
100
AcDbLine
 10
1677.334873310982
 20
597.11634597719
 30
0.0
 11
1677.579825485783
 21
597.6422820947921
 31
0.0
  0
LINE
  5
126
330
F2
100
AcDbEntity
  8
Layer 01
 62
     1
420
 16711680
370
    25
100
AcDbLine
 10
1677.579825485783
 20
597.6422820947921
 30
0.0
 11
1677.722922562444
 21
598.1874628628105
 31
0.0
  0
LINE
  5
127
330
F2
100
AcDbEntity
  8
Layer 01
 62
     1
420
 16711680
370
    25
100
AcDbLine
 10
1677.722922562444
 20
598.1874628628105
 30
0.0
 11
1677.767673150947
 21
598.7395674886204
 31
0.0
  0
LINE
  5
128
330
F2
100
AcDbEntity
  8
Layer 01
 62
     1
420
 16711680
370
    25
100
AcDbLine
 10
1677.767673150947
 20
598.7395674886204
 30
0.0
 11
1677.717579837899
 21
599.2862751796056
 31
0.0
  0
LINE
  5
129
330
F2
100
AcDbEntity
  8
Layer 01
 62
     1
420
 16711680
370
    25
100
AcDbLine
 10
1677.717579837899
 20
599.2862751796056
 30
0.0
 11
1677.576151233276
 21
599.8152711665068
 31
0.0
  0
LINE
  5
12A
330
F2
100
AcDbEntity
  8
Layer 01
 62
     1
420
 16711680
370
    25
100
AcDbLine
 10
1677.576151233276
 20
599.8152711665068
 30
0.0
 11
1677.346892935368
 21
600.3142346567045
 31
0.0
  0
LINE
  5
12B
330
F2
100
AcDbEntity
  8
Layer 01
 62
     1
420
 16711680
370
    25
100
AcDbLine
 10
1677.346892935368
 20
600.3142346567045
 30
0.0
 11
1677.033313554148
 21
600.7708478692528
 31
0.0
  0
LINE
  5
12C
330
F2
100
AcDbEntity
  8
Layer 01
 62
     1
420
 16711680
370
    25
100
AcDbLine
 10
1677.033313554148
 20
600.7708478692528
 30
0.0
 11
1676.638918687913
 21
601.1727900115394
 31
0.0
  0
LINE
  5
12D
330
F2
100
AcDbEntity
  8
Layer 01
 62
     1
420
 16711680
370
    25
100
AcDbLine
 10
1676.638918687913
 20
601.1727900115394
 30
0.0
 11
1676.167216946631
 21
601.5077433026149
 31
0.0
  0
LINE
  5
12E
330
F2
100
AcDbEntity
  8
Layer 01
 62
     1
420
 16711680
370
    25
100
AcDbLine
 10
1676.167216946631
 20
601.5077433026149
 30
0.0
 11
1676.167216946631
 21
601.5077433026149
 31
0.0
  0
LINE
  5
12F
330
F2
100
AcDbEntity
  8
Layer 01
 62
     1
420
 16711680
370
    25
100
AcDbLine
 10
1676.167216946631
 20
601.5077433026149
 30
0.0
 11
1675.639817151396
 21
601.7492169842616
 31
0.0
  0
LINE
  5
130
330
F2
100
AcDbEntity
  8
Layer 01
 62
     1
420
 16711680
370
    25
100
AcDbLine
 10
1675.639817151396
 20
601.7492169842616
 30
0.0
 11
1675.093802147358
 21
601.8901095094191
 31
0.0
  0
LINE
  5
131
330
F2
100
AcDbEntity
  8
Layer 01
 62
     1
420
 16711680
370
    25
100
AcDbLine
 10
1675.093802147358
 20
601.8901095094191
 30
0.0
 11
1674.541378283213
 21
601.9335951913237
 31
0.0
  0
LINE
  5
132
330
F2
100
AcDbEntity
  8
Layer 01
 62
     1
420
 16711680
370
    25
100
AcDbLine
 10
1674.541378283213
 20
601.9335951913237
 30
0.0
 11
1673.994751907649
 21
601.882839308153
 31
0.0
  0
LINE
  5
133
330
F2
100
AcDbEntity
  8
Layer 01
 62
     1
420
 16711680
370
    25
100
AcDbLine
 10
1673.994751907649
 20
601.882839308153
 30
0.0
 11
1673.466129369364
 21
601.7410191848219
 31
0.0
  0
LINE
  5
134
330
F2
100
AcDbEntity
  8
Layer 01
 62
     1
420
 16711680
370
    25
100
AcDbLine
 10
1673.466129369364
 20
601.7410191848219
 30
0.0
 11
1672.967717017041
 21
601.5113031111873
 31
0.0
  0
LINE
  5
135
330
F2
100
AcDbEntity
  8
Layer 01
 62
     1
420
 16711680
370
    25
100
AcDbLine
 10
1672.967717017041
 20
601.5113031111873
 30
0.0
 11
1672.511724211065
 21
601.1968623888126
 31
0.0
  0
LINE
  5
136
330
F2
100
AcDbEntity
  8
Layer 01
 62
     1
420
 16711680
370
    25
100
AcDbLine
 10
1672.511724211065
 20
601.1968623888126
 30
0.0
 11
1672.110354288434
 21
600.8008683192285
 31
0.0
  0
LINE
  5
137
330
F2
100
AcDbEntity
  8
Layer 01
 62
     1
420
 16711680
370
    25
100
AcDbLine
 10
1672.110354288434
 20
600.8008683192285
 30
0.0
 11
1671.775819621203
 21
600.3264891923129
 31
0.0
  0
LINE
  5
138
330
F2
100
AcDbEntity
  8
Layer 01
 62
     1
420
 16711680
370
    25
100
AcDbLine
 10
1671.775819621203
 20
600.3264891923129
 30
0.0
 11
1671.354268414936
 21
599.5178344028532
 31
0.0
  0
LINE
  5
139
330
F2
100
AcDbEntity
  8
Layer 01
 62
     1
420
 16711680
370
    25
100
AcDbLine
 10
1645.335702834989
 20
683.40960540127
 30
0.0
 11
1630.651962287071
 21
662.1709170687883
 31
0.0
  0
LINE
  5
13A
330
F2
100
AcDbEntity
  8
Layer 01
 62
     1
420
 16711680
370
    25
100
AcDbLine
 10
1630.651962287071
 20
662.1709170687883
 30
0.0
 11
1615.965460026411
 21
683.40960540127
 31
0.0
  0
LINE
  5
13B
330
F2
100
AcDbEntity
  8
Layer 01
 62
     1
420
 16711680
370
    25
100
AcDbLine
 10
1630.651962287071
 20
663.880061878556
 30
0.0
 11
1630.651962287071
 21
639.377706711673
 31
0.0
  0
LINE
  5
13C
330
F2
100
AcDbEntity
  8
Layer 01
 62
     1
420
 16711680
370
    25
100
AcDbLine
 10
1685.926528527831
 20
661.3936560564728
 30
0.0
 11
1661.852151497415
 21
661.3936560564728
 31
0.0
  0
LINE
  5
13D
330
F2
100
AcDbEntity
  8
Layer 01
 62
     1
420
 16711680
370
    25
100
AcDbLine
 10
1717.119814962159
 20
683.4082230390549
 30
0.0
 11
1717.119814962159
 21
683.4082230390549
 31
0.0
  0
LINE
  5
13E
330
F2
100
AcDbEntity
  8
Layer 01
 62
     1
420
 16711680
370
    25
100
AcDbLine
 10
1717.119814962159
 20
683.4082230390549
 30
0.0
 11
1714.318896137314
 21
682.3580493927151
 31
0.0
  0
LINE
  5
13F
330
F2
100
AcDbEntity
  8
Layer 01
 62
     1
420
 16711680
370
    25
100
AcDbLine
 10
1714.318896137314
 20
682.3580493927151
 30
0.0
 11
1711.748684229605
 21
680.9430616244859
 31
0.0
  0
LINE
  5
140
330
F2
100
AcDbEntity
  8
Layer 01
 62
     1
420
 16711680
370
    25
100
AcDbLine
 10
1711.748684229605
 20
680.9430616244859
 30
0.0
 11
1709.435564588367
 21
679.1987132593624
 31
0.0
  0
LINE
  5
141
330
F2
100
AcDbEntity
  8
Layer 01
 62
     1
420
 16711680
370
    25
100
AcDbLine
 10
1709.435564588367
 20
679.1987132593624
 30
0.0
 11
1707.40592256295
 21
677.1604578223344
 31
0.0
  0
LINE
  5
142
330
F2
100
AcDbEntity
  8
Layer 01
 62
     1
420
 16711680
370
    25
100
AcDbLine
 10
1707.40592256295
 20
677.1604578223344
 30
0.0
 11
1705.686140491012
 21
674.8637458267113
 31
0.0
  0
LINE
  5
143
330
F2
100
AcDbEntity
  8
Layer 01
 62
     1
420
 16711680
370
    25
100
AcDbLine
 10
1705.686140491012
 20
674.8637458267113
 30
0.0
 11
1704.30260372189
 21
672.34403079749
 31
0.0
  0
LINE
  5
144
330
F2
100
AcDbEntity
  8
Layer 01
 62
     1
420
 16711680
370
    25
100
AcDbLine
 10
1704.30260372189
 20
672.34403079749
 30
0.0
 11
1703.281697604929
 21
669.636760236289
 31
0.0
  0
LINE
  5
145
330
F2
100
AcDbEntity
  8
Layer 01
 62
     1
420
 16711680
370
    25
100
AcDbLine
 10
1703.281697604929
 20
669.636760236289
 30
0.0
 11
1702.64980748947
 21
666.7773906797888
 31
0.0
  0
LINE
  5
146
330
F2
100
AcDbEntity
  8
Layer 01
 62
     1
420
 16711680
370
    25
100
AcDbLine
 10
1702.64980748947
 20
666.7773906797888
 30
0.0
 11
1702.433312701497
 21
663.8013696296185
 31
0.0
  0
LINE
  5
147
330
F2
100
AcDbEntity
  8
Layer 01
 62
     1
420
 16711680
370
    25
100
AcDbLine
 10
1702.433312701497
 20
663.8013696296185
 30
0.0
 11
1702.433312701497
 21
649.1673278643552
 31
0.0
  0
LINE
  5
148
330
F2
100
AcDbEntity
  8
Layer 01
 62
     1
420
 16711680
370
    25
100
AcDbLine
 10
1702.433312701497
 20
649.1673278643552
 30
0.0
 11
1702.433312701497
 21
649.1673278643552
 31
0.0
  0
LINE
  5
149
330
F2
100
AcDbEntity
  8
Layer 01
 62
     1
420
 16711680
370
    25
100
AcDbLine
 10
1702.433312701497
 20
649.1673278643552
 30
0.0
 11
1702.591167021827
 21
647.4084993303432
 31
0.0
  0
LINE
  5
14A
330
F2
100
AcDbEntity
  8
Layer 01
 62
     1
420
 16711680
370
    25
100
AcDbLine
 10
1702.591167021827
 20
647.4084993303432
 30
0.0
 11
1703.046156937572
 21
645.7528419996625
 31
0.0
  0
LINE
  5
14B
330
F2
100
AcDbEntity
  8
Layer 01
 62
     1
420
 16711680
370
    25
100
AcDbLine
 10
1703.046156937572
 20
645.7528419996625
 30
0.0
 11
1703.770421375029
 21
644.2280603385441
 31
0.0
  0
LINE
  5
14C
330
F2
100
AcDbEntity
  8
Layer 01
 62
     1
420
 16711680
370
    25
100
AcDbLine
 10
1703.770421375029
 20
644.2280603385441
 30
0.0
 11
1704.736096248799
 21
642.8618558015275
 31
0.0
  0
LINE
  5
14D
330
F2
100
AcDbEntity
  8
Layer 01
 62
     1
420
 16711680
370
    25
100
AcDbLine
 10
1704.736096248799
 20
642.8618558015275
 30
0.0
 11
1705.915323496861
 21
641.6819328548378
 31
0.0
  0
LINE
  5
14E
330
F2
100
AcDbEntity
  8
Layer 01
 62
     1
420
 16711680
370
    25
100
AcDbLine
 10
1705.915323496861
 20
641.6819328548378
 30
0.0
 11
1707.280239033818
 21
640.7159929530147
 31
0.0
  0
LINE
  5
14F
330
F2
100
AcDbEntity
  8
Layer 01
 62
     1
420
 16711680
370
    25
100
AcDbLine
 10
1707.280239033818
 20
640.7159929530147
 30
0.0
 11
1708.802981785964
 21
639.9917345389259
 31
0.0
  0
LINE
  5
150
330
F2
100
AcDbEntity
  8
Layer 01
 62
     1
420
 16711680
370
    25
100
AcDbLine
 10
1708.802981785964
 20
639.9917345389259
 30
0.0
 11
1710.455693691278
 21
639.5368681021571
 31
0.0
  0
LINE
  5
151
330
F2
100
AcDbEntity
  8
Layer 01
 62
     1
420
 16711680
370
    25
100
AcDbLine
 10
1710.455693691278
 20
639.5368681021571
 30
0.0
 11
1712.210510664357
 21
639.379089073884
 31
0.0
  0
LINE
  5
152
330
F2
100
AcDbEntity
  8
Layer 01
 62
     1
420
 16711680
370
    25
100
AcDbLine
 10
1712.210510664357
 20
639.379089073884
 30
0.0
 11
1712.210510664357
 21
639.379089073884
 31
0.0
  0
LINE
  5
153
330
F2
100
AcDbEntity
  8
Layer 01
 62
     1
420
 16711680
370
    25
100
AcDbLine
 10
1712.210510664357
 20
639.379089073884
 30
0.0
 11
1713.968962738074
 21
639.5368681021571
 31
0.0
  0
LINE
  5
154
330
F2
100
AcDbEntity
  8
Layer 01
 62
     1
420
 16711680
370
    25
100
AcDbLine
 10
1713.968962738074
 20
639.5368681021571
 30
0.0
 11
1715.623605131788
 21
639.9917345389259
 31
0.0
  0
LINE
  5
155
330
F2
100
AcDbEntity
  8
Layer 01
 62
     1
420
 16711680
370
    25
100
AcDbLine
 10
1715.623605131788
 20
639.9917345389259
 30
0.0
 11
1717.146917091907
 21
640.7159929530147
 31
0.0
  0
LINE
  5
156
330
F2
100
AcDbEntity
  8
Layer 01
 62
     1
420
 16711680
370
    25
100
AcDbLine
 10
1717.146917091907
 20
640.7159929530147
 30
0.0
 11
1718.511377864825
 21
641.6819328548378
 31
0.0
  0
LINE
  5
157
330
F2
100
AcDbEntity
  8
Layer 01
 62
     1
420
 16711680
370
    25
100
AcDbLine
 10
1718.511377864825
 20
641.6819328548378
 30
0.0
 11
1719.689466696948
 21
642.8618558015275
 31
0.0
  0
LINE
  5
158
330
F2
100
AcDbEntity
  8
Layer 01
 62
     1
420
 16711680
370
    25
100
AcDbLine
 10
1719.689466696948
 20
642.8618558015275
 30
0.0
 11
1720.653665846351
 21
644.2280603385441
 31
0.0
  0
LINE
  5
159
330
F2
100
AcDbEntity
  8
Layer 01
 62
     1
420
 16711680
370
    25
100
AcDbLine
 10
1720.653665846351
 20
644.2280603385441
 30
0.0
 11
1721.376451547753
 21
645.7528419996625
 31
0.0
  0
LINE
  5
15A
330
F2
100
AcDbEntity
  8
Layer 01
 62
     1
420
 16711680
370
    25
100
AcDbLine
 10
1721.376451547753
 20
645.7528419996625
 30
0.0
 11
1721.830306059245
 21
647.4084993303432
 31
0.0
  0
LINE
  5
15B
330
F2
100
AcDbEntity
  8
Layer 01
 62
     1
420
 16711680
370
    25
100
AcDbLine
 10
1721.830306059245
 20
647.4084993303432
 30
0.0
 11
1721.987705615536
 21
649.1673278643552
 31
0.0
  0
LINE
  5
15C
330
F2
100
AcDbEntity
  8
Layer 01
 62
     1
420
 16711680
370
    25
100
AcDbLine
 10
1721.987705615536
 20
649.1673278643552
 30
0.0
 11
1721.987705615536
 21
654.0379802304766
 31
0.0
  0
LINE
  5
15D
330
F2
100
AcDbEntity
  8
Layer 01
 62
     1
420
 16711680
370
    25
100
AcDbLine
 10
1721.987705615536
 20
654.0379802304766
 30
0.0
 11
1721.987705615536
 21
654.0379802304766
 31
0.0
  0
LINE
  5
15E
330
F2
100
AcDbEntity
  8
Layer 01
 62
     1
420
 16711680
370
    25
100
AcDbLine
 10
1721.987705615536
 20
654.0379802304766
 30
0.0
 11
1721.830306059245
 21
655.7959594700568
 31
0.0
  0
LINE
  5
15F
330
F2
100
AcDbEntity
  8
Layer 01
 62
     1
420
 16711680
370
    25
100
AcDbLine
 10
1721.830306059245
 20
655.7959594700568
 30
0.0
 11
1721.376451547753
 21
657.4493309338081
 31
0.0
  0
LINE
  5
160
330
F2
100
AcDbEntity
  8
Layer 01
 62
     1
420
 16711680
370
    25
100
AcDbLine
 10
1721.376451547753
 20
657.4493309338081
 30
0.0
 11
1720.653665846351
 21
658.9708087793577
 31
0.0
  0
LINE
  5
161
330
F2
100
AcDbEntity
  8
Layer 01
 62
     1
420
 16711680
370
    25
100
AcDbLine
 10
1720.653665846351
 20
658.9708087793577
 30
0.0
 11
1719.689466696948
 21
660.3330921059137
 31
0.0
  0
LINE
  5
162
330
F2
100
AcDbEntity
  8
Layer 01
 62
     1
420
 16711680
370
    25
100
AcDbLine
 10
1719.689466696948
 20
660.3330921059137
 30
0.0
 11
1718.511377864825
 21
661.508889047742
 31
0.0
  0
LINE
  5
163
330
F2
100
AcDbEntity
  8
Layer 01
 62
     1
420
 16711680
370
    25
100
AcDbLine
 10
1718.511377864825
 20
661.508889047742
 30
0.0
 11
1717.146917091907
 21
662.4709107507848
 31
0.0
  0
LINE
  5
164
330
F2
100
AcDbEntity
  8
Layer 01
 62
     1
420
 16711680
370
    25
100
AcDbLine
 10
1717.146917091907
 20
662.4709107507848
 30
0.0
 11
1715.623605131788
 21
663.1918593259351
 31
0.0
  0
LINE
  5
165
330
F2
100
AcDbEntity
  8
Layer 01
 62
     1
420
 16711680
370
    25
100
AcDbLine
 10
1715.623605131788
 20
663.1918593259351
 30
0.0
 11
1713.968962738074
 21
663.6444429074605
 31
0.0
  0
LINE
  5
166
330
F2
100
AcDbEntity
  8
Layer 01
 62
     1
420
 16711680
370
    25
100
AcDbLine
 10
1713.968962738074
 20
663.6444429074605
 30
0.0
 11
1712.210510664357
 21
663.8013696296185
 31
0.0
  0
LINE
  5
167
330
F2
100
AcDbEntity
  8
Layer 01
 62
     1
420
 16711680
370
    25
100
AcDbLine
 10
1712.210510664357
 20
663.8013696296185
 30
0.0
 11
1702.433312701497
 21
663.8013696296185
 31
0.0
  0
LINE
  5
168
330
F2
100
AcDbEntity
  8
Layer 01
 62
     1
420
 16711680
370
    25
100
AcDbLine
 10
1701.208747586868
 20
633.8754473282388
 30
0.0
 11
1723.223314569457
 21
633.8754473282388
 31
0.0
  0
ENDBLK
  5
F5
330
F2
100
AcDbEntity
  8
0
100
AcDbBlockEnd
  0
BLOCK
  5
16B
330
169
100
AcDbEntity
  8
0
100
AcDbBlockBegin
  2
Block_2
 70
     0
 10
0.0
 20
0.0
 30
0.0
  3
Block_2
  1

  0
LINE
  5
16D
330
169
100
AcDbEntity
  8
Layer 01
 62
     5
420
      255
370
    25
100
AcDbLine
 10
1187.065354631244
 20
735.2837034917101
 30
0.0
 11
1187.065354631244
 21
586.9144328744477
 31
0.0
  0
LINE
  5
16E
330
169
100
AcDbEntity
  8
Layer 01
 62
     5
420
      255
370
    25
100
AcDbLine
 10
1187.065354631244
 20
586.9144328744477
 30
0.0
 11
1256.363353069516
 21
586.4626805172606
 31
0.0
  0
LINE
  5
16F
330
169
100
AcDbEntity
  8
Layer 01
 62
     5
420
      255
370
    25
100
AcDbLine
 10
1256.363353069516
 20
586.4626805172606
 30
0.0
 11
1256.363353069516
 21
578.192600698354
 31
0.0
  0
LINE
  5
170
330
169
100
AcDbEntity
  8
Layer 01
 62
     5
420
      255
370
    25
100
AcDbLine
 10
1256.363353069516
 20
578.192600698354
 30
0.0
 11
1187.096374959767
 21
578.1926037100375
 31
0.0
  0
LINE
  5
171
330
169
100
AcDbEntity
  8
Layer 01
 62
     5
420
      255
370
    25
100
AcDbLine
 10
1187.096374959767
 20
578.1926037100375
 30
0.0
 11
1187.065354631244
 21
280.9275029396577
 31
0.0
  0
LINE
  5
172
330
169
100
AcDbEntity
  8
Layer 01
 62
     5
420
      255
370
    25
100
AcDbLine
 10
1187.065354631244
 20
280.9275029396577
 30
0.0
 11
1249.613814462935
 21
280.4757535941536
 31
0.0
  0
LINE
  5
173
330
169
100
AcDbEntity
  8
Layer 01
 62
     5
420
      255
370
    25
100
AcDbLine
 10
1249.613814462935
 20
280.4757535941536
 30
0.0
 11
1249.613814462935
 21
272.2056707635621
 31
0.0
  0
LINE
  5
174
330
169
100
AcDbEntity
  8
Layer 01
 62
     5
420
      255
370
    25
100
AcDbLine
 10
1249.613814462935
 20
272.2056707635621
 30
0.0
 11
1187.096374959767
 21
272.2056707635621
 31
0.0
  0
LINE
  5
175
330
169
100
AcDbEntity
  8
Layer 01
 62
     5
420
      255
370
    25
100
AcDbLine
 10
1187.096374959767
 20
272.2056707635621
 30
0.0
 11
1187.065354631244
 21
124.9505238563264
 31
0.0
  0
LINE
  5
176
330
169
100
AcDbEntity
  8
Layer 01
 62
     5
420
      255
370
    25
100
AcDbLine
 10
1187.065354631244
 20
124.9505238563264
 30
0.0
 11
1198.258368574989
 21
124.7084598849331
 31
0.0
  0
LINE
  5
177
330
169
100
AcDbEntity
  8
Layer 01
 62
     5
420
      255
370
    25
100
AcDbLine
 10
1198.258368574989
 20
124.7084598849331
 30
0.0
 11
1299.186013096124
 21
123.4212668351887
 31
0.0
  0
LINE
  5
178
330
169
100
AcDbEntity
  8
Layer 01
 62
     5
420
      255
370
    25
100
AcDbLine
 10
1299.186013096124
 20
123.4212668351887
 30
0.0
 11
1303.159518409376
 21
123.4066692106879
 31
0.0
  0
LINE
  5
179
330
169
100
AcDbEntity
  8
Layer 01
 62
     5
420
      255
370
    25
100
AcDbLine
 10
1303.159518409376
 20
123.4066692106879
 30
0.0
 11
1305.02694218669
 21
123.3976462102722
 31
0.0
  0
LINE
  5
17A
330
169
100
AcDbEntity
  8
Layer 01
 62
     5
420
      255
370
    25
100
AcDbLine
 10
1305.02694218669
 20
123.3976462102722
 30
0.0
 11
1307.470079168009
 21
123.4028323273314
 31
0.0
  0
LINE
  5
17B
330
169
100
AcDbEntity
  8
Layer 01
 62
     5
420
      255
370
    25
100
AcDbLine
 10
1307.470079168009
 20
123.4028323273314
 30
0.0
 11
1309.950979634703
 21
177.1069055917918
 31
0.0
  0
LINE
  5
17C
330
169
100
AcDbEntity
  8
Layer 01
 62
     5
420
      255
370
    25
100
AcDbLine
 10
1309.950979634703
 20
177.1069055917918
 30
0.0
 11
1307.845482365147
 21
235.2813575521251
 31
0.0
  0
LINE
  5
17D
330
169
100
AcDbEntity
  8
Layer 01
 62
     5
420
      255
370
    25
100
AcDbLine
 10
1307.845482365147
 20
235.2813575521251
 30
0.0
 11
1314.97626683269
 21
251.6593862806251
 31
0.0
  0
LINE
  5
17E
330
169
100
AcDbEntity
  8
Layer 01
 62
     5
420
      255
370
    25
100
AcDbLine
 10
1314.97626683269
 20
251.6593862806251
 30
0.0
 11
1314.252791456017
 21
264.4518746202266
 31
0.0
  0
LINE
  5
17F
330
169
100
AcDbEntity
  8
Layer 01
 62
     5
420
      255
370
    25
100
AcDbLine
 10
1314.252791456017
 20
264.4518746202266
 30
0.0
 11
1292.787058412178
 21
390.0156923914938
 31
0.0
  0
LINE
  5
180
330
169
100
AcDbEntity
  8
Layer 01
 62
     5
420
      255
370
    25
100
AcDbLine
 10
1292.787058412178
 20
390.0156923914938
 30
0.0
 11
1300.902340768375
 21
476.0553802058045
 31
0.0
  0
LINE
  5
181
330
169
100
AcDbEntity
  8
Layer 01
 62
     5
420
      255
370
    25
100
AcDbLine
 10
1300.902340768375
 20
476.0553802058045
 30
0.0
 11
1301.223669208357
 21
487.4097841849939
 31
0.0
  0
LINE
  5
182
330
169
100
AcDbEntity
  8
Layer 01
 62
     5
420
      255
370
    25
100
AcDbLine
 10
1301.223669208357
 20
487.4097841849939
 30
0.0
 11
1310.378777070229
 21
493.288253896445
 31
0.0
  0
LINE
  5
183
330
169
100
AcDbEntity
  8
Layer 01
 62
     5
420
      255
370
    25
100
AcDbLine
 10
1310.378777070229
 20
493.288253896445
 30
0.0
 11
1327.583735476878
 21
517.2280719697493
 31
0.0
  0
LINE
  5
184
330
169
100
AcDbEntity
  8
Layer 01
 62
     5
420
      255
370
    25
100
AcDbLine
 10
1327.583735476878
 20
517.2280719697493
 30
0.0
 11
1333.850094820625
 21
531.6554490783278
 31
0.0
  0
LINE
  5
185
330
169
100
AcDbEntity
  8
Layer 01
 62
     5
420
      255
370
    25
100
AcDbLine
 10
1333.850094820625
 20
531.6554490783278
 30
0.0
 11
1334.668028603501
 21
548.9535467742999
 31
0.0
  0
LINE
  5
186
330
169
100
AcDbEntity
  8
Layer 01
 62
     5
420
      255
370
    25
100
AcDbLine
 10
1334.668028603501
 20
548.9535467742999
 30
0.0
 11
1324.967474945559
 21
583.3681256719292
 31
0.0
  0
LINE
  5
187
330
169
100
AcDbEntity
  8
Layer 01
 62
     5
420
      255
370
    25
100
AcDbLine
 10
1324.967474945559
 20
583.3681256719292
 30
0.0
 11
1296.058823660508
 21
632.2039769979483
 31
0.0
  0
LINE
  5
188
330
169
100
AcDbEntity
  8
Layer 01
 62
     5
420
      255
370
    25
100
AcDbLine
 10
1296.058823660508
 20
632.2039769979483
 30
0.0
 11
1278.686680741509
 21
654.700964299408
 31
0.0
  0
LINE
  5
189
330
169
100
AcDbEntity
  8
Layer 01
 62
     5
420
      255
370
    25
100
AcDbLine
 10
1278.686680741509
 20
654.700964299408
 30
0.0
 11
1239.872744641919
 21
693.6601508285633
 31
0.0
  0
LINE
  5
18A
330
169
100
AcDbEntity
  8
Layer 01
 62
     5
420
      255
370
    25
100
AcDbLine
 10
1239.872744641919
 20
693.6601508285633
 30
0.0
 11
1235.182814300452
 21
731.3810901700299
 31
0.0
  0
LINE
  5
18B
330
169
100
AcDbEntity
  8
Layer 01
 62
     5
420
      255
370
    25
100
AcDbLine
 10
1235.182814300452
 20
731.3810901700299
 30
0.0
 11
1232.666851827477
 21
734.961233624103
 31
0.0
  0
LINE
  5
18C
330
169
100
AcDbEntity
  8
Layer 01
 62
     5
420
      255
370
    25
100
AcDbLine
 10
1232.666851827477
 20
734.961233624103
 30
0.0
 11
1229.583970263051
 21
734.9831255433319
 31
0.0
  0
LINE
  5
18D
330
169
100
AcDbEntity
  8
Layer 01
 62
     5
420
      255
370
    25
100
AcDbLine
 10
1229.583970263051
 20
734.9831255433319
 30
0.0
 11
1188.411133938352
 21
735.3049388641806
 31
0.0
  0
LINE
  5
18E
330
169
100
AcDbEntity
  8
Layer 01
 62
     5
420
      255
370
    25
100
AcDbLine
 10
1188.411133938352
 20
735.3049388641806
 30
0.0
 11
1187.065354631244
 21
735.2837034917101
 31
0.0
  0
LINE
  5
18F
330
169
100
AcDbEntity
  8
Layer 01
 62
     1
420
 16711680
370
    25
100
AcDbLine
 10
1269.671920290285
 20
269.1126729580218
 30
0.0
 11
1269.671920290285
 21
283.5687483880117
 31
0.0
  0
LINE
  5
190
330
169
100
AcDbEntity
  8
Layer 01
 62
     1
420
 16711680
370
    25
100
AcDbLine
 10
1269.671920290285
 20
283.5687483880117
 30
0.0
 11
1266.458147997891
 21
280.3540725909022
 31
0.0
  0
LINE
  5
191
330
169
100
AcDbEntity
  8
Layer 01
 62
     1
420
 16711680
370
    25
100
AcDbLine
 10
1278.024261201755
 20
575.0994854371997
 30
0.0
 11
1271.603971759822
 21
575.0994854371997
 31
0.0
  0
LINE
  5
192
330
169
100
AcDbEntity
  8
Layer 01
 62
     1
420
 16711680
370
    25
100
AcDbLine
 10
1271.603971759822
 20
575.0994854371997
 30
0.0
 11
1277.536531286839
 21
584.6501416396582
 31
0.0
  0
LINE
  5
193
330
169
100
AcDbEntity
  8
Layer 01
 62
     1
420
 16711680
370
    25
100
AcDbLine
 10
1277.536531286839
 20
584.6501416396582
 30
0.0
 11
1277.536531286839
 21
584.6501416396582
 31
0.0
  0
LINE
  5
194
330
169
100
AcDbEntity
  8
Layer 01
 62
     1
420
 16711680
370
    25
100
AcDbLine
 10
1277.536531286839
 20
584.6501416396582
 30
0.0
 11
1277.543620787167
 21
584.6589176821201
 31
0.0
  0
LINE
  5
195
330
169
100
AcDbEntity
  8
Layer 01
 62
     1
420
 16711680
370
    25
100
AcDbLine
 10
1277.543620787167
 20
584.6589176821201
 30
0.0
 11
1277.550424177665
 21
584.6677690166375
 31
0.0
  0
LINE
  5
196
330
169
100
AcDbEntity
  8
Layer 01
 62
     1
420
 16711680
370
    25
100
AcDbLine
 10
1277.550424177665
 20
584.6677690166375
 30
0.0
 11
1277.556977598526
 21
584.6767679235933
 31
0.0
  0
LINE
  5
197
330
169
100
AcDbEntity
  8
Layer 01
 62
     1
420
 16711680
370
    25
100
AcDbLine
 10
1277.556977598526
 20
584.6767679235933
 30
0.0
 11
1277.563332248351
 21
584.6859927067289
 31
0.0
  0
LINE
  5
198
330
169
100
AcDbEntity
  8
Layer 01
 62
     1
420
 16711680
370
    25
100
AcDbLine
 10
1277.563332248351
 20
584.6859927067289
 30
0.0
 11
1277.569527279008
 21
584.6955126347344
 31
0.0
  0
LINE
  5
199
330
169
100
AcDbEntity
  8
Layer 01
 62
     1
420
 16711680
370
    25
100
AcDbLine
 10
1277.569527279008
 20
584.6955126347344
 30
0.0
 11
1277.575613889103
 21
584.705409023041
 31
0.0
  0
LINE
  5
19A
330
169
100
AcDbEntity
  8
Layer 01
 62
     1
420
 16711680
370
    25
100
AcDbLine
 10
1277.575613889103
 20
584.705409023041
 30
0.0
 11
1277.581631230498
 21
584.7157511403351
 31
0.0
  0
LINE
  5
19B
330
169
100
AcDbEntity
  8
Layer 01
 62
     1
420
 16711680
370
    25
100
AcDbLine
 10
1277.581631230498
 20
584.7157511403351
 30
0.0
 11
1277.587627490121
 21
584.7266172903688
 31
0.0
  0
LINE
  5
19C
330
169
100
AcDbEntity
  8
Layer 01
 62
     1
420
 16711680
370
    25
100
AcDbLine
 10
1277.587627490121
 20
584.7266172903688
 30
0.0
 11
1277.593644831517
 21
584.7380797535113
 31
0.0
  0
LINE
  5
19D
330
169
100
AcDbEntity
  8
Layer 01
 62
     1
420
 16711680
370
    25
100
AcDbLine
 10
1277.593644831517
 20
584.7380797535113
 30
0.0
 11
1277.593644831517
 21
584.7380797535113
 31
0.0
  0
LINE
  5
19E
330
169
100
AcDbEntity
  8
Layer 01
 62
     1
420
 16711680
370
    25
100
AcDbLine
 10
1277.593644831517
 20
584.7380797535113
 30
0.0
 11
1277.838597006313
 21
585.2640158711131
 31
0.0
  0
LINE
  5
19F
330
169
100
AcDbEntity
  8
Layer 01
 62
     1
420
 16711680
370
    25
100
AcDbLine
 10
1277.838597006313
 20
585.2640158711131
 30
0.0
 11
1277.981694082977
 21
585.8091966391326
 31
0.0
  0
LINE
  5
1A0
330
169
100
AcDbEntity
  8
Layer 01
 62
     1
420
 16711680
370
    25
100
AcDbLine
 10
1277.981694082977
 20
585.8091966391326
 30
0.0
 11
1278.026444671478
 21
586.3612982532617
 31
0.0
  0
LINE
  5
1A1
330
169
100
AcDbEntity
  8
Layer 01
 62
     1
420
 16711680
370
    25
100
AcDbLine
 10
1278.026444671478
 20
586.3612982532617
 30
0.0
 11
1277.976351358432
 21
586.9080089559304
 31
0.0
  0
LINE
  5
1A2
330
169
100
AcDbEntity
  8
Layer 01
 62
     1
420
 16711680
370
    25
100
AcDbLine
 10
1277.976351358432
 20
586.9080089559304
 30
0.0
 11
1277.834922753809
 21
587.4370049428311
 31
0.0
  0
LINE
  5
1A3
330
169
100
AcDbEntity
  8
Layer 01
 62
     1
420
 16711680
370
    25
100
AcDbLine
 10
1277.834922753809
 20
587.4370049428311
 30
0.0
 11
1277.605664455901
 21
587.9359684330256
 31
0.0
  0
LINE
  5
1A4
330
169
100
AcDbEntity
  8
Layer 01
 62
     1
420
 16711680
370
    25
100
AcDbLine
 10
1277.605664455901
 20
587.9359684330256
 30
0.0
 11
1277.292085074685
 21
588.3925816455771
 31
0.0
  0
LINE
  5
1A5
330
169
100
AcDbEntity
  8
Layer 01
 62
     1
420
 16711680
370
    25
100
AcDbLine
 10
1277.292085074685
 20
588.3925816455771
 30
0.0
 11
1276.897690208446
 21
588.7945237878607
 31
0.0
  0
LINE
  5
1A6
330
169
100
AcDbEntity
  8
Layer 01
 62
     1
420
 16711680
370
    25
100
AcDbLine
 10
1276.897690208446
 20
588.7945237878607
 30
0.0
 11
1276.425988467168
 21
589.1294770789362
 31
0.0
  0
LINE
  5
1A7
330
169
100
AcDbEntity
  8
Layer 01
 62
     1
420
 16711680
370
    25
100
AcDbLine
 10
1276.425988467168
 20
589.1294770789362
 30
0.0
 11
1276.425988467168
 21
589.1294770789362
 31
0.0
  0
LINE
  5
1A8
330
169
100
AcDbEntity
  8
Layer 01
 62
     1
420
 16711680
370
    25
100
AcDbLine
 10
1276.425988467168
 20
589.1294770789362
 30
0.0
 11
1275.898588671926
 21
589.3709507605828
 31
0.0
  0
LINE
  5
1A9
330
169
100
AcDbEntity
  8
Layer 01
 62
     1
420
 16711680
370
    25
100
AcDbLine
 10
1275.898588671926
 20
589.3709507605828
 30
0.0
 11
1275.352573667888
 21
589.5118432857433
 31
0.0
  0
LINE
  5
1AA
330
169
100
AcDbEntity
  8
Layer 01
 62
     1
420
 16711680
370
    25
100
AcDbLine
 10
1275.352573667888
 20
589.5118432857433
 30
0.0
 11
1274.800149803743
 21
589.555325955965
 31
0.0
  0
LINE
  5
1AB
330
169
100
AcDbEntity
  8
Layer 01
 62
     1
420
 16711680
370
    25
100
AcDbLine
 10
1274.800149803743
 20
589.555325955965
 30
0.0
 11
1274.253523428183
 21
589.5045730844743
 31
0.0
  0
LINE
  5
1AC
330
169
100
AcDbEntity
  8
Layer 01
 62
     1
420
 16711680
370
    25
100
AcDbLine
 10
1274.253523428183
 20
589.5045730844743
 30
0.0
 11
1273.724900889897
 21
589.3627529611432
 31
0.0
  0
LINE
  5
1AD
330
169
100
AcDbEntity
  8
Layer 01
 62
     1
420
 16711680
370
    25
100
AcDbLine
 10
1273.724900889897
 20
589.3627529611432
 30
0.0
 11
1273.226488537579
 21
589.1330368875148
 31
0.0
  0
LINE
  5
1AE
330
169
100
AcDbEntity
  8
Layer 01
 62
     1
420
 16711680
370
    25
100
AcDbLine
 10
1273.226488537579
 20
589.1330368875148
 30
0.0
 11
1272.770495731596
 21
588.8185961651336
 31
0.0
  0
LINE
  5
1AF
330
169
100
AcDbEntity
  8
Layer 01
 62
     1
420
 16711680
370
    25
100
AcDbLine
 10
1272.770495731596
 20
588.8185961651336
 30
0.0
 11
1272.369125808965
 21
588.4225990838698
 31
0.0
  0
LINE
  5
1B0
330
169
100
AcDbEntity
  8
Layer 01
 62
     1
420
 16711680
370
    25
100
AcDbLine
 10
1272.369125808965
 20
588.4225990838698
 30
0.0
 11
1272.03459114174
 21
587.9482229686342
 31
0.0
  0
LINE
  5
1B1
330
169
100
AcDbEntity
  8
Layer 01
 62
     1
420
 16711680
370
    25
100
AcDbLine
 10
1272.03459114174
 20
587.9482229686342
 30
0.0
 11
1271.61303993547
 21
587.1395681791742
 31
0.0
  0
LINE
  5
1B2
330
169
100
AcDbEntity
  8
Layer 01
 62
     1
420
 16711680
370
    25
100
AcDbLine
 10
1220.346706717501
 20
430.805409588794
 30
0.0
 11
1212.999400356842
 21
420.178203425698
 31
0.0
  0
LINE
  5
1B3
330
169
100
AcDbEntity
  8
Layer 01
 62
     1
420
 16711680
370
    25
100
AcDbLine
 10
1212.999400356842
 20
420.178203425698
 30
0.0
 11
1205.650714645658
 21
430.805409588794
 31
0.0
  0
LINE
  5
1B4
330
169
100
AcDbEntity
  8
Layer 01
 62
     1
420
 16711680
370
    25
100
AcDbLine
 10
1212.999400356842
 20
421.0334097897243
 30
0.0
 11
1212.999400356842
 21
408.7731610189472
 31
0.0
  0
LINE
  5
1B5
330
169
100
AcDbEntity
  8
Layer 01
 62
     1
420
 16711680
370
    25
100
AcDbLine
 10
1240.657146353165
 20
419.7892868097124
 30
0.0
 11
1228.611043258105
 21
419.7892868097124
 31
0.0
  0
LINE
  5
1B6
330
169
100
AcDbEntity
  8
Layer 01
 62
     1
420
 16711680
370
    25
100
AcDbLine
 10
1258.702743616164
 20
408.7736730049531
 30
0.0
 11
1248.918311592222
 21
408.7736730049531
 31
0.0
  0
LINE
  5
1B7
330
169
100
AcDbEntity
  8
Layer 01
 62
     1
420
 16711680
370
    25
100
AcDbLine
 10
1248.918311592222
 20
408.7736730049531
 30
0.0
 11
1257.959448357741
 21
423.328745446496
 31
0.0
  0
LINE
  5
1B8
330
169
100
AcDbEntity
  8
Layer 01
 62
     1
420
 16711680
370
    25
100
AcDbLine
 10
1257.959448357741
 20
423.328745446496
 30
0.0
 11
1257.959448357741
 21
423.328745446496
 31
0.0
  0
LINE
  5
1B9
330
169
100
AcDbEntity
  8
Layer 01
 62
     1
420
 16711680
370
    25
100
AcDbLine
 10
1257.959448357741
 20
423.328745446496
 30
0.0
 11
1257.97025728581
 21
423.3421203279526
 31
0.0
  0
LINE
  5
1BA
330
169
100
AcDbEntity
  8
Layer 01
 62
     1
420
 16711680
370
    25
100
AcDbLine
 10
1257.97025728581
 20
423.3421203279526
 30
0.0
 11
1257.98062048488
 21
423.3556066416544
 31
0.0
  0
LINE
  5
1BB
330
169
100
AcDbEntity
  8
Layer 01
 62
     1
420
 16711680
370
    25
100
AcDbLine
 10
1257.98062048488
 20
423.3556066416544
 30
0.0
 11
1257.990610235339
 21
423.3693218432202
 31
0.0
  0
LINE
  5
1BC
330
169
100
AcDbEntity
  8
Layer 01
 62
     1
420
 16711680
370
    25
100
AcDbLine
 10
1257.990610235339
 20
423.3693218432202
 30
0.0
 11
1258.000292794195
 21
423.3833803765742
 31
0.0
  0
LINE
  5
1BD
330
169
100
AcDbEntity
  8
Layer 01
 62
     1
420
 16711680
370
    25
100
AcDbLine
 10
1258.000292794195
 20
423.3833803765742
 30
0.0
 11
1258.009737430141
 21
423.3978906622891
 31
0.0
  0
LINE
  5
1BE
330
169
100
AcDbEntity
  8
Layer 01
 62
     1
420
 16711680
370
    25
100
AcDbLine
 10
1258.009737430141
 20
423.3978906622891
 30
0.0
 11
1258.019010400193
 21
423.4129701559725
 31
0.0
  0
LINE
  5
1BF
330
169
100
AcDbEntity
  8
Layer 01
 62
     1
420
 16711680
370
    25
100
AcDbLine
 10
1258.019010400193
 20
423.4129701559725
 30
0.0
 11
1258.028180973046
 21
423.4287333015534
 31
0.0
  0
LINE
  5
1C0
330
169
100
AcDbEntity
  8
Layer 01
 62
     1
420
 16711680
370
    25
100
AcDbLine
 10
1258.028180973046
 20
423.4287333015534
 30
0.0
 11
1258.03731841739
 21
423.4452915312871
 31
0.0
  0
LINE
  5
1C1
330
169
100
AcDbEntity
  8
Layer 01
 62
     1
420
 16711680
370
    25
100
AcDbLine
 10
1258.03731841739
 20
423.4452915312871
 30
0.0
 11
1258.046488990243
 21
423.4627592890994
 31
0.0
  0
LINE
  5
1C2
330
169
100
AcDbEntity
  8
Layer 01
 62
     1
420
 16711680
370
    25
100
AcDbLine
 10
1258.046488990243
 20
423.4627592890994
 30
0.0
 11
1258.046488990243
 21
423.4627592890994
 31
0.0
  0
LINE
  5
1C3
330
169
100
AcDbEntity
  8
Layer 01
 62
     1
420
 16711680
370
    25
100
AcDbLine
 10
1258.046488990243
 20
423.4627592890994
 30
0.0
 11
1258.419796056442
 21
424.2642794029952
 31
0.0
  0
LINE
  5
1C4
330
169
100
AcDbEntity
  8
Layer 01
 62
     1
420
 16711680
370
    25
100
AcDbLine
 10
1258.419796056442
 20
424.2642794029952
 30
0.0
 11
1258.637874989354
 21
425.0951272799228
 31
0.0
  0
LINE
  5
1C5
330
169
100
AcDbEntity
  8
Layer 01
 62
     1
420
 16711680
370
    25
100
AcDbLine
 10
1258.637874989354
 20
425.0951272799228
 30
0.0
 11
1258.706071525193
 21
425.9365250802329
 31
0.0
  0
LINE
  5
1C6
330
169
100
AcDbEntity
  8
Layer 01
 62
     1
420
 16711680
370
    25
100
AcDbLine
 10
1258.706071525193
 20
425.9365250802329
 30
0.0
 11
1258.62972838851
 21
426.7697039993225
 31
0.0
  0
LINE
  5
1C7
330
169
100
AcDbEntity
  8
Layer 01
 62
     1
420
 16711680
370
    25
100
AcDbLine
 10
1258.62972838851
 20
426.7697039993225
 30
0.0
 11
1258.414191315534
 21
427.5758861975453
 31
0.0
  0
LINE
  5
1C8
330
169
100
AcDbEntity
  8
Layer 01
 62
     1
420
 16711680
370
    25
100
AcDbLine
 10
1258.414191315534
 20
427.5758861975453
 30
0.0
 11
1258.064806042486
 21
428.3362998586215
 31
0.0
  0
LINE
  5
1C9
330
169
100
AcDbEntity
  8
Layer 01
 62
     1
420
 16711680
370
    25
100
AcDbLine
 10
1258.064806042486
 20
428.3362998586215
 30
0.0
 11
1257.586915293908
 21
429.032170154586
 31
0.0
  0
LINE
  5
1CA
330
169
100
AcDbEntity
  8
Layer 01
 62
     1
420
 16711680
370
    25
100
AcDbLine
 10
1257.586915293908
 20
429.032170154586
 30
0.0
 11
1256.985864806037
 21
429.6447252691552
 31
0.0
  0
LINE
  5
1CB
330
169
100
AcDbEntity
  8
Layer 01
 62
     1
420
 16711680
370
    25
100
AcDbLine
 10
1256.985864806037
 20
429.6447252691552
 30
0.0
 11
1256.266997303409
 21
430.1551903743655
 31
0.0
  0
LINE
  5
1CC
330
169
100
AcDbEntity
  8
Layer 01
 62
     1
420
 16711680
370
    25
100
AcDbLine
 10
1256.266997303409
 20
430.1551903743655
 30
0.0
 11
1256.266997303409
 21
430.1551903743655
 31
0.0
  0
LINE
  5
1CD
330
169
100
AcDbEntity
  8
Layer 01
 62
     1
420
 16711680
370
    25
100
AcDbLine
 10
1256.266997303409
 20
430.1551903743655
 30
0.0
 11
1255.463248544549
 21
430.5231938678925
 31
0.0
  0
LINE
  5
1CE
330
169
100
AcDbEntity
  8
Layer 01
 62
     1
420
 16711680
370
    25
100
AcDbLine
 10
1255.463248544549
 20
430.5231938678925
 30
0.0
 11
1254.631129737659
 21
430.7379117632658
 31
0.0
  0
LINE
  5
1CF
330
169
100
AcDbEntity
  8
Layer 01
 62
     1
420
 16711680
370
    25
100
AcDbLine
 10
1254.631129737659
 20
430.7379117632658
 30
0.0
 11
1253.789241033123
 21
430.8041808223808
 31
0.0
  0
LINE
  5
1D0
330
169
100
AcDbEntity
  8
Layer 01
 62
     1
420
 16711680
370
    25
100
AcDbLine
 10
1253.789241033123
 20
430.8041808223808
 30
0.0
 11
1252.956188604692
 21
430.726831783782
 31
0.0
  0
LINE
  5
1D1
330
169
100
AcDbEntity
  8
Layer 01
 62
     1
420
 16711680
370
    25
100
AcDbLine
 10
1252.956188604692
 20
430.726831783782
 30
0.0
 11
1252.150572602757
 21
430.5107014093771
 31
0.0
  0
LINE
  5
1D2
330
169
100
AcDbEntity
  8
Layer 01
 62
     1
420
 16711680
370
    25
100
AcDbLine
 10
1252.150572602757
 20
430.5107014093771
 30
0.0
 11
1251.391002212746
 21
430.1606144143321
 31
0.0
  0
LINE
  5
1D3
330
169
100
AcDbEntity
  8
Layer 01
 62
     1
420
 16711680
370
    25
100
AcDbLine
 10
1251.391002212746
 20
430.1606144143321
 30
0.0
 11
1250.696074573366
 21
429.6814105722414
 31
0.0
  0
LINE
  5
1D4
330
169
100
AcDbEntity
  8
Layer 01
 62
     1
420
 16711680
370
    25
100
AcDbLine
 10
1250.696074573366
 20
429.6814105722414
 30
0.0
 11
1250.084395858369
 21
429.0779206216371
 31
0.0
  0
LINE
  5
1D5
330
169
100
AcDbEntity
  8
Layer 01
 62
     1
420
 16711680
370
    25
100
AcDbLine
 10
1250.084395858369
 20
429.0779206216371
 30
0.0
 11
1249.574566218143
 21
428.3549783127503
 31
0.0
  0
LINE
  5
1D6
330
169
100
AcDbEntity
  8
Layer 01
 62
     1
420
 16711680
370
    25
100
AcDbLine
 10
1249.574566218143
 20
428.3549783127503
 30
0.0
 11
1248.932126179306
 21
427.1225978823427
 31
0.0
  0
ENDBLK
  5
16C
330
169
100
AcDbEntity
  8
0
100
AcDbBlockEnd
  0
BLOCK
  5
1D9
330
1D7
100
AcDbEntity
  8
0
100
AcDbBlockBegin
  2
Block_3
 70
     0
 10
0.0
 20
0.0
 30
0.0
  3
Block_3
  1

  0
LINE
  5
1DB
330
1D7
100
AcDbEntity
  8
Layer 01
 62
     5
420
      255
370
    25
100
AcDbLine
 10
1731.028631563286
 20
265.4740254258571
 30
0.0
 11
1732.795049536902
 21
241.0226520183207
 31
0.0
  0
LINE
  5
1DC
330
1D7
100
AcDbEntity
  8
Layer 01
 62
     5
420
      255
370
    25
100
AcDbLine
 10
1733.470877086617
 20
231.6676106098858
 30
0.0
 11
1735.189641209914
 21
207.8758347957158
 31
0.0
  0
LINE
  5
1DD
330
1D7
100
AcDbEntity
  8
Layer 01
 62
     5
420
      255
370
    25
100
AcDbLine
 10
1735.232410111409
 20
366.9571506687534
 30
0.0
 11
1733.48543857093
 21
342.9771236239796
 31
0.0
  0
LINE
  5
1DE
330
1D7
100
AcDbEntity
  8
Layer 01
 62
     5
420
      255
370
    25
100
AcDbLine
 10
1733.028060391056
 20
334.0182901145762
 30
0.0
 11
1731.053224961612
 21
309.5910342595491
 31
0.0
  0
LINE
  5
1DF
330
1D7
100
AcDbEntity
  8
Layer 01
 62
     5
420
      255
370
    25
100
AcDbLine
 10
1731.053224961612
 20
309.5910342595491
 30
0.0
 11
1734.887629700723
 21
287.8389173263946
 31
0.0
  0
LINE
  5
1E0
330
1D7
100
AcDbEntity
  8
Layer 01
 62
     5
420
      255
370
    25
100
AcDbLine
 10
1734.887629700723
 20
287.8389173263946
 30
0.0
 11
1731.028631563286
 21
265.4740254258571
 31
0.0
  0
INSERT
  5
1E2
330
1D7
100
AcDbEntity
  8
Layer 01
100
AcDbBlockReference
  2
Block_4
 10
0.0
 20
0.0
 30
0.0
  0
ENDBLK
  5
1DA
330
1D7
100
AcDbEntity
  8
0
100
AcDbBlockEnd
  0
BLOCK
  5
1E3
330
1E1
100
AcDbEntity
  8
0
100
AcDbBlockBegin
  2
Block_4
 70
     0
 10
0.0
 20
0.0
 30
0.0
  3
Block_4
  1

  0
LINE
  5
1E5
330
1E1
100
AcDbEntity
  8
Layer 01
 62
     5
420
      255
370
    25
100
AcDbLine
 10
1732.795049536902
 20
241.0226520183207
 30
0.0
 11
1779.966334975758
 21
263.2377398255343
 31
0.0
  0
LINE
  5
1E6
330
1E1
100
AcDbEntity
  8
Layer 01
 62
     5
420
      255
370
    25
100
AcDbLine
 10
1779.966334975758
 20
263.2377398255343
 30
0.0
 11
1783.554588890481
 21
255.7866569133814
 31
0.0
  0
LINE
  5
1E7
330
1E1
100
AcDbEntity
  8
Layer 01
 62
     5
420
      255
370
    25
100
AcDbLine
 10
1783.554588890481
 20
255.7866569133814
 30
0.0
 11
1733.470877086617
 21
231.6676106098858
 31
0.0
  0
LINE
  5
1E8
330
1E1
100
AcDbEntity
  8
Layer 01
 62
     5
420
      255
370
    25
100
AcDbLine
 10
1735.189641209914
 20
207.8758347957158
 30
0.0
 11
1747.505588034649
 21
178.5607298681721
 31
0.0
  0
LINE
  5
1E9
330
1E1
100
AcDbEntity
  8
Layer 01
 62
     5
420
      255
370
    25
100
AcDbLine
 10
1747.505588034649
 20
178.5607298681721
 30
0.0
 11
1761.631721613042
 21
154.3505530675028
 31
0.0
  0
LINE
  5
1EA
330
1E1
100
AcDbEntity
  8
Layer 01
 62
     5
420
      255
370
    25
100
AcDbLine
 10
1761.631721613042
 20
154.3505530675028
 30
0.0
 11
1795.677601318507
 21
118.4656467378925
 31
0.0
  0
LINE
  5
1EB
330
1E1
100
AcDbEntity
  8
Layer 01
 62
     5
420
      255
370
    25
100
AcDbLine
 10
1795.677601318507
 20
118.4656467378925
 30
0.0
 11
1814.63598530098
 21
196.9014238176159
 31
0.0
  0
LINE
  5
1EC
330
1E1
100
AcDbEntity
  8
Layer 01
 62
     5
420
      255
370
    25
100
AcDbLine
 10
1814.63598530098
 20
196.9014238176159
 30
0.0
 11
1822.698716811305
 21
195.0611563803301
 31
0.0
  0
LINE
  5
1ED
330
1E1
100
AcDbEntity
  8
Layer 01
 62
     5
420
      255
370
    25
100
AcDbLine
 10
1822.698716811305
 20
195.0611563803301
 30
0.0
 11
1804.107541238212
 21
113.6079024424572
 31
0.0
  0
LINE
  5
1EE
330
1E1
100
AcDbEntity
  8
Layer 01
 62
     5
420
      255
370
    25
100
AcDbLine
 10
1804.107541238212
 20
113.6079024424572
 30
0.0
 11
1829.140398233192
 21
99.97695871623491
 31
0.0
  0
LINE
  5
1EF
330
1E1
100
AcDbEntity
  8
Layer 01
 62
     5
420
      255
370
    25
100
AcDbLine
 10
1829.140398233192
 20
99.97695871623491
 30
0.0
 11
1853.167118401607
 21
102.4986403740528
 31
0.0
  0
LINE
  5
1F0
330
1E1
100
AcDbEntity
  8
Layer 01
 62
     5
420
      255
370
    25
100
AcDbLine
 10
1853.167118401607
 20
102.4986403740528
 30
0.0
 11
1905.381842448158
 21
133.2258870299769
 31
0.0
  0
LINE
  5
1F1
330
1E1
100
AcDbEntity
  8
Layer 01
 62
     5
420
      255
370
    25
100
AcDbLine
 10
1905.381842448158
 20
133.2258870299769
 30
0.0
 11
1908.765473626856
 21
134.473473444727
 31
0.0
  0
LINE
  5
1F2
330
1E1
100
AcDbEntity
  8
Layer 01
 62
     5
420
      255
370
    25
100
AcDbLine
 10
1908.765473626856
 20
134.473473444727
 30
0.0
 11
1925.359720068555
 21
164.9955130982372
 31
0.0
  0
LINE
  5
1F3
330
1E1
100
AcDbEntity
  8
Layer 01
 62
     5
420
      255
370
    25
100
AcDbLine
 10
1925.359720068555
 20
164.9955130982372
 30
0.0
 11
1928.268535426389
 21
169.4018212631346
 31
0.0
  0
LINE
  5
1F4
330
1E1
100
AcDbEntity
  8
Layer 01
 62
     5
420
      255
370
    25
100
AcDbLine
 10
1928.268535426389
 20
169.4018212631346
 30
0.0
 11
1885.213165713863
 21
223.3915495897703
 31
0.0
  0
LINE
  5
1F5
330
1E1
100
AcDbEntity
  8
Layer 01
 62
     5
420
      255
370
    25
100
AcDbLine
 10
1885.213165713863
 20
223.3915495897703
 30
0.0
 11
1891.678973723309
 21
228.5478600297539
 31
0.0
  0
LINE
  5
1F6
330
1E1
100
AcDbEntity
  8
Layer 01
 62
     5
420
      255
370
    25
100
AcDbLine
 10
1891.678973723309
 20
228.5478600297539
 30
0.0
 11
1932.52948775284
 21
177.322934432844
 31
0.0
  0
LINE
  5
1F7
330
1E1
100
AcDbEntity
  8
Layer 01
 62
     5
420
      255
370
    25
100
AcDbLine
 10
1932.52948775284
 20
177.322934432844
 30
0.0
 11
1939.375517651232
 21
248.9522099454266
 31
0.0
  0
LINE
  5
1F8
330
1E1
100
AcDbEntity
  8
Layer 01
 62
     5
420
      255
370
    25
100
AcDbLine
 10
1939.375517651232
 20
248.9522099454266
 30
0.0
 11
1933.063410852114
 21
282.7390849661074
 31
0.0
  0
LINE
  5
1F9
330
1E1
100
AcDbEntity
  8
Layer 01
 62
     5
420
      255
370
    25
100
AcDbLine
 10
1933.063410852114
 20
282.7390849661074
 30
0.0
 11
1891.320435947502
 21
283.1908343116108
 31
0.0
  0
LINE
  5
1FA
330
1E1
100
AcDbEntity
  8
Layer 01
 62
     5
420
      255
370
    25
100
AcDbLine
 10
1891.320435947502
 20
283.1908343116108
 30
0.0
 11
1891.320435947502
 21
291.4609141305207
 31
0.0
  0
LINE
  5
1FB
330
1E1
100
AcDbEntity
  8
Layer 01
 62
     5
420
      255
370
    25
100
AcDbLine
 10
1891.320435947502
 20
291.4609141305207
 30
0.0
 11
1931.504922441786
 21
291.4609141305207
 31
0.0
  0
LINE
  5
1FC
330
1E1
100
AcDbEntity
  8
Layer 01
 62
     5
420
      255
370
    25
100
AcDbLine
 10
1931.504922441786
 20
291.4609141305207
 30
0.0
 11
1939.874881695181
 21
324.4985397967116
 31
0.0
  0
LINE
  5
1FD
330
1E1
100
AcDbEntity
  8
Layer 01
 62
     5
420
      255
370
    25
100
AcDbLine
 10
1939.874881695181
 20
324.4985397967116
 30
0.0
 11
1932.405301029848
 21
396.4485323777545
 31
0.0
  0
LINE
  5
1FE
330
1E1
100
AcDbEntity
  8
Layer 01
 62
     5
420
      255
370
    25
100
AcDbLine
 10
1932.405301029848
 20
396.4485323777545
 30
0.0
 11
1892.281397538344
 21
346.8593026807013
 31
0.0
  0
LINE
  5
1FF
330
1E1
100
AcDbEntity
  8
Layer 01
 62
     5
420
      255
370
    25
100
AcDbLine
 10
1892.281397538344
 20
346.8593026807013
 30
0.0
 11
1885.815586517222
 21
352.0156131206842
 31
0.0
  0
LINE
  5
200
330
1E1
100
AcDbEntity
  8
Layer 01
 62
     5
420
      255
370
    25
100
AcDbLine
 10
1885.815586517222
 20
352.0156131206842
 30
0.0
 11
1930.044009528925
 21
407.4763013326065
 31
0.0
  0
LINE
  5
201
330
1E1
100
AcDbEntity
  8
Layer 01
 62
     5
420
      255
370
    25
100
AcDbLine
 10
1930.044009528925
 20
407.4763013326065
 30
0.0
 11
1925.366375886618
 21
422.510258377908
 31
0.0
  0
LINE
  5
202
330
1E1
100
AcDbEntity
  8
Layer 01
 62
     5
420
      255
370
    25
100
AcDbLine
 10
1925.366375886618
 20
422.510258377908
 30
0.0
 11
1909.605817338333
 21
436.0962437095435
 31
0.0
  0
LINE
  5
203
330
1E1
100
AcDbEntity
  8
Layer 01
 62
     5
420
      255
370
    25
100
AcDbLine
 10
1909.605817338333
 20
436.0962437095435
 30
0.0
 11
1906.508347184454
 21
443.7541599325921
 31
0.0
  0
LINE
  5
204
330
1E1
100
AcDbEntity
  8
Layer 01
 62
     5
420
      255
370
    25
100
AcDbLine
 10
1906.508347184454
 20
443.7541599325921
 30
0.0
 11
1897.136012695789
 21
452.5302355200555
 31
0.0
  0
LINE
  5
205
330
1E1
100
AcDbEntity
  8
Layer 01
 62
     5
420
      255
370
    25
100
AcDbLine
 10
1897.136012695789
 20
452.5302355200555
 30
0.0
 11
1863.907642125979
 21
472.0164650267584
 31
0.0
  0
LINE
  5
206
330
1E1
100
AcDbEntity
  8
Layer 01
 62
     5
420
      255
370
    25
100
AcDbLine
 10
1863.907642125979
 20
472.0164650267584
 30
0.0
 11
1844.717033338453
 21
475.4604442970109
 31
0.0
  0
LINE
  5
207
330
1E1
100
AcDbEntity
  8
Layer 01
 62
     5
420
      255
370
    25
100
AcDbLine
 10
1844.717033338453
 20
475.4604442970109
 30
0.0
 11
1804.584874825545
 21
465.4859871615431
 31
0.0
  0
LINE
  5
208
330
1E1
100
AcDbEntity
  8
Layer 01
 62
     5
420
      255
370
    25
100
AcDbLine
 10
1804.584874825545
 20
465.4859871615431
 30
0.0
 11
1822.234390680173
 21
381.6249293000525
 31
0.0
  0
LINE
  5
209
330
1E1
100
AcDbEntity
  8
Layer 01
 62
     5
420
      255
370
    25
100
AcDbLine
 10
1822.234390680173
 20
381.6249293000525
 30
0.0
 11
1814.171659169853
 21
379.7846648744496
 31
0.0
  0
LINE
  5
20A
330
1E1
100
AcDbEntity
  8
Layer 01
 62
     5
420
      255
370
    25
100
AcDbLine
 10
1814.171659169853
 20
379.7846648744496
 30
0.0
 11
1796.109431396744
 21
458.9204563250921
 31
0.0
  0
LINE
  5
20B
330
1E1
100
AcDbEntity
  8
Layer 01
 62
     5
420
      255
370
    25
100
AcDbLine
 10
1796.109431396744
 20
458.9204563250921
 30
0.0
 11
1754.34826593055
 21
410.8815142272472
 31
0.0
  0
LINE
  5
20C
330
1E1
100
AcDbEntity
  8
Layer 01
 62
     5
420
      255
370
    25
100
AcDbLine
 10
1754.34826593055
 20
410.8815142272472
 30
0.0
 11
1748.645624259879
 21
400.4730766723231
 31
0.0
  0
LINE
  5
20D
330
1E1
100
AcDbEntity
  8
Layer 01
 62
     5
420
      255
370
    25
100
AcDbLine
 10
1748.645624259879
 20
400.4730766723231
 30
0.0
 11
1735.232410111409
 21
366.9571506687534
 31
0.0
  0
LINE
  5
20E
330
1E1
100
AcDbEntity
  8
Layer 01
 62
     5
420
      255
370
    25
100
AcDbLine
 10
1733.48543857093
 20
342.9771236239796
 30
0.0
 11
1783.55891366638
 21
318.8630104562244
 31
0.0
  0
LINE
  5
20F
330
1E1
100
AcDbEntity
  8
Layer 01
 62
     5
420
      255
370
    25
100
AcDbLine
 10
1783.55891366638
 20
318.8630104562244
 30
0.0
 11
1779.970659751656
 21
311.4119245323924
 31
0.0
  0
LINE
  5
210
330
1E1
100
AcDbEntity
  8
Layer 01
 62
     5
420
      255
370
    25
100
AcDbLine
 10
1779.970659751656
 20
311.4119245323924
 30
0.0
 11
1733.028060391056
 21
334.0182901145762
 31
0.0
  0
LINE
  5
211
330
1E1
100
AcDbEntity
  8
Layer 01
 62
     1
420
 16711680
370
    25
100
AcDbLine
 10
1874.473382863355
 20
280.0978365060711
 30
0.0
 11
1874.473382863355
 21
294.5539119360597
 31
0.0
  0
LINE
  5
212
330
1E1
100
AcDbEntity
  8
Layer 01
 62
     1
420
 16711680
370
    25
100
AcDbLine
 10
1874.473382863355
 20
294.5539119360597
 30
0.0
 11
1871.259613582645
 21
291.3392331272687
 31
0.0
  0
LINE
  5
213
330
1E1
100
AcDbEntity
  8
Layer 01
 62
     1
420
 16711680
370
    25
100
AcDbLine
 10
1885.195059479389
 20
333.012346035685
 30
0.0
 11
1881.192075818988
 21
327.9927629641278
 31
0.0
  0
LINE
  5
214
330
1E1
100
AcDbEntity
  8
Layer 01
 62
     1
420
 16711680
370
    25
100
AcDbLine
 10
1881.192075818988
 20
327.9927629641278
 30
0.0
 11
1877.423961220771
 21
338.5857594270579
 31
0.0
  0
LINE
  5
215
330
1E1
100
AcDbEntity
  8
Layer 01
 62
     1
420
 16711680
370
    25
100
AcDbLine
 10
1877.423961220771
 20
338.5857594270579
 30
0.0
 11
1877.423961220771
 21
338.5857594270579
 31
0.0
  0
LINE
  5
216
330
1E1
100
AcDbEntity
  8
Layer 01
 62
     1
420
 16711680
370
    25
100
AcDbLine
 10
1877.423961220771
 20
338.5857594270579
 30
0.0
 11
1877.421521758041
 21
338.5967761612062
 31
0.0
  0
LINE
  5
217
330
1E1
100
AcDbEntity
  8
Layer 01
 62
     1
420
 16711680
370
    25
100
AcDbLine
 10
1877.421521758041
 20
338.5967761612062
 30
0.0
 11
1877.418841360723
 21
338.6076091827334
 31
0.0
  0
LINE
  5
218
330
1E1
100
AcDbEntity
  8
Layer 01
 62
     1
420
 16711680
370
    25
100
AcDbLine
 10
1877.418841360723
 20
338.6076091827334
 30
0.0
 11
1877.415892923673
 21
338.6183458304228
 31
0.0
  0
LINE
  5
219
330
1E1
100
AcDbEntity
  8
Layer 01
 62
     1
420
 16711680
370
    25
100
AcDbLine
 10
1877.415892923673
 20
338.6183458304228
 30
0.0
 11
1877.412643318383
 21
338.6290644080187
 31
0.0
  0
LINE
  5
21A
330
1E1
100
AcDbEntity
  8
Layer 01
 62
     1
420
 16711680
370
    25
100
AcDbLine
 10
1877.412643318383
 20
338.6290644080187
 30
0.0
 11
1877.409062428031
 21
338.6398462309438
 31
0.0
  0
LINE
  5
21B
330
1E1
100
AcDbEntity
  8
Layer 01
 62
     1
420
 16711680
370
    25
100
AcDbLine
 10
1877.409062428031
 20
338.6398462309438
 30
0.0
 11
1877.405120135795
 21
338.6507726146227
 31
0.0
  0
LINE
  5
21C
330
1E1
100
AcDbEntity
  8
Layer 01
 62
     1
420
 16711680
370
    25
100
AcDbLine
 10
1877.405120135795
 20
338.6507726146227
 30
0.0
 11
1877.400783313166
 21
338.661927886163
 31
0.0
  0
LINE
  5
21D
330
1E1
100
AcDbEntity
  8
Layer 01
 62
     1
420
 16711680
370
    25
100
AcDbLine
 10
1877.400783313166
 20
338.661927886163
 30
0.0
 11
1877.396027866687
 21
338.6733873376217
 31
0.0
  0
LINE
  5
21E
330
1E1
100
AcDbEntity
  8
Layer 01
 62
     1
420
 16711680
370
    25
100
AcDbLine
 10
1877.396027866687
 20
338.6733873376217
 30
0.0
 11
1877.390817656167
 21
338.6852383077922
 31
0.0
  0
LINE
  5
21F
330
1E1
100
AcDbEntity
  8
Layer 01
 62
     1
420
 16711680
370
    25
100
AcDbLine
 10
1877.390817656167
 20
338.6852383077922
 30
0.0
 11
1877.390817656167
 21
338.6852383077922
 31
0.0
  0
LINE
  5
220
330
1E1
100
AcDbEntity
  8
Layer 01
 62
     1
420
 16711680
370
    25
100
AcDbLine
 10
1877.390817656167
 20
338.6852383077922
 30
0.0
 11
1877.132352062526
 21
339.2046691914515
 31
0.0
  0
LINE
  5
221
330
1E1
100
AcDbEntity
  8
Layer 01
 62
     1
420
 16711680
370
    25
100
AcDbLine
 10
1877.132352062526
 20
339.2046691914515
 30
0.0
 11
1876.795332757335
 21
339.6564607005078
 31
0.0
  0
LINE
  5
222
330
1E1
100
AcDbEntity
  8
Layer 01
 62
     1
420
 16711680
370
    25
100
AcDbLine
 10
1876.795332757335
 20
339.6564607005078
 30
0.0
 11
1876.391580593942
 21
340.0356766875441
 31
0.0
  0
LINE
  5
223
330
1E1
100
AcDbEntity
  8
Layer 01
 62
     1
420
 16711680
370
    25
100
AcDbLine
 10
1876.391580593942
 20
340.0356766875441
 30
0.0
 11
1875.932913414005
 21
340.3373810051332
 31
0.0
  0
LINE
  5
224
330
1E1
100
AcDbEntity
  8
Layer 01
 62
     1
420
 16711680
370
    25
100
AcDbLine
 10
1875.932913414005
 20
340.3373810051332
 30
0.0
 11
1875.431149059195
 21
340.5566314824862
 31
0.0
  0
LINE
  5
225
330
1E1
100
AcDbEntity
  8
Layer 01
 62
     1
420
 16711680
370
    25
100
AcDbLine
 10
1875.431149059195
 20
340.5566314824862
 30
0.0
 11
1874.898102359492
 21
340.6884889605012
 31
0.0
  0
LINE
  5
226
330
1E1
100
AcDbEntity
  8
Layer 01
 62
     1
420
 16711680
370
    25
100
AcDbLine
 10
1874.898102359492
 20
340.6884889605012
 30
0.0
 11
1874.345594168238
 21
340.7280142800728
 31
0.0
  0
LINE
  5
227
330
1E1
100
AcDbEntity
  8
Layer 01
 62
     1
420
 16711680
370
    25
100
AcDbLine
 10
1874.345594168238
 20
340.7280142800728
 30
0.0
 11
1873.785442327104
 21
340.6702743054598
 31
0.0
  0
LINE
  5
228
330
1E1
100
AcDbEntity
  8
Layer 01
 62
     1
420
 16711680
370
    25
100
AcDbLine
 10
1873.785442327104
 20
340.6702743054598
 30
0.0
 11
1873.22946467775
 21
340.5103208425093
 31
0.0
  0
LINE
  5
229
330
1E1
100
AcDbEntity
  8
Layer 01
 62
     1
420
 16711680
370
    25
100
AcDbLine
 10
1873.22946467775
 20
340.5103208425093
 30
0.0
 11
1873.22946467775
 21
340.5103208425093
 31
0.0
  0
LINE
  5
22A
330
1E1
100
AcDbEntity
  8
Layer 01
 62
     1
420
 16711680
370
    25
100
AcDbLine
 10
1873.22946467775
 20
340.5103208425093
 30
0.0
 11
1872.711843815199
 21
340.2485393865656
 31
0.0
  0
LINE
  5
22B
330
1E1
100
AcDbEntity
  8
Layer 01
 62
     1
420
 16711680
370
    25
100
AcDbLine
 10
1872.711843815199
 20
340.2485393865656
 30
0.0
 11
1872.261253967414
 21
339.9094932191322
 31
0.0
  0
LINE
  5
22C
330
1E1
100
AcDbEntity
  8
Layer 01
 62
     1
420
 16711680
370
    25
100
AcDbLine
 10
1872.261253967414
 20
339.9094932191322
 30
0.0
 11
1871.882827041163
 21
339.5047020253205
 31
0.0
  0
LINE
  5
22D
330
1E1
100
AcDbEntity
  8
Layer 01
 62
     1
420
 16711680
370
    25
100
AcDbLine
 10
1871.882827041163
 20
339.5047020253205
 30
0.0
 11
1871.581691931543
 21
339.0456885019081
 31
0.0
  0
LINE
  5
22E
330
1E1
100
AcDbEntity
  8
Layer 01
 62
     1
420
 16711680
370
    25
100
AcDbLine
 10
1871.581691931543
 20
339.0456885019081
 30
0.0
 11
1871.362980545333
 21
338.5439693223336
 31
0.0
  0
LINE
  5
22F
330
1E1
100
AcDbEntity
  8
Layer 01
 62
     1
420
 16711680
370
    25
100
AcDbLine
 10
1871.362980545333
 20
338.5439693223336
 30
0.0
 11
1871.231824789315
 21
338.0110701950692
 31
0.0
  0
LINE
  5
230
330
1E1
100
AcDbEntity
  8
Layer 01
 62
     1
420
 16711680
370
    25
100
AcDbLine
 10
1871.231824789315
 20
338.0110701950692
 30
0.0
 11
1871.193359581939
 21
337.4585108052159
 31
0.0
  0
LINE
  5
231
330
1E1
100
AcDbEntity
  8
Layer 01
 62
     1
420
 16711680
370
    25
100
AcDbLine
 10
1871.193359581939
 20
337.4585108052159
 30
0.0
 11
1871.252710806628
 21
336.8978078262053
 31
0.0
  0
LINE
  5
232
330
1E1
100
AcDbEntity
  8
Layer 01
 62
     1
420
 16711680
370
    25
100
AcDbLine
 10
1871.252710806628
 20
336.8978078262053
 30
0.0
 11
1871.415013381836
 21
336.3404899781892
 31
0.0
  0
LINE
  5
233
330
1E1
100
AcDbEntity
  8
Layer 01
 62
     1
420
 16711680
370
    25
100
AcDbLine
 10
1871.415013381836
 20
336.3404899781892
 30
0.0
 11
1871.784411284308
 21
335.5067177576704
 31
0.0
  0
LINE
  5
234
330
1E1
100
AcDbEntity
  8
Layer 01
 62
     1
420
 16711680
370
    25
100
AcDbLine
 10
1830.070213004848
 20
361.1917244554842
 30
0.0
 11
1829.355887119252
 21
364.3213834706498
 31
0.0
  0
LINE
  5
235
330
1E1
100
AcDbEntity
  8
Layer 01
 62
     1
420
 16711680
370
    25
100
AcDbLine
 10
1829.355887119252
 20
364.3213834706498
 30
0.0
 11
1829.355887119252
 21
364.3213834706498
 31
0.0
  0
LINE
  5
236
330
1E1
100
AcDbEntity
  8
Layer 01
 62
     1
420
 16711680
370
    25
100
AcDbLine
 10
1829.355887119252
 20
364.3213834706498
 30
0.0
 11
1829.17692090543
 21
364.8727351758696
 31
0.0
  0
LINE
  5
237
330
1E1
100
AcDbEntity
  8
Layer 01
 62
     1
420
 16711680
370
    25
100
AcDbLine
 10
1829.17692090543
 20
364.8727351758696
 30
0.0
 11
1828.910507481982
 21
365.3691688528648
 31
0.0
  0
LINE
  5
238
330
1E1
100
AcDbEntity
  8
Layer 01
 62
     1
420
 16711680
370
    25
100
AcDbLine
 10
1828.910507481982
 20
365.3691688528648
 30
0.0
 11
1828.567588291008
 21
365.8039112279604
 31
0.0
  0
LINE
  5
239
330
1E1
100
AcDbEntity
  8
Layer 01
 62
     1
420
 16711680
370
    25
100
AcDbLine
 10
1828.567588291008
 20
365.8039112279604
 30
0.0
 11
1828.159107786275
 21
366.1701920391674
 31
0.0
  0
LINE
  5
23A
330
1E1
100
AcDbEntity
  8
Layer 01
 62
     1
420
 16711680
370
    25
100
AcDbLine
 10
1828.159107786275
 20
366.1701920391674
 30
0.0
 11
1827.696010421555
 21
366.4612410244938
 31
0.0
  0
LINE
  5
23B
330
1E1
100
AcDbEntity
  8
Layer 01
 62
     1
420
 16711680
370
    25
100
AcDbLine
 10
1827.696010421555
 20
366.4612410244938
 30
0.0
 11
1827.189240650628
 21
366.6702909336238
 31
0.0
  0
LINE
  5
23C
330
1E1
100
AcDbEntity
  8
Layer 01
 62
     1
420
 16711680
370
    25
100
AcDbLine
 10
1827.189240650628
 20
366.6702909336238
 30
0.0
 11
1826.649739915579
 21
366.7905684928818
 31
0.0
  0
LINE
  5
23D
330
1E1
100
AcDbEntity
  8
Layer 01
 62
     1
420
 16711680
370
    25
100
AcDbLine
 10
1826.649739915579
 20
366.7905684928818
 30
0.0
 11
1826.088452670187
 21
366.8153064519617
 31
0.0
  0
LINE
  5
23E
330
1E1
100
AcDbEntity
  8
Layer 01
 62
     1
420
 16711680
370
    25
100
AcDbLine
 10
1826.088452670187
 20
366.8153064519617
 30
0.0
 11
1825.516323368223
 21
366.7377285255057
 31
0.0
  0
LINE
  5
23F
330
1E1
100
AcDbEntity
  8
Layer 01
 62
     1
420
 16711680
370
    25
100
AcDbLine
 10
1825.516323368223
 20
366.7377285255057
 30
0.0
 11
1823.949284791613
 21
366.3800611259064
 31
0.0
  0
LINE
  5
240
330
1E1
100
AcDbEntity
  8
Layer 01
 62
     1
420
 16711680
370
    25
100
AcDbLine
 10
1823.949284791613
 20
366.3800611259064
 30
0.0
 11
1823.949284791613
 21
366.3800611259064
 31
0.0
  0
LINE
  5
241
330
1E1
100
AcDbEntity
  8
Layer 01
 62
     1
420
 16711680
370
    25
100
AcDbLine
 10
1823.949284791613
 20
366.3800611259064
 30
0.0
 11
1823.400387607534
 21
366.2017725406193
 31
0.0
  0
LINE
  5
242
330
1E1
100
AcDbEntity
  8
Layer 01
 62
     1
420
 16711680
370
    25
100
AcDbLine
 10
1823.400387607534
 20
366.2017725406193
 30
0.0
 11
1822.905541087155
 21
365.9359795237465
 31
0.0
  0
LINE
  5
243
330
1E1
100
AcDbEntity
  8
Layer 01
 62
     1
420
 16711680
370
    25
100
AcDbLine
 10
1822.905541087155
 20
365.9359795237465
 30
0.0
 11
1822.47169017004
 21
365.593542201949
 31
0.0
  0
LINE
  5
244
330
1E1
100
AcDbEntity
  8
Layer 01
 62
     1
420
 16711680
370
    25
100
AcDbLine
 10
1822.47169017004
 20
365.593542201949
 30
0.0
 11
1822.105779795767
 21
365.1853086551723
 31
0.0
  0
LINE
  5
245
330
1E1
100
AcDbEntity
  8
Layer 01
 62
     1
420
 16711680
370
    25
100
AcDbLine
 10
1822.105779795767
 20
365.1853086551723
 30
0.0
 11
1821.814751892221
 21
364.7221329867131
 31
0.0
  0
LINE
  5
246
330
1E1
100
AcDbEntity
  8
Layer 01
 62
     1
420
 16711680
370
    25
100
AcDbLine
 10
1821.814751892221
 20
364.7221329867131
 30
0.0
 11
1821.605554410654
 21
364.2148723115565
 31
0.0
  0
LINE
  5
247
330
1E1
100
AcDbEntity
  8
Layer 01
 62
     1
420
 16711680
370
    25
100
AcDbLine
 10
1821.605554410654
 20
364.2148723115565
 30
0.0
 11
1821.485129278957
 21
363.674374709641
 31
0.0
  0
LINE
  5
248
330
1E1
100
AcDbEntity
  8
Layer 01
 62
     1
420
 16711680
370
    25
100
AcDbLine
 10
1821.485129278957
 20
363.674374709641
 30
0.0
 11
1821.460418425017
 21
363.1114942842695
 31
0.0
  0
LINE
  5
249
330
1E1
100
AcDbEntity
  8
Layer 01
 62
     1
420
 16711680
370
    25
100
AcDbLine
 10
1821.460418425017
 20
363.1114942842695
 30
0.0
 11
1821.538369800094
 21
362.5370881504209
 31
0.0
  0
LINE
  5
24A
330
1E1
100
AcDbEntity
  8
Layer 01
 62
     1
420
 16711680
370
    25
100
AcDbLine
 10
1821.538369800094
 20
362.5370881504209
 30
0.0
 11
1821.896034188008
 21
360.9700465621275
 31
0.0
  0
LINE
  5
24B
330
1E1
100
AcDbEntity
  8
Layer 01
 62
     1
420
 16711680
370
    25
100
AcDbLine
 10
1821.896034188008
 20
360.9700465621275
 30
0.0
 11
1821.538369800094
 21
362.5370881504209
 31
0.0
  0
LINE
  5
24C
330
1E1
100
AcDbEntity
  8
Layer 01
 62
     1
420
 16711680
370
    25
100
AcDbLine
 10
1821.538369800094
 20
362.5370881504209
 30
0.0
 11
1821.538369800094
 21
362.5370881504209
 31
0.0
  0
LINE
  5
24D
330
1E1
100
AcDbEntity
  8
Layer 01
 62
     1
420
 16711680
370
    25
100
AcDbLine
 10
1821.538369800094
 20
362.5370881504209
 30
0.0
 11
1821.359361422717
 21
363.0884278089104
 31
0.0
  0
LINE
  5
24E
330
1E1
100
AcDbEntity
  8
Layer 01
 62
     1
420
 16711680
370
    25
100
AcDbLine
 10
1821.359361422717
 20
363.0884278089104
 30
0.0
 11
1821.092788380105
 21
363.5848253457159
 31
0.0
  0
LINE
  5
24F
330
1E1
100
AcDbEntity
  8
Layer 01
 62
     1
420
 16711680
370
    25
100
AcDbLine
 10
1821.092788380105
 20
363.5848253457159
 30
0.0
 11
1820.749543927431
 21
364.0194924287566
 31
0.0
  0
LINE
  5
250
330
1E1
100
AcDbEntity
  8
Layer 01
 62
     1
420
 16711680
370
    25
100
AcDbLine
 10
1820.749543927431
 20
364.0194924287566
 30
0.0
 11
1820.340521319869
 21
364.3856497609848
 31
0.0
  0
LINE
  5
251
330
1E1
100
AcDbEntity
  8
Layer 01
 62
     1
420
 16711680
370
    25
100
AcDbLine
 10
1820.340521319869
 20
364.3856497609848
 30
0.0
 11
1819.87661381259
 21
364.6765150336836
 31
0.0
  0
LINE
  5
252
330
1E1
100
AcDbEntity
  8
Layer 01
 62
     1
420
 16711680
370
    25
100
AcDbLine
 10
1819.87661381259
 20
364.6765150336836
 30
0.0
 11
1819.368708637408
 21
364.8853059381271
 31
0.0
  0
LINE
  5
253
330
1E1
100
AcDbEntity
  8
Layer 01
 62
     1
420
 16711680
370
    25
100
AcDbLine
 10
1819.368708637408
 20
364.8853059381271
 30
0.0
 11
1818.827705072849
 21
365.0052401655963
 31
0.0
  0
LINE
  5
254
330
1E1
100
AcDbEntity
  8
Layer 01
 62
     1
420
 16711680
370
    25
100
AcDbLine
 10
1818.827705072849
 20
365.0052401655963
 30
0.0
 11
1818.264493362413
 21
365.0295384190489
 31
0.0
  0
LINE
  5
255
330
1E1
100
AcDbEntity
  8
Layer 01
 62
     1
420
 16711680
370
    25
100
AcDbLine
 10
1818.264493362413
 20
365.0295384190489
 30
0.0
 11
1817.689966761271
 21
364.9514123663974
 31
0.0
  0
LINE
  5
256
330
1E1
100
AcDbEntity
  8
Layer 01
 62
     1
420
 16711680
370
    25
100
AcDbLine
 10
1817.689966761271
 20
364.9514123663974
 30
0.0
 11
1817.689966761271
 21
364.9514123663974
 31
0.0
  0
LINE
  5
257
330
1E1
100
AcDbEntity
  8
Layer 01
 62
     1
420
 16711680
370
    25
100
AcDbLine
 10
1817.689966761271
 20
364.9514123663974
 30
0.0
 11
1817.141066565516
 21
364.7731237811104
 31
0.0
  0
LINE
  5
258
330
1E1
100
AcDbEntity
  8
Layer 01
 62
     1
420
 16711680
370
    25
100
AcDbLine
 10
1817.141066565516
 20
364.7731237811104
 30
0.0
 11
1816.646223056816
 21
364.5073307642337
 31
0.0
  0
LINE
  5
259
330
1E1
100
AcDbEntity
  8
Layer 01
 62
     1
420
 16711680
370
    25
100
AcDbLine
 10
1816.646223056816
 20
364.5073307642337
 30
0.0
 11
1816.212372139704
 21
364.1648934424394
 31
0.0
  0
LINE
  5
25A
330
1E1
100
AcDbEntity
  8
Layer 01
 62
     1
420
 16711680
370
    25
100
AcDbLine
 10
1816.212372139704
 20
364.1648934424394
 30
0.0
 11
1815.846461765429
 21
363.7566598956602
 31
0.0
  0
LINE
  5
25B
330
1E1
100
AcDbEntity
  8
Layer 01
 62
     1
420
 16711680
370
    25
100
AcDbLine
 10
1815.846461765429
 20
363.7566598956602
 30
0.0
 11
1815.555433861883
 21
363.2934842272003
 31
0.0
  0
LINE
  5
25C
330
1E1
100
AcDbEntity
  8
Layer 01
 62
     1
420
 16711680
370
    25
100
AcDbLine
 10
1815.555433861883
 20
363.2934842272003
 30
0.0
 11
1815.346236380318
 21
362.7862235520475
 31
0.0
  0
LINE
  5
25D
330
1E1
100
AcDbEntity
  8
Layer 01
 62
     1
420
 16711680
370
    25
100
AcDbLine
 10
1815.346236380318
 20
362.7862235520475
 30
0.0
 11
1815.225808236936
 21
362.2457259501321
 31
0.0
  0
LINE
  5
25E
330
1E1
100
AcDbEntity
  8
Layer 01
 62
     1
420
 16711680
370
    25
100
AcDbLine
 10
1815.225808236936
 20
362.2457259501321
 30
0.0
 11
1815.201100394682
 21
361.6828455247573
 31
0.0
  0
LINE
  5
25F
330
1E1
100
AcDbEntity
  8
Layer 01
 62
     1
420
 16711680
370
    25
100
AcDbLine
 10
1815.201100394682
 20
361.6828455247573
 30
0.0
 11
1815.279048758072
 21
361.1084393909119
 31
0.0
  0
LINE
  5
260
330
1E1
100
AcDbEntity
  8
Layer 01
 62
     1
420
 16711680
370
    25
100
AcDbLine
 10
1815.279048758072
 20
361.1084393909119
 30
0.0
 11
1815.993374643669
 21
357.9787773640628
 31
0.0
  0
LINE
  5
261
330
1E1
100
AcDbEntity
  8
Layer 01
 62
     1
420
 16711680
370
    25
100
AcDbLine
 10
1796.51743304398
 20
312.4884684696632
 30
0.0
 11
1803.749256443727
 21
309.0058041392252
 31
0.0
  0
LINE
  5
262
330
1E1
100
AcDbEntity
  8
Layer 01
 62
     1
420
 16711680
370
    25
100
AcDbLine
 10
1803.749256443727
 20
309.0058041392252
 30
0.0
 11
1795.983247928336
 21
300.2676998432239
 31
0.0
  0
LINE
  5
263
330
1E1
100
AcDbEntity
  8
Layer 01
 62
     1
420
 16711680
370
    25
100
AcDbLine
 10
1800.079584707509
 20
314.340041762607
 30
0.0
 11
1797.29392607729
 21
308.5555606349084
 31
0.0
  0
LINE
  5
264
330
1E1
100
AcDbEntity
  8
Layer 01
 62
     1
420
 16711680
370
    25
100
AcDbLine
 10
1798.14340723311
 20
275.4243258569435
 30
0.0
 11
1795.251168175102
 21
274.0314950359953
 31
0.0
  0
LINE
  5
265
330
1E1
100
AcDbEntity
  8
Layer 01
 62
     1
420
 16711680
370
    25
100
AcDbLine
 10
1795.251168175102
 20
274.0314950359953
 30
0.0
 11
1795.251168175102
 21
274.0314950359953
 31
0.0
  0
LINE
  5
266
330
1E1
100
AcDbEntity
  8
Layer 01
 62
     1
420
 16711680
370
    25
100
AcDbLine
 10
1795.251168175102
 20
274.0314950359953
 30
0.0
 11
1794.754541750433
 21
273.734835286395
 31
0.0
  0
LINE
  5
267
330
1E1
100
AcDbEntity
  8
Layer 01
 62
     1
420
 16711680
370
    25
100
AcDbLine
 10
1794.754541750433
 20
273.734835286395
 30
0.0
 11
1794.330445672554
 21
273.3648380591279
 31
0.0
  0
LINE
  5
268
330
1E1
100
AcDbEntity
  8
Layer 01
 62
     1
420
 16711680
370
    25
100
AcDbLine
 10
1794.330445672554
 20
273.3648380591279
 30
0.0
 11
1793.983171588854
 21
272.9336675393341
 31
0.0
  0
LINE
  5
269
330
1E1
100
AcDbEntity
  8
Layer 01
 62
     1
420
 16711680
370
    25
100
AcDbLine
 10
1793.983171588854
 20
272.9336675393341
 30
0.0
 11
1793.71701415841
 21
272.4534879121498
 31
0.0
  0
LINE
  5
26A
330
1E1
100
AcDbEntity
  8
Layer 01
 62
     1
420
 16711680
370
    25
100
AcDbLine
 10
1793.71701415841
 20
272.4534879121498
 30
0.0
 11
1793.536268040302
 21
271.9364573393483
 31
0.0
  0
LINE
  5
26B
330
1E1
100
AcDbEntity
  8
Layer 01
 62
     1
420
 16711680
370
    25
100
AcDbLine
 10
1793.536268040302
 20
271.9364573393483
 30
0.0
 11
1793.445230905281
 21
271.3947490411164
 31
0.0
  0
LINE
  5
26C
330
1E1
100
AcDbEntity
  8
Layer 01
 62
     1
420
 16711680
370
    25
100
AcDbLine
 10
1793.445230905281
 20
271.3947490411164
 30
0.0
 11
1793.448200424108
 21
270.8405181675447
 31
0.0
  0
LINE
  5
26D
330
1E1
100
AcDbEntity
  8
Layer 01
 62
     1
420
 16711680
370
    25
100
AcDbLine
 10
1793.448200424108
 20
270.8405181675447
 30
0.0
 11
1793.549468244175
 21
270.2859349271317
 31
0.0
  0
LINE
  5
26E
330
1E1
100
AcDbEntity
  8
Layer 01
 62
     1
420
 16711680
370
    25
100
AcDbLine
 10
1793.549468244175
 20
270.2859349271317
 30
0.0
 11
1793.753329024567
 21
269.7431574816543
 31
0.0
  0
LINE
  5
26F
330
1E1
100
AcDbEntity
  8
Layer 01
 62
     1
420
 16711680
370
    25
100
AcDbLine
 10
1793.753329024567
 20
269.7431574816543
 30
0.0
 11
1794.4471875167
 21
268.3023475486849
 31
0.0
  0
LINE
  5
270
330
1E1
100
AcDbEntity
  8
Layer 01
 62
     1
420
 16711680
370
    25
100
AcDbLine
 10
1794.4471875167
 20
268.3023475486849
 30
0.0
 11
1794.4471875167
 21
268.3023475486849
 31
0.0
  0
LINE
  5
271
330
1E1
100
AcDbEntity
  8
Layer 01
 62
     1
420
 16711680
370
    25
100
AcDbLine
 10
1794.4471875167
 20
268.3023475486849
 30
0.0
 11
1794.744292995291
 21
267.8047844907985
 31
0.0
  0
LINE
  5
272
330
1E1
100
AcDbEntity
  8
Layer 01
 62
     1
420
 16711680
370
    25
100
AcDbLine
 10
1794.744292995291
 20
267.8047844907985
 30
0.0
 11
1795.114353467887
 21
267.3804775951524
 31
0.0
  0
LINE
  5
273
330
1E1
100
AcDbEntity
  8
Layer 01
 62
     1
420
 16711680
370
    25
100
AcDbLine
 10
1795.114353467887
 20
267.3804775951524
 30
0.0
 11
1795.54525895963
 21
267.0335378081983
 31
0.0
  0
LINE
  5
274
330
1E1
100
AcDbEntity
  8
Layer 01
 62
     1
420
 16711680
370
    25
100
AcDbLine
 10
1795.54525895963
 20
267.0335378081983
 30
0.0
 11
1796.024899495669
 21
266.7680790880676
 31
0.0
  0
LINE
  5
275
330
1E1
100
AcDbEntity
  8
Layer 01
 62
     1
420
 16711680
370
    25
100
AcDbLine
 10
1796.024899495669
 20
266.7680790880676
 30
0.0
 11
1796.541165101144
 21
266.5882153928949
 31
0.0
  0
LINE
  5
276
330
1E1
100
AcDbEntity
  8
Layer 01
 62
     1
420
 16711680
370
    25
100
AcDbLine
 10
1796.541165101144
 20
266.5882153928949
 30
0.0
 11
1797.081945801203
 21
266.4980636924952
 31
0.0
  0
LINE
  5
277
330
1E1
100
AcDbEntity
  8
Layer 01
 62
     1
420
 16711680
370
    25
100
AcDbLine
 10
1797.081945801203
 20
266.4980636924952
 30
0.0
 11
1797.635134632671
 21
266.5017379449987
 31
0.0
  0
LINE
  5
278
330
1E1
100
AcDbEntity
  8
Layer 01
 62
     1
420
 16711680
370
    25
100
AcDbLine
 10
1797.635134632671
 20
266.5017379449987
 30
0.0
 11
1798.188618609015
 21
266.6033521085412
 31
0.0
  0
LINE
  5
279
330
1E1
100
AcDbEntity
  8
Layer 01
 62
     1
420
 16711680
370
    25
100
AcDbLine
 10
1798.188618609015
 20
266.6033521085412
 30
0.0
 11
1798.730290767062
 21
266.8070201412573
 31
0.0
  0
LINE
  5
27A
330
1E1
100
AcDbEntity
  8
Layer 01
 62
     1
420
 16711680
370
    25
100
AcDbLine
 10
1798.730290767062
 20
266.8070201412573
 30
0.0
 11
1801.622529825067
 21
268.1998509622081
 31
0.0
  0
LINE
  5
27B
330
1E1
100
AcDbEntity
  8
Layer 01
 62
     1
420
 16711680
370
    25
100
AcDbLine
 10
1801.622529825067
 20
268.1998509622081
 30
0.0
 11
1804.415663450958
 21
262.399850635198
 31
0.0
  0
LINE
  5
27C
330
1E1
100
AcDbEntity
  8
Layer 01
 62
     1
420
 16711680
370
    25
100
AcDbLine
 10
1804.415663450958
 20
262.399850635198
 30
0.0
 11
1798.631182323259
 21
259.614192004982
 31
0.0
  0
LINE
  5
27D
330
1E1
100
AcDbEntity
  8
Layer 01
 62
     1
420
 16711680
370
    25
100
AcDbLine
 10
1829.461979654494
 20
210.7931430978638
 30
0.0
 11
1829.461979654494
 21
210.7931430978638
 31
0.0
  0
LINE
  5
27E
330
1E1
100
AcDbEntity
  8
Layer 01
 62
     1
420
 16711680
370
    25
100
AcDbLine
 10
1829.461979654494
 20
210.7931430978638
 30
0.0
 11
1829.330456473224
 21
211.7664375280608
 31
0.0
  0
LINE
  5
27F
330
1E1
100
AcDbEntity
  8
Layer 01
 62
     1
420
 16711680
370
    25
100
AcDbLine
 10
1829.330456473224
 20
211.7664375280608
 30
0.0
 11
1829.065301933013
 21
212.6925358836573
 31
0.0
  0
LINE
  5
280
330
1E1
100
AcDbEntity
  8
Layer 01
 62
     1
420
 16711680
370
    25
100
AcDbLine
 10
1829.065301933013
 20
212.6925358836573
 30
0.0
 11
1828.675936576353
 21
213.5604033604165
 31
0.0
  0
LINE
  5
281
330
1E1
100
AcDbEntity
  8
Layer 01
 62
     1
420
 16711680
370
    25
100
AcDbLine
 10
1828.675936576353
 20
213.5604033604165
 30
0.0
 11
1828.171783957415
 21
214.3590021424053
 31
0.0
  0
LINE
  5
282
330
1E1
100
AcDbEntity
  8
Layer 01
 62
     1
420
 16711680
370
    25
100
AcDbLine
 10
1828.171783957415
 20
214.3590021424053
 30
0.0
 11
1827.562258595321
 21
215.0773004370614
 31
0.0
  0
LINE
  5
283
330
1E1
100
AcDbEntity
  8
Layer 01
 62
     1
420
 16711680
370
    25
100
AcDbLine
 10
1827.562258595321
 20
215.0773004370614
 30
0.0
 11
1826.856784044244
 21
215.704257416777
 31
0.0
  0
LINE
  5
284
330
1E1
100
AcDbEntity
  8
Layer 01
 62
     1
420
 16711680
370
    25
100
AcDbLine
 10
1826.856784044244
 20
215.704257416777
 30
0.0
 11
1826.064780846672
 21
216.2288412889901
 31
0.0
  0
LINE
  5
285
330
1E1
100
AcDbEntity
  8
Layer 01
 62
     1
420
 16711680
370
    25
100
AcDbLine
 10
1826.064780846672
 20
216.2288412889901
 30
0.0
 11
1825.195666533409
 21
216.6400142377726
 31
0.0
  0
LINE
  5
286
330
1E1
100
AcDbEntity
  8
Layer 01
 62
     1
420
 16711680
370
    25
100
AcDbLine
 10
1825.195666533409
 20
216.6400142377726
 30
0.0
 11
1824.25886767031
 21
216.92674145888
 31
0.0
  0
LINE
  5
287
330
1E1
100
AcDbEntity
  8
Layer 01
 62
     1
420
 16711680
370
    25
100
AcDbLine
 10
1824.25886767031
 20
216.92674145888
 30
0.0
 11
1819.574542069754
 21
217.995909786001
 31
0.0
  0
LINE
  5
288
330
1E1
100
AcDbEntity
  8
Layer 01
 62
     1
420
 16711680
370
    25
100
AcDbLine
 10
1819.574542069754
 20
217.995909786001
 30
0.0
 11
1819.574542069754
 21
217.995909786001
 31
0.0
  0
LINE
  5
289
330
1E1
100
AcDbEntity
  8
Layer 01
 62
     1
420
 16711680
370
    25
100
AcDbLine
 10
1819.574542069754
 20
217.995909786001
 30
0.0
 11
1819.00001245693
 21
218.0738792311684
 31
0.0
  0
LINE
  5
28A
330
1E1
100
AcDbEntity
  8
Layer 01
 62
     1
420
 16711680
370
    25
100
AcDbLine
 10
1819.00001245693
 20
218.0738792311684
 30
0.0
 11
1818.43679773481
 21
218.0492015057341
 31
0.0
  0
LINE
  5
28B
330
1E1
100
AcDbEntity
  8
Layer 01
 62
     1
420
 16711680
370
    25
100
AcDbLine
 10
1818.43679773481
 20
218.0492015057341
 30
0.0
 11
1817.895803205302
 21
217.9287673389913
 31
0.0
  0
LINE
  5
28C
330
1E1
100
AcDbEntity
  8
Layer 01
 62
     1
420
 16711680
370
    25
100
AcDbLine
 10
1817.895803205302
 20
217.9287673389913
 30
0.0
 11
1817.387931158623
 21
217.719473483588
 31
0.0
  0
LINE
  5
28D
330
1E1
100
AcDbEntity
  8
Layer 01
 62
     1
420
 16711680
370
    25
100
AcDbLine
 10
1817.387931158623
 20
217.719473483588
 30
0.0
 11
1816.924086896676
 21
217.4282106688179
 31
0.0
  0
LINE
  5
28E
330
1E1
100
AcDbEntity
  8
Layer 01
 62
     1
420
 16711680
370
    25
100
AcDbLine
 10
1816.924086896676
 20
217.4282106688179
 30
0.0
 11
1816.515169697999
 21
217.0618756473252
 31
0.0
  0
LINE
  5
28F
330
1E1
100
AcDbEntity
  8
Layer 01
 62
     1
420
 16711680
370
    25
100
AcDbLine
 10
1816.515169697999
 20
217.0618756473252
 30
0.0
 11
1816.17208486449
 21
216.6273621600897
 31
0.0
  0
LINE
  5
290
330
1E1
100
AcDbEntity
  8
Layer 01
 62
     1
420
 16711680
370
    25
100
AcDbLine
 10
1816.17208486449
 20
216.6273621600897
 30
0.0
 11
1815.905734686375
 21
216.1315669597588
 31
0.0
  0
LINE
  5
291
330
1E1
100
AcDbEntity
  8
Layer 01
 62
     1
420
 16711680
370
    25
100
AcDbLine
 10
1815.905734686375
 20
216.1315669597588
 30
0.0
 11
1815.727024465557
 21
215.5813807756204
 31
0.0
  0
LINE
  5
292
330
1E1
100
AcDbEntity
  8
Layer 01
 62
     1
420
 16711680
370
    25
100
AcDbLine
 10
1815.727024465557
 20
215.5813807756204
 30
0.0
 11
1815.727024465557
 21
215.5813807756204
 31
0.0
  0
LINE
  5
293
330
1E1
100
AcDbEntity
  8
Layer 01
 62
     1
420
 16711680
370
    25
100
AcDbLine
 10
1815.727024465557
 20
215.5813807756204
 30
0.0
 11
1815.649055020386
 21
215.0069776534579
 31
0.0
  0
LINE
  5
294
330
1E1
100
AcDbEntity
  8
Layer 01
 62
     1
420
 16711680
370
    25
100
AcDbLine
 10
1815.649055020386
 20
215.0069776534579
 30
0.0
 11
1815.673768886007
 21
214.4440972280865
 31
0.0
  0
LINE
  5
295
330
1E1
100
AcDbEntity
  8
Layer 01
 62
     1
420
 16711680
370
    25
100
AcDbLine
 10
1815.673768886007
 20
214.4440972280865
 30
0.0
 11
1815.794308461635
 21
213.9035725210281
 31
0.0
  0
LINE
  5
296
330
1E1
100
AcDbEntity
  8
Layer 01
 62
     1
420
 16711680
370
    25
100
AcDbLine
 10
1815.794308461635
 20
213.9035725210281
 30
0.0
 11
1816.003816146485
 21
213.3962395654962
 31
0.0
  0
LINE
  5
297
330
1E1
100
AcDbEntity
  8
Layer 01
 62
     1
420
 16711680
370
    25
100
AcDbLine
 10
1816.003816146485
 20
213.3962395654962
 30
0.0
 11
1816.29543433978
 21
212.9329313830115
 31
0.0
  0
LINE
  5
298
330
1E1
100
AcDbEntity
  8
Layer 01
 62
     1
420
 16711680
370
    25
100
AcDbLine
 10
1816.29543433978
 20
212.9329313830115
 30
0.0
 11
1816.662308452416
 21
212.5244779834221
 31
0.0
  0
LINE
  5
299
330
1E1
100
AcDbEntity
  8
Layer 01
 62
     1
420
 16711680
370
    25
100
AcDbLine
 10
1816.662308452416
 20
212.5244779834221
 30
0.0
 11
1817.097580883611
 21
212.181715399928
 31
0.0
  0
LINE
  5
29A
330
1E1
100
AcDbEntity
  8
Layer 01
 62
     1
420
 16711680
370
    25
100
AcDbLine
 10
1817.097580883611
 20
212.181715399928
 30
0.0
 11
1817.594394032588
 21
211.9154736423785
 31
0.0
  0
LINE
  5
29B
330
1E1
100
AcDbEntity
  8
Layer 01
 62
     1
420
 16711680
370
    25
100
AcDbLine
 10
1817.594394032588
 20
211.9154736423785
 30
0.0
 11
1818.145893310242
 21
211.7365887439786
 31
0.0
  0
LINE
  5
29C
330
1E1
100
AcDbEntity
  8
Layer 01
 62
     1
420
 16711680
370
    25
100
AcDbLine
 10
1818.145893310242
 20
211.7365887439786
 30
0.0
 11
1819.704978033685
 21
211.3807404005414
 31
0.0
  0
LINE
  5
29D
330
1E1
100
AcDbEntity
  8
Layer 01
 62
     1
420
 16711680
370
    25
100
AcDbLine
 10
1819.704978033685
 20
211.3807404005414
 30
0.0
 11
1819.704978033685
 21
211.3807404005414
 31
0.0
  0
LINE
  5
29E
330
1E1
100
AcDbEntity
  8
Layer 01
 62
     1
420
 16711680
370
    25
100
AcDbLine
 10
1819.704978033685
 20
211.3807404005414
 30
0.0
 11
1820.279203466587
 21
211.3026836165824
 31
0.0
  0
LINE
  5
29F
330
1E1
100
AcDbEntity
  8
Layer 01
 62
     1
420
 16711680
370
    25
100
AcDbLine
 10
1820.279203466587
 20
211.3026836165824
 30
0.0
 11
1820.841602022779
 21
211.32716558266
 31
0.0
  0
LINE
  5
2A0
330
1E1
100
AcDbEntity
  8
Layer 01
 62
     1
420
 16711680
370
    25
100
AcDbLine
 10
1820.841602022779
 20
211.32716558266
 30
0.0
 11
1821.381431031207
 21
211.4473678498618
 31
0.0
  0
LINE
  5
2A1
330
1E1
100
AcDbEntity
  8
Layer 01
 62
     1
420
 16711680
370
    25
100
AcDbLine
 10
1821.381431031207
 20
211.4473678498618
 30
0.0
 11
1821.887938785766
 21
211.6564779926374
 31
0.0
  0
LINE
  5
2A2
330
1E1
100
AcDbEntity
  8
Layer 01
 62
     1
420
 16711680
370
    25
100
AcDbLine
 10
1821.887938785766
 20
211.6564779926374
 30
0.0
 11
1822.350382615406
 21
211.9476775620815
 31
0.0
  0
LINE
  5
2A3
330
1E1
100
AcDbEntity
  8
Layer 01
 62
     1
420
 16711680
370
    25
100
AcDbLine
 10
1822.350382615406
 20
211.9476775620815
 30
0.0
 11
1822.758010814027
 21
212.3141541326426
 31
0.0
  0
LINE
  5
2A4
330
1E1
100
AcDbEntity
  8
Layer 01
 62
     1
420
 16711680
370
    25
100
AcDbLine
 10
1822.758010814027
 20
212.3141541326426
 30
0.0
 11
1823.100077698889
 21
212.7490892554126
 31
0.0
  0
LINE
  5
2A5
330
1E1
100
AcDbEntity
  8
Layer 01
 62
     1
420
 16711680
370
    25
100
AcDbLine
 10
1823.100077698889
 20
212.7490892554126
 30
0.0
 11
1823.365837587256
 21
213.2456705048457
 31
0.0
  0
LINE
  5
2A6
330
1E1
100
AcDbEntity
  8
Layer 01
 62
     1
420
 16711680
370
    25
100
AcDbLine
 10
1823.365837587256
 20
213.2456705048457
 30
0.0
 11
1823.544541784714
 21
213.7970824437112
 31
0.0
  0
LINE
  5
2A7
330
1E1
100
AcDbEntity
  8
Layer 01
 62
     1
420
 16711680
370
    25
100
AcDbLine
 10
1823.544541784714
 20
213.7970824437112
 30
0.0
 11
1824.25886767031
 21
216.92674145888
 31
0.0
  0
LINE
  5
2A8
330
1E1
100
AcDbEntity
  8
Layer 01
 62
     1
420
 16711680
370
    25
100
AcDbLine
 10
1814.769110697282
 20
219.5051180375259
 30
0.0
 11
1813.160721721572
 21
212.4583022864562
 31
0.0
  0
LINE
  5
2A9
330
1E1
100
AcDbEntity
  8
Layer 01
 62
     1
420
 16711680
370
    25
100
AcDbLine
 10
1871.288835936791
 20
235.8913204720114
 30
0.0
 11
1884.594804075665
 21
242.3919073895894
 31
0.0
  0
LINE
  5
2AA
330
1E1
100
AcDbEntity
  8
Layer 01
 62
     1
420
 16711680
370
    25
100
AcDbLine
 10
1884.594804075665
 20
242.3919073895894
 30
0.0
 11
1880.586733683722
 21
247.4178722161136
 31
0.0
  0
LINE
  5
2AB
330
1E1
100
AcDbEntity
  8
Layer 01
 62
     1
420
 16711680
370
    25
100
AcDbLine
 10
1879.5617527605
 20
238.3781840698183
 30
0.0
 11
1877.55799915683
 21
240.8908126104018
 31
0.0
  0
LINE
  5
2AC
330
1E1
100
AcDbEntity
  8
Layer 01
 62
     1
420
 16711680
370
    25
100
AcDbLine
 10
1825.285218909014
 20
280.0674606775737
 30
0.0
 11
1810.272668902078
 21
280.0674606775737
 31
0.0
  0
LINE
  5
2AD
330
1E1
100
AcDbEntity
  8
Layer 01
 62
     1
420
 16711680
370
    25
100
AcDbLine
 10
1810.272668902078
 20
280.0674606775737
 30
0.0
 11
1825.285218909014
 21
307.1049747809341
 31
0.0
  0
LINE
  5
2AE
330
1E1
100
AcDbEntity
  8
Layer 01
 62
     1
420
 16711680
370
    25
100
AcDbLine
 10
1825.285218909014
 20
307.1049747809341
 30
0.0
 11
1810.272668902078
 21
307.1049747809341
 31
0.0
  0
LINE
  5
2AF
330
1E1
100
AcDbEntity
  8
Layer 01
 62
     1
420
 16711680
370
    25
100
AcDbLine
 10
1850.210480539242
 20
293.5862192350938
 30
0.0
 11
1835.426830440006
 21
293.5862192350938
 31
0.0
  0
LINE
  5
2B0
330
1E1
100
AcDbEntity
  8
Layer 01
 62
     1
420
 16711680
370
    25
100
AcDbLine
 10
1872.357052572278
 20
280.0672408247597
 30
0.0
 11
1860.349047259345
 21
280.0672408247597
 31
0.0
  0
LINE
  5
2B1
330
1E1
100
AcDbEntity
  8
Layer 01
 62
     1
420
 16711680
370
    25
100
AcDbLine
 10
1860.349047259345
 20
280.0672408247597
 30
0.0
 11
1871.444838072458
 21
297.9300410139458
 31
0.0
  0
LINE
  5
2B2
330
1E1
100
AcDbEntity
  8
Layer 01
 62
     1
420
 16711680
370
    25
100
AcDbLine
 10
1871.444838072458
 20
297.9300410139458
 30
0.0
 11
1871.444838072458
 21
297.9300410139458
 31
0.0
  0
LINE
  5
2B3
330
1E1
100
AcDbEntity
  8
Layer 01
 62
     1
420
 16711680
370
    25
100
AcDbLine
 10
1871.444838072458
 20
297.9300410139458
 30
0.0
 11
1871.458104533347
 21
297.9464546829245
 31
0.0
  0
LINE
  5
2B4
330
1E1
100
AcDbEntity
  8
Layer 01
 62
     1
420
 16711680
370
    25
100
AcDbLine
 10
1871.458104533347
 20
297.9464546829245
 30
0.0
 11
1871.470822868045
 21
297.9630099009721
 31
0.0
  0
LINE
  5
2B5
330
1E1
100
AcDbEntity
  8
Layer 01
 62
     1
420
 16711680
370
    25
100
AcDbLine
 10
1871.470822868045
 20
297.9630099009721
 30
0.0
 11
1871.483083427016
 21
297.9798421938024
 31
0.0
  0
LINE
  5
2B6
330
1E1
100
AcDbEntity
  8
Layer 01
 62
     1
420
 16711680
370
    25
100
AcDbLine
 10
1871.483083427016
 20
297.9798421938024
 30
0.0
 11
1871.494967525693
 21
297.9970931104835
 31
0.0
  0
LINE
  5
2B7
330
1E1
100
AcDbEntity
  8
Layer 01
 62
     1
420
 16711680
370
    25
100
AcDbLine
 10
1871.494967525693
 20
297.9970931104835
 30
0.0
 11
1871.506556479497
 21
298.0149011884037
 31
0.0
  0
LINE
  5
2B8
330
1E1
100
AcDbEntity
  8
Layer 01
 62
     1
420
 16711680
370
    25
100
AcDbLine
 10
1871.506556479497
 20
298.0149011884037
 30
0.0
 11
1871.517937627214
 21
298.0334079766344
 31
0.0
  0
LINE
  5
2B9
330
1E1
100
AcDbEntity
  8
Layer 01
 62
     1
420
 16711680
370
    25
100
AcDbLine
 10
1871.517937627214
 20
298.0334079766344
 30
0.0
 11
1871.529192284272
 21
298.0527520125709
 31
0.0
  0
LINE
  5
2BA
330
1E1
100
AcDbEntity
  8
Layer 01
 62
     1
420
 16711680
370
    25
100
AcDbLine
 10
1871.529192284272
 20
298.0527520125709
 30
0.0
 11
1871.540404777779
 21
298.0730748452801
 31
0.0
  0
LINE
  5
2BB
330
1E1
100
AcDbEntity
  8
Layer 01
 62
     1
420
 16711680
370
    25
100
AcDbLine
 10
1871.540404777779
 20
298.0730748452801
 30
0.0
 11
1871.551659434837
 21
298.0945120004686
 31
0.0
  0
LINE
  5
2BC
330
1E1
100
AcDbEntity
  8
Layer 01
 62
     1
420
 16711680
370
    25
100
AcDbLine
 10
1871.551659434837
 20
298.0945120004686
 30
0.0
 11
1871.551659434837
 21
298.0945120004686
 31
0.0
  0
LINE
  5
2BD
330
1E1
100
AcDbEntity
  8
Layer 01
 62
     1
420
 16711680
370
    25
100
AcDbLine
 10
1871.551659434837
 20
298.0945120004686
 30
0.0
 11
1872.009802582038
 21
299.0781816764663
 31
0.0
  0
LINE
  5
2BE
330
1E1
100
AcDbEntity
  8
Layer 01
 62
     1
420
 16711680
370
    25
100
AcDbLine
 10
1872.009802582038
 20
299.0781816764663
 30
0.0
 11
1872.277441760213
 21
300.097843968603
 31
0.0
  0
LINE
  5
2BF
330
1E1
100
AcDbEntity
  8
Layer 01
 62
     1
420
 16711680
370
    25
100
AcDbLine
 10
1872.277441760213
 20
300.097843968603
 30
0.0
 11
1872.361136413586
 21
301.1304564949789
 31
0.0
  0
LINE
  5
2C0
330
1E1
100
AcDbEntity
  8
Layer 01
 62
     1
420
 16711680
370
    25
100
AcDbLine
 10
1872.361136413586
 20
301.1304564949789
 30
0.0
 11
1872.267445986387
 21
302.1529798853809
 31
0.0
  0
LINE
  5
2C1
330
1E1
100
AcDbEntity
  8
Layer 01
 62
     1
420
 16711680
370
    25
100
AcDbLine
 10
1872.267445986387
 20
302.1529798853809
 30
0.0
 11
1872.002926911164
 21
303.1423717579016
 31
0.0
  0
LINE
  5
2C2
330
1E1
100
AcDbEntity
  8
Layer 01
 62
     1
420
 16711680
370
    25
100
AcDbLine
 10
1872.002926911164
 20
303.1423717579016
 30
0.0
 11
1871.574141643815
 21
304.0755927423317
 31
0.0
  0
LINE
  5
2C3
330
1E1
100
AcDbEntity
  8
Layer 01
 62
     1
420
 16711680
370
    25
100
AcDbLine
 10
1871.574141643815
 20
304.0755927423317
 30
0.0
 11
1870.987646616891
 21
304.9296064801351
 31
0.0
  0
LINE
  5
2C4
330
1E1
100
AcDbEntity
  8
Layer 01
 62
     1
420
 16711680
370
    25
100
AcDbLine
 10
1870.987646616891
 20
304.9296064801351
 30
0.0
 11
1870.250004286299
 21
305.6813675777305
 31
0.0
  0
LINE
  5
2C5
330
1E1
100
AcDbEntity
  8
Layer 01
 62
     1
420
 16711680
370
    25
100
AcDbLine
 10
1870.250004286299
 20
305.6813675777305
 30
0.0
 11
1869.367768072896
 21
306.3078396765825
 31
0.0
  0
LINE
  5
2C6
330
1E1
100
AcDbEntity
  8
Layer 01
 62
     1
420
 16711680
370
    25
100
AcDbLine
 10
1869.367768072896
 20
306.3078396765825
 30
0.0
 11
1869.367768072896
 21
306.3078396765825
 31
0.0
  0
LINE
  5
2C7
330
1E1
100
AcDbEntity
  8
Layer 01
 62
     1
420
 16711680
370
    25
100
AcDbLine
 10
1869.367768072896
 20
306.3078396765825
 30
0.0
 11
1868.381363789298
 21
306.7594715664743
 31
0.0
  0
LINE
  5
2C8
330
1E1
100
AcDbEntity
  8
Layer 01
 62
     1
420
 16711680
370
    25
100
AcDbLine
 10
1868.381363789298
 20
306.7594715664743
 30
0.0
 11
1867.360138434006
 21
307.0229877514706
 31
0.0
  0
LINE
  5
2C9
330
1E1
100
AcDbEntity
  8
Layer 01
 62
     1
420
 16711680
370
    25
100
AcDbLine
 10
1867.360138434006
 20
307.0229877514706
 30
0.0
 11
1866.326926582835
 21
307.1043152224928
 31
0.0
  0
LINE
  5
2CA
330
1E1
100
AcDbEntity
  8
Layer 01
 62
     1
420
 16711680
370
    25
100
AcDbLine
 10
1866.326926582835
 20
307.1043152224928
 30
0.0
 11
1865.304556788237
 21
307.0093900055172
 31
0.0
  0
LINE
  5
2CB
330
1E1
100
AcDbEntity
  8
Layer 01
 62
     1
420
 16711680
370
    25
100
AcDbLine
 10
1865.304556788237
 20
307.0093900055172
 30
0.0
 11
1864.315863626027
 21
306.7441390914734
 31
0.0
  0
LINE
  5
2CC
330
1E1
100
AcDbEntity
  8
Layer 01
 62
     1
420
 16711680
370
    25
100
AcDbLine
 10
1864.315863626027
 20
306.7441390914734
 30
0.0
 11
1863.38367263697
 21
306.3144954946465
 31
0.0
  0
LINE
  5
2CD
330
1E1
100
AcDbEntity
  8
Layer 01
 62
     1
420
 16711680
370
    25
100
AcDbLine
 10
1863.38367263697
 20
306.3144954946465
 30
0.0
 11
1862.530818396885
 21
305.7263892176479
 31
0.0
  0
LINE
  5
2CE
330
1E1
100
AcDbEntity
  8
Layer 01
 62
     1
420
 16711680
370
    25
100
AcDbLine
 10
1862.530818396885
 20
305.7263892176479
 30
0.0
 11
1861.780132469901
 21
304.985753274769
 31
0.0
  0
LINE
  5
2CF
330
1E1
100
AcDbEntity
  8
Layer 01
 62
     1
420
 16711680
370
    25
100
AcDbLine
 10
1861.780132469901
 20
304.985753274769
 30
0.0
 11
1861.154440396786
 21
304.098514656937
 31
0.0
  0
LINE
  5
2D0
330
1E1
100
AcDbEntity
  8
Layer 01
 62
     1
420
 16711680
370
    25
100
AcDbLine
 10
1861.154440396786
 20
304.098514656937
 30
0.0
 11
1860.36600303115
 21
302.5860688468485
 31
0.0
  0
ENDBLK
  5
1E4
330
1E1
100
AcDbEntity
  8
0
100
AcDbBlockEnd
  0
BLOCK
  5
2D3
330
2D1
100
AcDbEntity
  8
0
100
AcDbBlockBegin
  2
Block_5
 70
     0
 10
0.0
 20
0.0
 30
0.0
  3
Block_5
  1

  0
LINE
  5
2D5
330
2D1
100
AcDbEntity
  8
Layer 01
 62
     5
420
      255
370
    25
100
AcDbLine
 10
2069.594568690755
 20
635.7023531976434
 30
0.0
 11
2029.384355583779
 21
493.1276578437688
 31
0.0
  0
LINE
  5
2D6
330
2D1
100
AcDbEntity
  8
Layer 01
 62
     5
420
      255
370
    25
100
AcDbLine
 10
2029.384355583779
 20
493.1276578437688
 30
0.0
 11
2095.028018327802
 21
474.1448660150526
 31
0.0
  0
LINE
  5
2D7
330
2D1
100
AcDbEntity
  8
Layer 01
 62
     5
420
      255
370
    25
100
AcDbLine
 10
2095.028018327802
 20
474.1448660150526
 30
0.0
 11
2092.783184640099
 21
466.1852842467915
 31
0.0
  0
LINE
  5
2D8
330
2D1
100
AcDbEntity
  8
Layer 01
 62
     5
420
      255
370
    25
100
AcDbLine
 10
2092.783184640099
 20
466.1852842467915
 30
0.0
 11
2027.046755373397
 21
484.7248702732287
 31
0.0
  0
LINE
  5
2D9
330
2D1
100
AcDbEntity
  8
Layer 01
 62
     5
420
      255
370
    25
100
AcDbLine
 10
2027.046755373397
 20
484.7248702732287
 30
0.0
 11
1946.327144940774
 21
198.6289325357399
 31
0.0
  0
LINE
  5
2DA
330
2D1
100
AcDbEntity
  8
Layer 01
 62
     5
420
      255
370
    25
100
AcDbLine
 10
1946.327144940774
 20
198.6289325357399
 30
0.0
 11
2005.792009052424
 21
181.3887385992878
 31
0.0
  0
LINE
  5
2DB
330
2D1
100
AcDbEntity
  8
Layer 01
 62
     5
420
      255
370
    25
100
AcDbLine
 10
2005.792009052424
 20
181.3887385992878
 30
0.0
 11
2003.547175364722
 21
173.429156831022
 31
0.0
  0
LINE
  5
2DC
330
2D1
100
AcDbEntity
  8
Layer 01
 62
     5
420
      255
370
    25
100
AcDbLine
 10
2003.547175364722
 20
173.429156831022
 30
0.0
 11
1943.989543912898
 21
190.2261420665904
 31
0.0
  0
LINE
  5
2DD
330
2D1
100
AcDbEntity
  8
Layer 01
 62
     5
420
      255
370
    25
100
AcDbLine
 10
1943.989543912898
 20
190.2261420665904
 30
0.0
 11
1903.975600838447
 21
48.46164836614586
 31
0.0
  0
LINE
  5
2DE
330
2D1
100
AcDbEntity
  8
Layer 01
 62
     5
420
      255
370
    25
100
AcDbLine
 10
1903.975600838447
 20
48.46164836614586
 30
0.0
 11
1916.937185320777
 21
44.50897438159324
 31
0.0
  0
LINE
  5
2DF
330
2D1
100
AcDbEntity
  8
Layer 01
 62
     5
420
      255
370
    25
100
AcDbLine
 10
1916.937185320777
 20
44.50897438159324
 30
0.0
 11
2005.967357932169
 21
18.18697565573657
 31
0.0
  0
LINE
  5
2E0
330
2D1
100
AcDbEntity
  8
Layer 01
 62
     5
420
      255
370
    25
100
AcDbLine
 10
2005.967357932169
 20
18.18697565573657
 30
0.0
 11
2010.605814585749
 21
16.88915969551688
 31
0.0
  0
LINE
  5
2E1
330
2D1
100
AcDbEntity
  8
Layer 01
 62
     5
420
      255
370
    25
100
AcDbLine
 10
2010.605814585749
 20
16.88915969551688
 30
0.0
 11
2013.82854339031
 21
15.96082739660687
 31
0.0
  0
LINE
  5
2E2
330
2D1
100
AcDbEntity
  8
Layer 01
 62
     5
420
      255
370
    25
100
AcDbLine
 10
2013.82854339031
 20
15.96082739660687
 30
0.0
 11
2018.182238180253
 21
14.71129242418055
 31
0.0
  0
LINE
  5
2E3
330
2D1
100
AcDbEntity
  8
Layer 01
 62
     5
420
      255
370
    25
100
AcDbLine
 10
2018.182238180253
 20
14.71129242418055
 30
0.0
 11
2040.468249908023
 21
81.66936947511803
 31
0.0
  0
LINE
  5
2E4
330
2D1
100
AcDbEntity
  8
Layer 01
 62
     5
420
      255
370
    25
100
AcDbLine
 10
2040.468249908023
 20
81.66936947511803
 30
0.0
 11
2049.610823037702
 21
121.5648533115162
 31
0.0
  0
LINE
  5
2E5
330
2D1
100
AcDbEntity
  8
Layer 01
 62
     5
420
      255
370
    25
100
AcDbLine
 10
2049.610823037702
 20
121.5648533115162
 30
0.0
 11
2060.240885585768
 21
134.9205331373303
 31
0.0
  0
LINE
  5
2E6
330
2D1
100
AcDbEntity
  8
Layer 01
 62
     5
420
      255
370
    25
100
AcDbLine
 10
2060.240885585768
 20
134.9205331373303
 30
0.0
 11
2062.891652856551
 21
146.9813050165531
 31
0.0
  0
LINE
  5
2E7
330
2D1
100
AcDbEntity
  8
Layer 01
 62
     5
420
      255
370
    25
100
AcDbLine
 10
2062.891652856551
 20
146.9813050165531
 30
0.0
 11
2076.348091876397
 21
276.6296124231685
 31
0.0
  0
LINE
  5
2E8
330
2D1
100
AcDbEntity
  8
Layer 01
 62
     5
420
      255
370
    25
100
AcDbLine
 10
2076.348091876397
 20
276.6296124231685
 30
0.0
 11
2108.141873463619
 21
358.1525394612766
 31
0.0
  0
LINE
  5
2E9
330
2D1
100
AcDbEntity
  8
Layer 01
 62
     5
420
      255
370
    25
100
AcDbLine
 10
2108.141873463619
 20
358.1525394612766
 30
0.0
 11
2110.62202704661
 21
365.5503508476574
 31
0.0
  0
LINE
  5
2EA
330
2D1
100
AcDbEntity
  8
Layer 01
 62
     5
420
      255
370
    25
100
AcDbLine
 10
2110.62202704661
 20
365.5503508476574
 30
0.0
 11
2120.309881528737
 21
369.4752071534255
 31
0.0
  0
LINE
  5
2EB
330
2D1
100
AcDbEntity
  8
Layer 01
 62
     5
420
      255
370
    25
100
AcDbLine
 10
2120.309881528737
 20
369.4752071534255
 30
0.0
 11
2143.934189619552
 21
387.8445859747479
 31
0.0
  0
LINE
  5
2EC
330
2D1
100
AcDbEntity
  8
Layer 01
 62
     5
420
      255
370
    25
100
AcDbLine
 10
2143.934189619552
 20
387.8445859747479
 30
0.0
 11
2154.05316279164
 21
400.3715344818296
 31
0.0
  0
LINE
  5
2ED
330
2D1
100
AcDbEntity
  8
Layer 01
 62
     5
420
      255
370
    25
100
AcDbLine
 10
2154.05316279164
 20
400.3715344818296
 30
0.0
 11
2156.268780423562
 21
423.636788452679
 31
0.0
  0
LINE
  5
2EE
330
2D1
100
AcDbEntity
  8
Layer 01
 62
     5
420
      255
370
    25
100
AcDbLine
 10
2156.268780423562
 20
423.636788452679
 30
0.0
 11
2160.570409795683
 21
457.5612793770678
 31
0.0
  0
LINE
  5
2EF
330
2D1
100
AcDbEntity
  8
Layer 01
 62
     5
420
      255
370
    25
100
AcDbLine
 10
2160.570409795683
 20
457.5612793770678
 30
0.0
 11
2148.004586825761
 21
505.0690055743407
 31
0.0
  0
LINE
  5
2F0
330
2D1
100
AcDbEntity
  8
Layer 01
 62
     5
420
      255
370
    25
100
AcDbLine
 10
2148.004586825761
 20
505.0690055743407
 30
0.0
 11
2139.272594930214
 21
530.8498174792321
 31
0.0
  0
LINE
  5
2F1
330
2D1
100
AcDbEntity
  8
Layer 01
 62
     5
420
      255
370
    25
100
AcDbLine
 10
2139.272594930214
 20
530.8498174792321
 30
0.0
 11
2105.512594049262
 21
590.2762475688641
 31
0.0
  0
LINE
  5
2F2
330
2D1
100
AcDbEntity
  8
Layer 01
 62
     5
420
      255
370
    25
100
AcDbLine
 10
2105.512594049262
 20
590.2762475688641
 30
0.0
 11
2110.582790962748
 21
618.4587582483374
 31
0.0
  0
LINE
  5
2F3
330
2D1
100
AcDbEntity
  8
Layer 01
 62
     5
420
      255
370
    25
100
AcDbLine
 10
2110.582790962748
 20
618.4587582483374
 30
0.0
 11
2100.617546031604
 21
626.6494291672046
 31
0.0
  0
LINE
  5
2F4
330
2D1
100
AcDbEntity
  8
Layer 01
 62
     5
420
      255
370
    25
100
AcDbLine
 10
2100.617546031604
 20
626.6494291672046
 30
0.0
 11
2069.594568690755
 21
635.7023531976434
 31
0.0
  0
LINE
  5
2F5
330
2D1
100
AcDbEntity
  8
Layer 01
 62
     1
420
 16711680
370
    25
100
AcDbLine
 10
2022.012637264923
 20
165.0077056020981
 30
0.0
 11
2025.936600011089
 21
178.9210313441406
 31
0.0
  0
LINE
  5
2F6
330
2D1
100
AcDbEntity
  8
Layer 01
 62
     1
420
 16711680
370
    25
100
AcDbLine
 10
2025.936600011089
 20
178.9210313441406
 30
0.0
 11
2021.970897215295
 21
176.6993936219258
 31
0.0
  0
LINE
  5
2F7
330
2D1
100
AcDbEntity
  8
Layer 01
 62
     1
420
 16711680
370
    25
100
AcDbLine
 10
2112.791243055314
 20
457.3286538725811
 30
0.0
 11
2106.612001753176
 21
459.0713797397611
 31
0.0
  0
LINE
  5
2F8
330
2D1
100
AcDbEntity
  8
Layer 01
 62
     1
420
 16711680
370
    25
100
AcDbLine
 10
2106.612001753176
 20
459.0713797397611
 30
0.0
 11
2114.914258676542
 21
466.6531227067563
 31
0.0
  0
LINE
  5
2F9
330
2D1
100
AcDbEntity
  8
Layer 01
 62
     1
420
 16711680
370
    25
100
AcDbLine
 10
2114.914258676542
 20
466.6531227067563
 30
0.0
 11
2114.914258676542
 21
466.6531227067563
 31
0.0
  0
LINE
  5
2FA
330
2D1
100
AcDbEntity
  8
Layer 01
 62
     1
420
 16711680
370
    25
100
AcDbLine
 10
2114.914258676542
 20
466.6531227067563
 30
0.0
 11
2114.923464175758
 21
466.6596448781919
 31
0.0
  0
LINE
  5
2FB
330
2D1
100
AcDbEntity
  8
Layer 01
 62
     1
420
 16711680
370
    25
100
AcDbLine
 10
2114.923464175758
 20
466.6596448781919
 30
0.0
 11
2114.932413926886
 21
466.6663142780249
 31
0.0
  0
LINE
  5
2FC
330
2D1
100
AcDbEntity
  8
Layer 01
 62
     1
420
 16711680
370
    25
100
AcDbLine
 10
2114.932413926886
 20
466.6663142780249
 30
0.0
 11
2114.941164785525
 21
466.6731993587998
 31
0.0
  0
LINE
  5
2FD
330
2D1
100
AcDbEntity
  8
Layer 01
 62
     1
420
 16711680
370
    25
100
AcDbLine
 10
2114.941164785525
 20
466.6731993587998
 30
0.0
 11
2114.949784012869
 21
466.6803499925553
 31
0.0
  0
LINE
  5
2FE
330
2D1
100
AcDbEntity
  8
Layer 01
 62
     1
420
 16711680
370
    25
100
AcDbLine
 10
2114.949784012869
 20
466.6803499925553
 30
0.0
 11
2114.958331363128
 21
466.6878338143487
 31
0.0
  0
LINE
  5
2FF
330
2D1
100
AcDbEntity
  8
Layer 01
 62
     1
420
 16711680
370
    25
100
AcDbLine
 10
2114.958331363128
 20
466.6878338143487
 30
0.0
 11
2114.966874914991
 21
466.6957035948426
 31
0.0
  0
LINE
  5
300
330
2D1
100
AcDbEntity
  8
Layer 01
 62
     1
420
 16711680
370
    25
100
AcDbLine
 10
2114.966874914991
 20
466.6957035948426
 30
0.0
 11
2114.975474422672
 21
466.7040269690821
 31
0.0
  0
LINE
  5
301
330
2D1
100
AcDbEntity
  8
Layer 01
 62
     1
420
 16711680
370
    25
100
AcDbLine
 10
2114.975474422672
 20
466.7040269690821
 30
0.0
 11
2114.984191350142
 21
466.7128554441009
 31
0.0
  0
LINE
  5
302
330
2D1
100
AcDbEntity
  8
Layer 01
 62
     1
420
 16711680
370
    25
100
AcDbLine
 10
2114.984191350142
 20
466.7128554441009
 30
0.0
 11
2114.993097046052
 21
466.722253384985
 31
0.0
  0
LINE
  5
303
330
2D1
100
AcDbEntity
  8
Layer 01
 62
     1
420
 16711680
370
    25
100
AcDbLine
 10
2114.993097046052
 20
466.722253384985
 30
0.0
 11
2114.993097046052
 21
466.722253384985
 31
0.0
  0
LINE
  5
304
330
2D1
100
AcDbEntity
  8
Layer 01
 62
     1
420
 16711680
370
    25
100
AcDbLine
 10
2114.993097046052
 20
466.722253384985
 30
0.0
 11
2115.371612858172
 21
467.161953450608
 31
0.0
  0
LINE
  5
305
330
2D1
100
AcDbEntity
  8
Layer 01
 62
     1
420
 16711680
370
    25
100
AcDbLine
 10
2115.371612858172
 20
467.161953450608
 30
0.0
 11
2115.657321471414
 21
467.6478232186375
 31
0.0
  0
LINE
  5
306
330
2D1
100
AcDbEntity
  8
Layer 01
 62
     1
420
 16711680
370
    25
100
AcDbLine
 10
2115.657321471414
 20
467.6478232186375
 30
0.0
 11
2115.850255405117
 21
468.1670520990398
 31
0.0
  0
LINE
  5
307
330
2D1
100
AcDbEntity
  8
Layer 01
 62
     1
420
 16711680
370
    25
100
AcDbLine
 10
2115.850255405117
 20
468.1670520990398
 30
0.0
 11
2115.950441381428
 21
468.7068311367434
 31
0.0
  0
LINE
  5
308
330
2D1
100
AcDbEntity
  8
Layer 01
 62
     1
420
 16711680
370
    25
100
AcDbLine
 10
2115.950441381428
 20
468.7068311367434
 30
0.0
 11
2115.957913554676
 21
469.2543555389317
 31
0.0
  0
LINE
  5
309
330
2D1
100
AcDbEntity
  8
Layer 01
 62
     1
420
 16711680
370
    25
100
AcDbLine
 10
2115.957913554676
 20
469.2543555389317
 30
0.0
 11
2115.872701545607
 21
469.7968155330461
 31
0.0
  0
LINE
  5
30A
330
2D1
100
AcDbEntity
  8
Layer 01
 62
     1
420
 16711680
370
    25
100
AcDbLine
 10
2115.872701545607
 20
469.7968155330461
 30
0.0
 11
2115.694838691067
 21
470.3214034276649
 31
0.0
  0
LINE
  5
30B
330
2D1
100
AcDbEntity
  8
Layer 01
 62
     1
420
 16711680
370
    25
100
AcDbLine
 10
2115.694838691067
 20
470.3214034276649
 30
0.0
 11
2115.4243546118
 21
470.8153094502178
 31
0.0
  0
LINE
  5
30C
330
2D1
100
AcDbEntity
  8
Layer 01
 62
     1
420
 16711680
370
    25
100
AcDbLine
 10
2115.4243546118
 20
470.8153094502178
 30
0.0
 11
2115.061282644649
 21
471.2657259092883
 31
0.0
  0
LINE
  5
30D
330
2D1
100
AcDbEntity
  8
Layer 01
 62
     1
420
 16711680
370
    25
100
AcDbLine
 10
2115.061282644649
 20
471.2657259092883
 30
0.0
 11
2115.061282644649
 21
471.2657259092883
 31
0.0
  0
LINE
  5
30E
330
2D1
100
AcDbEntity
  8
Layer 01
 62
     1
420
 16711680
370
    25
100
AcDbLine
 10
2115.061282644649
 20
471.2657259092883
 30
0.0
 11
2114.619229651259
 21
471.6412911286349
 31
0.0
  0
LINE
  5
30F
330
2D1
100
AcDbEntity
  8
Layer 01
 62
     1
420
 16711680
370
    25
100
AcDbLine
 10
2114.619229651259
 20
471.6412911286349
 30
0.0
 11
2114.131958564068
 21
471.9251044050475
 31
0.0
  0
LINE
  5
310
330
2D1
100
AcDbEntity
  8
Layer 01
 62
     1
420
 16711680
370
    25
100
AcDbLine
 10
2114.131958564068
 20
471.9251044050475
 30
0.0
 11
2113.612079084322
 21
472.1169075769297
 31
0.0
  0
LINE
  5
311
330
2D1
100
AcDbEntity
  8
Layer 01
 62
     1
420
 16711680
370
    25
100
AcDbLine
 10
2113.612079084322
 20
472.1169075769297
 30
0.0
 11
2113.072198460782
 21
472.2164337868515
 31
0.0
  0
LINE
  5
312
330
2D1
100
AcDbEntity
  8
Layer 01
 62
     1
420
 16711680
370
    25
100
AcDbLine
 10
2113.072198460782
 20
472.2164337868515
 30
0.0
 11
2112.524924313573
 21
472.2234285893166
 31
0.0
  0
LINE
  5
313
330
2D1
100
AcDbEntity
  8
Layer 01
 62
     1
420
 16711680
370
    25
100
AcDbLine
 10
2112.524924313573
 20
472.2234285893166
 30
0.0
 11
2111.982873404791
 21
472.1376255730256
 31
0.0
  0
LINE
  5
314
330
2D1
100
AcDbEntity
  8
Layer 01
 62
     1
420
 16711680
370
    25
100
AcDbLine
 10
2111.982873404791
 20
472.1376255730256
 30
0.0
 11
2111.458648820959
 21
471.9587653127592
 31
0.0
  0
LINE
  5
315
330
2D1
100
AcDbEntity
  8
Layer 01
 62
     1
420
 16711680
370
    25
100
AcDbLine
 10
2111.458648820959
 20
471.9587653127592
 30
0.0
 11
2110.964859445831
 21
471.6865867483059
 31
0.0
  0
LINE
  5
316
330
2D1
100
AcDbEntity
  8
Layer 01
 62
     1
420
 16711680
370
    25
100
AcDbLine
 10
2110.964859445831
 20
471.6865867483059
 30
0.0
 11
2110.514119960378
 21
471.3208271844735
 31
0.0
  0
LINE
  5
317
330
2D1
100
AcDbEntity
  8
Layer 01
 62
     1
420
 16711680
370
    25
100
AcDbLine
 10
2110.514119960378
 20
471.3208271844735
 30
0.0
 11
2109.888890500134
 21
470.6569570766517
 31
0.0
  0
LINE
  5
318
330
2D1
100
AcDbEntity
  8
Layer 01
 62
     1
420
 16711680
370
    25
100
AcDbLine
 10
2023.039410403336
 20
352.458080195107
 30
0.0
 11
2013.087792100062
 21
344.2279350422211
 31
0.0
  0
LINE
  5
319
330
2D1
100
AcDbEntity
  8
Layer 01
 62
     1
420
 16711680
370
    25
100
AcDbLine
 10
2013.087792100062
 20
344.2279350422211
 30
0.0
 11
2008.901549671299
 21
356.4453683425658
 31
0.0
  0
LINE
  5
31A
330
2D1
100
AcDbEntity
  8
Layer 01
 62
     1
420
 16711680
370
    25
100
AcDbLine
 10
2013.319825009658
 20
345.0506618780513
 30
0.0
 11
2009.993398405526
 21
333.2560399883485
 31
0.0
  0
LINE
  5
31B
330
2D1
100
AcDbEntity
  8
Layer 01
 62
     1
420
 16711680
370
    25
100
AcDbLine
 10
2039.589614526504
 20
336.3497433917529
 30
0.0
 11
2028.001008410507
 21
339.6180675525047
 31
0.0
  0
LINE
  5
31C
330
2D1
100
AcDbEntity
  8
Layer 01
 62
     1
420
 16711680
370
    25
100
AcDbLine
 10
2049.259145339675
 20
322.1826764021272
 30
0.0
 11
2059.948252324029
 21
342.0479929937463
 31
0.0
  0
LINE
  5
31D
330
2D1
100
AcDbEntity
  8
Layer 01
 62
     1
420
 16711680
370
    25
100
AcDbLine
 10
2059.948252324029
 20
342.0479929937463
 30
0.0
 11
2050.523452424654
 21
344.7060608332332
 31
0.0
  0
LINE
  5
31E
330
2D1
100
AcDbEntity
  8
Layer 01
 62
     1
420
 16711680
370
    25
100
AcDbLine
 10
2057.286437100123
 20
332.6099058682896
 30
0.0
 11
2052.574700932018
 21
333.9387525823085
 31
0.0
  0
ENDBLK
  5
2D4
330
2D1
100
AcDbEntity
  8
0
100
AcDbBlockEnd
  0
BLOCK
  5
321
330
31F
100
AcDbEntity
  8
0
100
AcDbBlockBegin
  2
Block_6
 70
     0
 10
0.0
 20
0.0
 30
0.0
  3
Block_6
  1

  0
LINE
  5
323
330
31F
100
AcDbEntity
  8
Layer 01
 62
     5
420
      255
370
    25
100
AcDbLine
 10
1563.320846010827
 20
136.4813502914003
 30
0.0
 11
1563.320842999144
 21
284.5922998757758
 31
0.0
  0
LINE
  5
324
330
31F
100
AcDbEntity
  8
Layer 01
 62
     5
420
      255
370
    25
100
AcDbLine
 10
1563.320842999144
 20
284.5922998757758
 30
0.0
 11
1509.362562659932
 21
285.0440522329622
 31
0.0
  0
LINE
  5
325
330
31F
100
AcDbEntity
  8
Layer 01
 62
     5
420
      255
370
    25
100
AcDbLine
 10
1509.362562659932
 20
285.0440522329622
 30
0.0
 11
1509.362562659932
 21
293.3141320518688
 31
0.0
  0
LINE
  5
326
330
31F
100
AcDbEntity
  8
Layer 01
 62
     5
420
      255
370
    25
100
AcDbLine
 10
1509.362562659932
 20
293.3141320518688
 30
0.0
 11
1563.289822670618
 21
293.3141320518688
 31
0.0
  0
LINE
  5
327
330
31F
100
AcDbEntity
  8
Layer 01
 62
     5
420
      255
370
    25
100
AcDbLine
 10
1563.289822670618
 20
293.3141320518688
 30
0.0
 11
1563.320842999144
 21
590.5792298105641
 31
0.0
  0
LINE
  5
328
330
31F
100
AcDbEntity
  8
Layer 01
 62
     5
420
      255
370
    25
100
AcDbLine
 10
1563.320842999144
 20
590.5792298105641
 30
0.0
 11
1511.363687064882
 21
591.0309821677511
 31
0.0
  0
LINE
  5
329
330
31F
100
AcDbEntity
  8
Layer 01
 62
     5
420
      255
370
    25
100
AcDbLine
 10
1511.363687064882
 20
591.0309821677511
 30
0.0
 11
1511.363687064882
 21
599.3010619866606
 31
0.0
  0
LINE
  5
32A
330
31F
100
AcDbEntity
  8
Layer 01
 62
     5
420
      255
370
    25
100
AcDbLine
 10
1511.363687064882
 20
599.3010619866606
 30
0.0
 11
1563.289825682301
 21
599.3010619866606
 31
0.0
  0
LINE
  5
32B
330
31F
100
AcDbEntity
  8
Layer 01
 62
     5
420
      255
370
    25
100
AcDbLine
 10
1563.289825682301
 20
599.3010619866606
 30
0.0
 11
1563.320842999144
 21
746.3954452883878
 31
0.0
  0
LINE
  5
32C
330
31F
100
AcDbEntity
  8
Layer 01
 62
     5
420
      255
370
    25
100
AcDbLine
 10
1563.320842999144
 20
746.3954452883878
 30
0.0
 11
1518.612357815873
 21
746.3430902018693
 31
0.0
  0
LINE
  5
32D
330
31F
100
AcDbEntity
  8
Layer 01
 62
     5
420
      255
370
    25
100
AcDbLine
 10
1518.612357815873
 20
746.3430902018693
 30
0.0
 11
1496.194062763351
 21
744.4532414375406
 31
0.0
  0
LINE
  5
32E
330
31F
100
AcDbEntity
  8
Layer 01
 62
     5
420
      255
370
    25
100
AcDbLine
 10
1496.194062763351
 20
744.4532414375406
 30
0.0
 11
1450.564740633599
 21
718.5189969409051
 31
0.0
  0
LINE
  5
32F
330
31F
100
AcDbEntity
  8
Layer 01
 62
     5
420
      255
370
    25
100
AcDbLine
 10
1450.564740633599
 20
718.5189969409051
 30
0.0
 11
1442.586269972938
 21
685.2872653335627
 31
0.0
  0
LINE
  5
330
330
31F
100
AcDbEntity
  8
Layer 01
 62
     5
420
      255
370
    25
100
AcDbLine
 10
1442.586269972938
 20
685.2872653335627
 30
0.0
 11
1438.975585047836
 21
646.0008836071446
 31
0.0
  0
LINE
  5
331
330
31F
100
AcDbEntity
  8
Layer 01
 62
     5
420
      255
370
    25
100
AcDbLine
 10
1438.975585047836
 20
646.0008836071446
 30
0.0
 11
1457.238273411923
 21
600.3716638745921
 31
0.0
  0
LINE
  5
332
330
31F
100
AcDbEntity
  8
Layer 01
 62
     5
420
      255
370
    25
100
AcDbLine
 10
1457.238273411923
 20
600.3716638745921
 30
0.0
 11
1486.646177308679
 21
542.9417479858229
 31
0.0
  0
LINE
  5
333
330
31F
100
AcDbEntity
  8
Layer 01
 62
     5
420
      255
370
    25
100
AcDbLine
 10
1486.646177308679
 20
542.9417479858229
 30
0.0
 11
1484.608991018899
 21
508.587959897062
 31
0.0
  0
LINE
  5
334
330
31F
100
AcDbEntity
  8
Layer 01
 62
     5
420
      255
370
    25
100
AcDbLine
 10
1484.608991018899
 20
508.587959897062
 30
0.0
 11
1485.85521615321
 21
500.5772040012756
 31
0.0
  0
LINE
  5
335
330
31F
100
AcDbEntity
  8
Layer 01
 62
     5
420
      255
370
    25
100
AcDbLine
 10
1485.85521615321
 20
500.5772040012756
 30
0.0
 11
1462.090795450105
 21
383.5310112822398
 31
0.0
  0
LINE
  5
336
330
31F
100
AcDbEntity
  8
Layer 01
 62
     5
420
      255
370
    25
100
AcDbLine
 10
1462.090795450105
 20
383.5310112822398
 30
0.0
 11
1454.709640791168
 21
340.4071318189088
 31
0.0
  0
LINE
  5
337
330
31F
100
AcDbEntity
  8
Layer 01
 62
     5
420
      255
370
    25
100
AcDbLine
 10
1454.709640791168
 20
340.4071318189088
 30
0.0
 11
1454.573142310602
 21
232.9521716990576
 31
0.0
  0
LINE
  5
338
330
31F
100
AcDbEntity
  8
Layer 01
 62
     5
420
      255
370
    25
100
AcDbLine
 10
1454.573142310602
 20
232.9521716990576
 30
0.0
 11
1483.509913674048
 21
178.8789806185872
 31
0.0
  0
LINE
  5
339
330
31F
100
AcDbEntity
  8
Layer 01
 62
     5
420
      255
370
    25
100
AcDbLine
 10
1483.509913674048
 20
178.8789806185872
 30
0.0
 11
1514.955798944738
 21
137.0499649600264
 31
0.0
  0
LINE
  5
33A
330
31F
100
AcDbEntity
  8
Layer 01
 62
     5
420
      255
370
    25
100
AcDbLine
 10
1514.955798944738
 20
137.0499649600264
 30
0.0
 11
1563.320846010827
 21
136.4813502914003
 31
0.0
  0
LINE
  5
33B
330
31F
100
AcDbEntity
  8
Layer 01
 62
     1
420
 16711680
370
    25
100
AcDbLine
 10
1491.305584249214
 20
602.3940597922033
 30
0.0
 11
1491.305584249214
 21
587.9379843622082
 31
0.0
  0
LINE
  5
33C
330
31F
100
AcDbEntity
  8
Layer 01
 62
     1
420
 16711680
370
    25
100
AcDbLine
 10
1491.305584249214
 20
587.9379843622082
 30
0.0
 11
1494.519353529927
 21
591.1526631710031
 31
0.0
  0
LINE
  5
33D
330
31F
100
AcDbEntity
  8
Layer 01
 62
     1
420
 16711680
370
    25
100
AcDbLine
 10
1487.701654527693
 20
296.4072473130233
 30
0.0
 11
1494.121943969629
 21
296.4072473130233
 31
0.0
  0
LINE
  5
33E
330
31F
100
AcDbEntity
  8
Layer 01
 62
     1
420
 16711680
370
    25
100
AcDbLine
 10
1494.121943969629
 20
296.4072473130233
 30
0.0
 11
1488.189384442609
 21
286.8565911105626
 31
0.0
  0
LINE
  5
33F
330
31F
100
AcDbEntity
  8
Layer 01
 62
     1
420
 16711680
370
    25
100
AcDbLine
 10
1488.189384442609
 20
286.8565911105626
 30
0.0
 11
1488.189384442609
 21
286.8565911105626
 31
0.0
  0
LINE
  5
340
330
31F
100
AcDbEntity
  8
Layer 01
 62
     1
420
 16711680
370
    25
100
AcDbLine
 10
1488.189384442609
 20
286.8565911105626
 30
0.0
 11
1488.182294942285
 21
286.8478150681043
 31
0.0
  0
LINE
  5
341
330
31F
100
AcDbEntity
  8
Layer 01
 62
     1
420
 16711680
370
    25
100
AcDbLine
 10
1488.182294942285
 20
286.8478150681043
 30
0.0
 11
1488.175491551782
 21
286.8389667452669
 31
0.0
  0
LINE
  5
342
330
31F
100
AcDbEntity
  8
Layer 01
 62
     1
420
 16711680
370
    25
100
AcDbLine
 10
1488.175491551782
 20
286.8389667452669
 30
0.0
 11
1488.168938130924
 21
286.8299648266307
 31
0.0
  0
LINE
  5
343
330
31F
100
AcDbEntity
  8
Layer 01
 62
     1
420
 16711680
370
    25
100
AcDbLine
 10
1488.168938130924
 20
286.8299648266307
 30
0.0
 11
1488.162583481096
 21
286.8207430551787
 31
0.0
  0
LINE
  5
344
330
31F
100
AcDbEntity
  8
Layer 01
 62
     1
420
 16711680
370
    25
100
AcDbLine
 10
1488.162583481096
 20
286.8207430551787
 30
0.0
 11
1488.15638845044
 21
286.8112201154899
 31
0.0
  0
LINE
  5
345
330
31F
100
AcDbEntity
  8
Layer 01
 62
     1
420
 16711680
370
    25
100
AcDbLine
 10
1488.15638845044
 20
286.8112201154899
 30
0.0
 11
1488.150301840348
 21
286.8013267388676
 31
0.0
  0
LINE
  5
346
330
31F
100
AcDbEntity
  8
Layer 01
 62
     1
420
 16711680
370
    25
100
AcDbLine
 10
1488.150301840348
 20
286.8013267388676
 30
0.0
 11
1488.144284498949
 21
286.7909816098869
 31
0.0
  0
LINE
  5
347
330
31F
100
AcDbEntity
  8
Layer 01
 62
     1
420
 16711680
370
    25
100
AcDbLine
 10
1488.144284498949
 20
286.7909816098869
 30
0.0
 11
1488.138288239327
 21
286.7801184715385
 31
0.0
  0
LINE
  5
348
330
31F
100
AcDbEntity
  8
Layer 01
 62
     1
420
 16711680
370
    25
100
AcDbLine
 10
1488.138288239327
 20
286.7801184715385
 30
0.0
 11
1488.13227089793
 21
286.768656008395
 31
0.0
  0
LINE
  5
349
330
31F
100
AcDbEntity
  8
Layer 01
 62
     1
420
 16711680
370
    25
100
AcDbLine
 10
1488.13227089793
 20
286.768656008395
 30
0.0
 11
1488.13227089793
 21
286.768656008395
 31
0.0
  0
LINE
  5
34A
330
31F
100
AcDbEntity
  8
Layer 01
 62
     1
420
 16711680
370
    25
100
AcDbLine
 10
1488.13227089793
 20
286.768656008395
 30
0.0
 11
1487.887318723134
 21
286.2427198907933
 31
0.0
  0
LINE
  5
34B
330
31F
100
AcDbEntity
  8
Layer 01
 62
     1
420
 16711680
370
    25
100
AcDbLine
 10
1487.887318723134
 20
286.2427198907933
 30
0.0
 11
1487.744221646473
 21
285.6975391227738
 31
0.0
  0
LINE
  5
34C
330
31F
100
AcDbEntity
  8
Layer 01
 62
     1
420
 16711680
370
    25
100
AcDbLine
 10
1487.744221646473
 20
285.6975391227738
 30
0.0
 11
1487.699471057969
 21
285.1454344969629
 31
0.0
  0
LINE
  5
34D
330
31F
100
AcDbEntity
  8
Layer 01
 62
     1
420
 16711680
370
    25
100
AcDbLine
 10
1487.699471057969
 20
285.1454344969629
 30
0.0
 11
1487.749564371015
 21
284.5987268059752
 31
0.0
  0
LINE
  5
34E
330
31F
100
AcDbEntity
  8
Layer 01
 62
     1
420
 16711680
370
    25
100
AcDbLine
 10
1487.749564371015
 20
284.5987268059752
 30
0.0
 11
1487.890992975638
 21
284.0697308190749
 31
0.0
  0
LINE
  5
34F
330
31F
100
AcDbEntity
  8
Layer 01
 62
     1
420
 16711680
370
    25
100
AcDbLine
 10
1487.890992975638
 20
284.0697308190749
 30
0.0
 11
1488.120251273546
 21
283.5707673288794
 31
0.0
  0
LINE
  5
350
330
31F
100
AcDbEntity
  8
Layer 01
 62
     1
420
 16711680
370
    25
100
AcDbLine
 10
1488.120251273546
 20
283.5707673288794
 30
0.0
 11
1488.433830654766
 21
283.1141541163299
 31
0.0
  0
LINE
  5
351
330
31F
100
AcDbEntity
  8
Layer 01
 62
     1
420
 16711680
370
    25
100
AcDbLine
 10
1488.433830654766
 20
283.1141541163299
 30
0.0
 11
1488.828225521001
 21
282.7122119740449
 31
0.0
  0
LINE
  5
352
330
31F
100
AcDbEntity
  8
Layer 01
 62
     1
420
 16711680
370
    25
100
AcDbLine
 10
1488.828225521001
 20
282.7122119740449
 30
0.0
 11
1489.299927262283
 21
282.3772586829685
 31
0.0
  0
LINE
  5
353
330
31F
100
AcDbEntity
  8
Layer 01
 62
     1
420
 16711680
370
    25
100
AcDbLine
 10
1489.299927262283
 20
282.3772586829685
 30
0.0
 11
1489.299927262283
 21
282.3772586829685
 31
0.0
  0
LINE
  5
354
330
31F
100
AcDbEntity
  8
Layer 01
 62
     1
420
 16711680
370
    25
100
AcDbLine
 10
1489.299927262283
 20
282.3772586829685
 30
0.0
 11
1489.827327057518
 21
282.1357850013208
 31
0.0
  0
LINE
  5
355
330
31F
100
AcDbEntity
  8
Layer 01
 62
     1
420
 16711680
370
    25
100
AcDbLine
 10
1489.827327057518
 20
282.1357850013208
 30
0.0
 11
1490.373342061559
 21
281.994892476163
 31
0.0
  0
LINE
  5
356
330
31F
100
AcDbEntity
  8
Layer 01
 62
     1
420
 16711680
370
    25
100
AcDbLine
 10
1490.373342061559
 20
281.994892476163
 30
0.0
 11
1490.925765925702
 21
281.9514067942581
 31
0.0
  0
LINE
  5
357
330
31F
100
AcDbEntity
  8
Layer 01
 62
     1
420
 16711680
370
    25
100
AcDbLine
 10
1490.925765925702
 20
281.9514067942581
 30
0.0
 11
1491.472392301264
 21
282.0021626774313
 31
0.0
  0
LINE
  5
358
330
31F
100
AcDbEntity
  8
Layer 01
 62
     1
420
 16711680
370
    25
100
AcDbLine
 10
1491.472392301264
 20
282.0021626774313
 30
0.0
 11
1492.001014839549
 21
282.1439828007624
 31
0.0
  0
LINE
  5
359
330
31F
100
AcDbEntity
  8
Layer 01
 62
     1
420
 16711680
370
    25
100
AcDbLine
 10
1492.001014839549
 20
282.1439828007624
 30
0.0
 11
1492.499427191872
 21
282.3736988743931
 31
0.0
  0
LINE
  5
35A
330
31F
100
AcDbEntity
  8
Layer 01
 62
     1
420
 16711680
370
    25
100
AcDbLine
 10
1492.499427191872
 20
282.3736988743931
 30
0.0
 11
1492.955419997849
 21
282.6881395967701
 31
0.0
  0
LINE
  5
35B
330
31F
100
AcDbEntity
  8
Layer 01
 62
     1
420
 16711680
370
    25
100
AcDbLine
 10
1492.955419997849
 20
282.6881395967701
 30
0.0
 11
1493.35678992048
 21
283.0841336663529
 31
0.0
  0
LINE
  5
35C
330
31F
100
AcDbEntity
  8
Layer 01
 62
     1
420
 16711680
370
    25
100
AcDbLine
 10
1493.35678992048
 20
283.0841336663529
 30
0.0
 11
1493.691324587707
 21
283.5585097815869
 31
0.0
  0
LINE
  5
35D
330
31F
100
AcDbEntity
  8
Layer 01
 62
     1
420
 16711680
370
    25
100
AcDbLine
 10
1493.691324587707
 20
283.5585097815869
 30
0.0
 11
1494.112875793977
 21
284.3671675827295
 31
0.0
  0
LINE
  5
35E
330
31F
100
AcDbEntity
  8
Layer 01
 62
     1
420
 16711680
370
    25
100
AcDbLine
 10
1532.003692091841
 20
420.9272972863758
 30
0.0
 11
1539.327064612615
 21
431.519884160498
 31
0.0
  0
LINE
  5
35F
330
31F
100
AcDbEntity
  8
Layer 01
 62
     1
420
 16711680
370
    25
100
AcDbLine
 10
1539.327064612615
 20
431.519884160498
 30
0.0
 11
1546.651816483919
 21
420.9272972863758
 31
0.0
  0
LINE
  5
360
330
31F
100
AcDbEntity
  8
Layer 01
 62
     1
420
 16711680
370
    25
100
AcDbLine
 10
1539.327064612615
 20
430.6674666143571
 30
0.0
 11
1539.327064612615
 21
442.8877774650756
 31
0.0
  0
LINE
  5
361
330
31F
100
AcDbEntity
  8
Layer 01
 62
     1
420
 16711680
370
    25
100
AcDbLine
 10
1511.759413094733
 20
431.9075358698808
 30
0.0
 11
1523.766273968358
 21
431.9075358698808
 31
0.0
  0
LINE
  5
362
330
31F
100
AcDbEntity
  8
Layer 01
 62
     1
420
 16711680
370
    25
100
AcDbLine
 10
1503.526813663056
 20
442.8870877898086
 30
0.0
 11
1498.650532462567
 21
442.8870877898086
 31
0.0
  0
LINE
  5
363
330
31F
100
AcDbEntity
  8
Layer 01
 62
     1
420
 16711680
370
    25
100
AcDbLine
 10
1498.650532462567
 20
442.8870877898086
 30
0.0
 11
1498.650532462567
 21
442.8870877898086
 31
0.0
  0
LINE
  5
364
330
31F
100
AcDbEntity
  8
Layer 01
 62
     1
420
 16711680
370
    25
100
AcDbLine
 10
1498.650532462567
 20
442.8870877898086
 30
0.0
 11
1497.775334550892
 21
442.808398552551
 31
0.0
  0
LINE
  5
365
330
31F
100
AcDbEntity
  8
Layer 01
 62
     1
420
 16711680
370
    25
100
AcDbLine
 10
1497.775334550892
 20
442.808398552551
 30
0.0
 11
1496.951061176605
 21
442.5815345421374
 31
0.0
  0
LINE
  5
366
330
31F
100
AcDbEntity
  8
Layer 01
 62
     1
420
 16711680
370
    25
100
AcDbLine
 10
1496.951061176605
 20
442.5815345421374
 30
0.0
 11
1496.19160824221
 21
442.2203193806985
 31
0.0
  0
LINE
  5
367
330
31F
100
AcDbEntity
  8
Layer 01
 62
     1
420
 16711680
370
    25
100
AcDbLine
 10
1496.19160824221
 20
442.2203193806985
 30
0.0
 11
1495.510868638528
 21
441.738567655309
 31
0.0
  0
LINE
  5
368
330
31F
100
AcDbEntity
  8
Layer 01
 62
     1
420
 16711680
370
    25
100
AcDbLine
 10
1495.510868638528
 20
441.738567655309
 30
0.0
 11
1494.922741279754
 21
441.1500909413761
 31
0.0
  0
LINE
  5
369
330
31F
100
AcDbEntity
  8
Layer 01
 62
     1
420
 16711680
370
    25
100
AcDbLine
 10
1494.922741279754
 20
441.1500909413761
 30
0.0
 11
1494.441122068393
 21
440.4687098493466
 31
0.0
  0
LINE
  5
36A
330
31F
100
AcDbEntity
  8
Layer 01
 62
     1
420
 16711680
370
    25
100
AcDbLine
 10
1494.441122068393
 20
440.4687098493466
 30
0.0
 11
1494.079900883584
 21
439.7082419779911
 31
0.0
  0
LINE
  5
36B
330
31F
100
AcDbEntity
  8
Layer 01
 62
     1
420
 16711680
370
    25
100
AcDbLine
 10
1494.079900883584
 20
439.7082419779911
 30
0.0
 11
1493.852979651205
 21
438.8824989026979
 31
0.0
  0
LINE
  5
36C
330
31F
100
AcDbEntity
  8
Layer 01
 62
     1
420
 16711680
370
    25
100
AcDbLine
 10
1493.852979651205
 20
438.8824989026979
 30
0.0
 11
1493.774251262078
 21
438.0052982222436
 31
0.0
  0
LINE
  5
36D
330
31F
100
AcDbEntity
  8
Layer 01
 62
     1
420
 16711680
370
    25
100
AcDbLine
 10
1493.774251262078
 20
438.0052982222436
 30
0.0
 11
1493.774251262078
 21
435.5761083420337
 31
0.0
  0
LINE
  5
36E
330
31F
100
AcDbEntity
  8
Layer 01
 62
     1
420
 16711680
370
    25
100
AcDbLine
 10
1493.774251262078
 20
435.5761083420337
 30
0.0
 11
1493.774251262078
 21
435.5761083420337
 31
0.0
  0
LINE
  5
36F
330
31F
100
AcDbEntity
  8
Layer 01
 62
     1
420
 16711680
370
    25
100
AcDbLine
 10
1493.774251262078
 20
435.5761083420337
 30
0.0
 11
1493.852934475969
 21
434.6993323087936
 31
0.0
  0
LINE
  5
370
330
31F
100
AcDbEntity
  8
Layer 01
 62
     1
420
 16711680
370
    25
100
AcDbLine
 10
1493.852934475969
 20
434.6993323087936
 30
0.0
 11
1494.0797442761
 21
433.8747306611222
 31
0.0
  0
LINE
  5
371
330
31F
100
AcDbEntity
  8
Layer 01
 62
     1
420
 16711680
370
    25
100
AcDbLine
 10
1494.0797442761
 20
433.8747306611222
 30
0.0
 11
1494.440814876787
 21
433.1159101800279
 31
0.0
  0
LINE
  5
372
330
31F
100
AcDbEntity
  8
Layer 01
 62
     1
420
 16711680
370
    25
100
AcDbLine
 10
1494.440814876787
 20
433.1159101800279
 30
0.0
 11
1494.922289527397
 21
432.4364836698685
 31
0.0
  0
LINE
  5
373
330
31F
100
AcDbEntity
  8
Layer 01
 62
     1
420
 16711680
370
    25
100
AcDbLine
 10
1494.922289527397
 20
432.4364836698685
 30
0.0
 11
1495.510302442239
 21
431.850063935001
 31
0.0
  0
LINE
  5
374
330
31F
100
AcDbEntity
  8
Layer 01
 62
     1
420
 16711680
370
    25
100
AcDbLine
 10
1495.510302442239
 20
431.850063935001
 30
0.0
 11
1496.190996870686
 21
431.3702667914816
 31
0.0
  0
LINE
  5
375
330
31F
100
AcDbEntity
  8
Layer 01
 62
     1
420
 16711680
370
    25
100
AcDbLine
 10
1496.190996870686
 20
431.3702667914816
 30
0.0
 11
1496.950507027049
 21
431.0106990203011
 31
0.0
  0
LINE
  5
376
330
31F
100
AcDbEntity
  8
Layer 01
 62
     1
420
 16711680
370
    25
100
AcDbLine
 10
1496.950507027049
 20
431.0106990203011
 30
0.0
 11
1497.774973149007
 21
430.7849794491921
 31
0.0
  0
LINE
  5
377
330
31F
100
AcDbEntity
  8
Layer 01
 62
     1
420
 16711680
370
    25
100
AcDbLine
 10
1497.774973149007
 20
430.7849794491921
 30
0.0
 11
1498.650532462567
 21
430.7067118474654
 31
0.0
  0
LINE
  5
378
330
31F
100
AcDbEntity
  8
Layer 01
 62
     1
420
 16711680
370
    25
100
AcDbLine
 10
1498.650532462567
 20
430.7067118474654
 30
0.0
 11
1503.526813663056
 21
430.7067118474654
 31
0.0
  0
LINE
  5
379
330
31F
100
AcDbEntity
  8
Layer 01
 62
     1
420
 16711680
370
    25
100
AcDbLine
 10
1503.526813663056
 20
430.7067118474654
 30
0.0
 11
1503.526813663056
 21
420.9279839499561
 31
0.0
  0
LINE
  5
37A
330
31F
100
AcDbEntity
  8
Layer 01
 62
     1
420
 16711680
370
    25
100
AcDbLine
 10
1503.526813663056
 20
420.9279839499561
 30
0.0
 11
1493.774251262078
 21
420.9279839499561
 31
0.0
  0
ENDBLK
  5
322
330
31F
100
AcDbEntity
  8
0
100
AcDbBlockEnd
  0
BLOCK
  5
37D
330
37B
100
AcDbEntity
  8
0
100
AcDbBlockBegin
  2
Block_7
 70
     0
 10
0.0
 20
0.0
 30
0.0
  3
Block_7
  1

  0
LINE
  5
37F
330
37B
100
AcDbEntity
  8
Layer 01
 62
     5
420
      255
370
    25
100
AcDbLine
 10
1432.418516866629
 20
138.3732964426811
 30
0.0
 11
1432.418516866629
 21
286.6134712946715
 31
0.0
  0
LINE
  5
380
330
37B
100
AcDbEntity
  8
Layer 01
 62
     5
420
      255
370
    25
100
AcDbLine
 10
1432.418516866629
 20
286.6134712946715
 30
0.0
 11
1378.465037149136
 21
287.0652146168098
 31
0.0
  0
LINE
  5
381
330
37B
100
AcDbEntity
  8
Layer 01
 62
     5
420
      255
370
    25
100
AcDbLine
 10
1378.465037149136
 20
287.0652146168098
 30
0.0
 11
1378.465037149136
 21
295.3352944357177
 31
0.0
  0
LINE
  5
382
330
37B
100
AcDbEntity
  8
Layer 01
 62
     5
420
      255
370
    25
100
AcDbLine
 10
1378.465037149136
 20
295.3352944357177
 30
0.0
 11
1432.387496538107
 21
295.3352944357177
 31
0.0
  0
LINE
  5
383
330
37B
100
AcDbEntity
  8
Layer 01
 62
     5
420
      255
370
    25
100
AcDbLine
 10
1432.387496538107
 20
295.3352944357177
 30
0.0
 11
1432.418516866629
 21
592.6003921944124
 31
0.0
  0
LINE
  5
384
330
37B
100
AcDbEntity
  8
Layer 01
 62
     5
420
      255
370
    25
100
AcDbLine
 10
1432.418516866629
 20
592.6003921944124
 30
0.0
 11
1379.826242293399
 21
593.0521445516022
 31
0.0
  0
LINE
  5
385
330
37B
100
AcDbEntity
  8
Layer 01
 62
     5
420
      255
370
    25
100
AcDbLine
 10
1379.826242293399
 20
593.0521445516022
 30
0.0
 11
1379.826242293399
 21
601.3222243705086
 31
0.0
  0
LINE
  5
386
330
37B
100
AcDbEntity
  8
Layer 01
 62
     5
420
      255
370
    25
100
AcDbLine
 10
1379.826242293399
 20
601.3222243705086
 30
0.0
 11
1432.387499549786
 21
601.3222243705086
 31
0.0
  0
LINE
  5
387
330
37B
100
AcDbEntity
  8
Layer 01
 62
     5
420
      255
370
    25
100
AcDbLine
 10
1432.387499549786
 20
601.3222243705086
 30
0.0
 11
1432.418516866629
 21
748.3753536469777
 31
0.0
  0
LINE
  5
388
330
37B
100
AcDbEntity
  8
Layer 01
 62
     5
420
      255
370
    25
100
AcDbLine
 10
1432.418516866629
 20
748.3753536469777
 30
0.0
 11
1377.052768930096
 21
748.3803771331902
 31
0.0
  0
LINE
  5
389
330
37B
100
AcDbEntity
  8
Layer 01
 62
     5
420
      255
370
    25
100
AcDbLine
 10
1377.052768930096
 20
748.3803771331902
 30
0.0
 11
1314.900592289492
 21
711.1773718692358
 31
0.0
  0
LINE
  5
38A
330
37B
100
AcDbEntity
  8
Layer 01
 62
     5
420
      255
370
    25
100
AcDbLine
 10
1314.900592289492
 20
711.1773718692358
 30
0.0
 11
1308.898230999925
 21
662.8580331066485
 31
0.0
  0
LINE
  5
38B
330
37B
100
AcDbEntity
  8
Layer 01
 62
     5
420
      255
370
    25
100
AcDbLine
 10
1308.898230999925
 20
662.8580331066485
 30
0.0
 11
1323.800152877953
 21
603.9349100348424
 31
0.0
  0
LINE
  5
38C
330
37B
100
AcDbEntity
  8
Layer 01
 62
     5
420
      255
370
    25
100
AcDbLine
 10
1323.800152877953
 20
603.9349100348424
 30
0.0
 11
1355.733466895316
 21
546.8082193632626
 31
0.0
  0
LINE
  5
38D
330
37B
100
AcDbEntity
  8
Layer 01
 62
     5
420
      255
370
    25
100
AcDbLine
 10
1355.733466895316
 20
546.8082193632626
 30
0.0
 11
1353.315730443206
 21
511.3835974870237
 31
0.0
  0
LINE
  5
38E
330
37B
100
AcDbEntity
  8
Layer 01
 62
     5
420
      255
370
    25
100
AcDbLine
 10
1353.315730443206
 20
511.3835974870237
 30
0.0
 11
1354.875676507808
 21
501.3881188085354
 31
0.0
  0
LINE
  5
38F
330
37B
100
AcDbEntity
  8
Layer 01
 62
     5
420
      255
370
    25
100
AcDbLine
 10
1354.875676507808
 20
501.3881188085354
 30
0.0
 11
1331.553298497897
 21
386.6933392722147
 31
0.0
  0
LINE
  5
390
330
37B
100
AcDbEntity
  8
Layer 01
 62
     5
420
      255
370
    25
100
AcDbLine
 10
1331.553298497897
 20
386.6933392722147
 30
0.0
 11
1323.86577442536
 21
342.325875920015
 31
0.0
  0
LINE
  5
391
330
37B
100
AcDbEntity
  8
Layer 01
 62
     5
420
      255
370
    25
100
AcDbLine
 10
1323.86577442536
 20
342.325875920015
 30
0.0
 11
1323.633007517476
 21
234.4027076104492
 31
0.0
  0
LINE
  5
392
330
37B
100
AcDbEntity
  8
Layer 01
 62
     5
420
      255
370
    25
100
AcDbLine
 10
1323.633007517476
 20
234.4027076104492
 30
0.0
 11
1376.719170896089
 21
146.1838838806812
 31
0.0
  0
LINE
  5
393
330
37B
100
AcDbEntity
  8
Layer 01
 62
     5
420
      255
370
    25
100
AcDbLine
 10
1376.719170896089
 20
146.1838838806812
 30
0.0
 11
1379.629687854471
 21
140.2826639205216
 31
0.0
  0
LINE
  5
394
330
37B
100
AcDbEntity
  8
Layer 01
 62
     5
420
      255
370
    25
100
AcDbLine
 10
1379.629687854471
 20
140.2826639205216
 30
0.0
 11
1381.233348488835
 21
138.27002886551
 31
0.0
  0
LINE
  5
395
330
37B
100
AcDbEntity
  8
Layer 01
 62
     5
420
      255
370
    25
100
AcDbLine
 10
1381.233348488835
 20
138.27002886551
 30
0.0
 11
1432.418516866629
 21
138.3732964426811
 31
0.0
  0
LINE
  5
396
330
37B
100
AcDbEntity
  8
Layer 01
 62
     1
420
 16711680
370
    25
100
AcDbLine
 10
1359.768139477733
 20
604.4152221760515
 30
0.0
 11
1359.768139477733
 21
589.9591467460596
 31
0.0
  0
LINE
  5
397
330
37B
100
AcDbEntity
  8
Layer 01
 62
     1
420
 16711680
370
    25
100
AcDbLine
 10
1359.768139477733
 20
589.9591467460596
 30
0.0
 11
1362.981908758446
 21
593.173825554851
 31
0.0
  0
LINE
  5
398
330
37B
100
AcDbEntity
  8
Layer 01
 62
     1
420
 16711680
370
    25
100
AcDbLine
 10
1356.804129016897
 20
298.4284096968723
 30
0.0
 11
1363.224418458829
 21
298.4284096968723
 31
0.0
  0
LINE
  5
399
330
37B
100
AcDbEntity
  8
Layer 01
 62
     1
420
 16711680
370
    25
100
AcDbLine
 10
1363.224418458829
 20
298.4284096968723
 30
0.0
 11
1357.291858931813
 21
288.8777534944115
 31
0.0
  0
LINE
  5
39A
330
37B
100
AcDbEntity
  8
Layer 01
 62
     1
420
 16711680
370
    25
100
AcDbLine
 10
1357.291858931813
 20
288.8777534944115
 30
0.0
 11
1357.291858931813
 21
288.8777534944115
 31
0.0
  0
LINE
  5
39B
330
37B
100
AcDbEntity
  8
Layer 01
 62
     1
420
 16711680
370
    25
100
AcDbLine
 10
1357.291858931813
 20
288.8777534944115
 30
0.0
 11
1357.284766419805
 21
288.868977451952
 31
0.0
  0
LINE
  5
39C
330
37B
100
AcDbEntity
  8
Layer 01
 62
     1
420
 16711680
370
    25
100
AcDbLine
 10
1357.284766419805
 20
288.868977451952
 30
0.0
 11
1357.277966040986
 21
288.8601291291171
 31
0.0
  0
LINE
  5
39D
330
37B
100
AcDbEntity
  8
Layer 01
 62
     1
420
 16711680
370
    25
100
AcDbLine
 10
1357.277966040986
 20
288.8601291291171
 30
0.0
 11
1357.271412620125
 21
288.8511272104783
 31
0.0
  0
LINE
  5
39E
330
37B
100
AcDbEntity
  8
Layer 01
 62
     1
420
 16711680
370
    25
100
AcDbLine
 10
1357.271412620125
 20
288.8511272104783
 30
0.0
 11
1357.2650579703
 21
288.8419054390289
 31
0.0
  0
LINE
  5
39F
330
37B
100
AcDbEntity
  8
Layer 01
 62
     1
420
 16711680
370
    25
100
AcDbLine
 10
1357.2650579703
 20
288.8419054390289
 30
0.0
 11
1357.258862939644
 21
288.8323824993376
 31
0.0
  0
LINE
  5
3A0
330
37B
100
AcDbEntity
  8
Layer 01
 62
     1
420
 16711680
370
    25
100
AcDbLine
 10
1357.258862939644
 20
288.8323824993376
 30
0.0
 11
1357.252776329549
 21
288.8224891227165
 31
0.0
  0
LINE
  5
3A1
330
37B
100
AcDbEntity
  8
Layer 01
 62
     1
420
 16711680
370
    25
100
AcDbLine
 10
1357.252776329549
 20
288.8224891227165
 30
0.0
 11
1357.24675898815
 21
288.8121439937359
 31
0.0
  0
LINE
  5
3A2
330
37B
100
AcDbEntity
  8
Layer 01
 62
     1
420
 16711680
370
    25
100
AcDbLine
 10
1357.24675898815
 20
288.8121439937359
 30
0.0
 11
1357.240762728531
 21
288.8012808553874
 31
0.0
  0
LINE
  5
3A3
330
37B
100
AcDbEntity
  8
Layer 01
 62
     1
420
 16711680
370
    25
100
AcDbLine
 10
1357.240762728531
 20
288.8012808553874
 30
0.0
 11
1357.234745387132
 21
288.7898183922427
 31
0.0
  0
LINE
  5
3A4
330
37B
100
AcDbEntity
  8
Layer 01
 62
     1
420
 16711680
370
    25
100
AcDbLine
 10
1357.234745387132
 20
288.7898183922427
 30
0.0
 11
1357.234745387132
 21
288.7898183922427
 31
0.0
  0
LINE
  5
3A5
330
37B
100
AcDbEntity
  8
Layer 01
 62
     1
420
 16711680
370
    25
100
AcDbLine
 10
1357.234745387132
 20
288.7898183922427
 30
0.0
 11
1356.989793212338
 21
288.2638822746409
 31
0.0
  0
LINE
  5
3A6
330
37B
100
AcDbEntity
  8
Layer 01
 62
     1
420
 16711680
370
    25
100
AcDbLine
 10
1356.989793212338
 20
288.2638822746409
 30
0.0
 11
1356.846693123991
 21
287.7187015066227
 31
0.0
  0
LINE
  5
3A7
330
37B
100
AcDbEntity
  8
Layer 01
 62
     1
420
 16711680
370
    25
100
AcDbLine
 10
1356.846693123991
 20
287.7187015066227
 30
0.0
 11
1356.80194554717
 21
287.1665968808118
 31
0.0
  0
LINE
  5
3A8
330
37B
100
AcDbEntity
  8
Layer 01
 62
     1
420
 16711680
370
    25
100
AcDbLine
 10
1356.80194554717
 20
287.1665968808118
 30
0.0
 11
1356.852038860216
 21
286.6198891898242
 31
0.0
  0
LINE
  5
3A9
330
37B
100
AcDbEntity
  8
Layer 01
 62
     1
420
 16711680
370
    25
100
AcDbLine
 10
1356.852038860216
 20
286.6198891898242
 30
0.0
 11
1356.993467464842
 21
286.0908932029239
 31
0.0
  0
LINE
  5
3AA
330
37B
100
AcDbEntity
  8
Layer 01
 62
     1
420
 16711680
370
    25
100
AcDbLine
 10
1356.993467464842
 20
286.0908932029239
 30
0.0
 11
1357.22272576275
 21
285.5919297127284
 31
0.0
  0
LINE
  5
3AB
330
37B
100
AcDbEntity
  8
Layer 01
 62
     1
420
 16711680
370
    25
100
AcDbLine
 10
1357.22272576275
 20
285.5919297127284
 30
0.0
 11
1357.536305143966
 21
285.1353165001776
 31
0.0
  0
LINE
  5
3AC
330
37B
100
AcDbEntity
  8
Layer 01
 62
     1
420
 16711680
370
    25
100
AcDbLine
 10
1357.536305143966
 20
285.1353165001776
 30
0.0
 11
1357.930700010202
 21
284.7333743578939
 31
0.0
  0
LINE
  5
3AD
330
37B
100
AcDbEntity
  8
Layer 01
 62
     1
420
 16711680
370
    25
100
AcDbLine
 10
1357.930700010202
 20
284.7333743578939
 30
0.0
 11
1358.402401751483
 21
284.3984210668161
 31
0.0
  0
LINE
  5
3AE
330
37B
100
AcDbEntity
  8
Layer 01
 62
     1
420
 16711680
370
    25
100
AcDbLine
 10
1358.402401751483
 20
284.3984210668161
 30
0.0
 11
1358.402401751483
 21
284.3984210668161
 31
0.0
  0
LINE
  5
3AF
330
37B
100
AcDbEntity
  8
Layer 01
 62
     1
420
 16711680
370
    25
100
AcDbLine
 10
1358.402401751483
 20
284.3984210668161
 30
0.0
 11
1358.929801546725
 21
284.1569473851711
 31
0.0
  0
LINE
  5
3B0
330
37B
100
AcDbEntity
  8
Layer 01
 62
     1
420
 16711680
370
    25
100
AcDbLine
 10
1358.929801546725
 20
284.1569473851711
 30
0.0
 11
1359.475816550763
 21
284.0160548600106
 31
0.0
  0
LINE
  5
3B1
330
37B
100
AcDbEntity
  8
Layer 01
 62
     1
420
 16711680
370
    25
100
AcDbLine
 10
1359.475816550763
 20
284.0160548600106
 30
0.0
 11
1360.028240414905
 21
283.972569178107
 31
0.0
  0
LINE
  5
3B2
330
37B
100
AcDbEntity
  8
Layer 01
 62
     1
420
 16711680
370
    25
100
AcDbLine
 10
1360.028240414905
 20
283.972569178107
 30
0.0
 11
1360.574866790468
 21
284.0233250612803
 31
0.0
  0
LINE
  5
3B3
330
37B
100
AcDbEntity
  8
Layer 01
 62
     1
420
 16711680
370
    25
100
AcDbLine
 10
1360.574866790468
 20
284.0233250612803
 30
0.0
 11
1361.103489328757
 21
284.1651451846126
 31
0.0
  0
LINE
  5
3B4
330
37B
100
AcDbEntity
  8
Layer 01
 62
     1
420
 16711680
370
    25
100
AcDbLine
 10
1361.103489328757
 20
284.1651451846126
 30
0.0
 11
1361.601901681073
 21
284.3948612582421
 31
0.0
  0
LINE
  5
3B5
330
37B
100
AcDbEntity
  8
Layer 01
 62
     1
420
 16711680
370
    25
100
AcDbLine
 10
1361.601901681073
 20
284.3948612582421
 30
0.0
 11
1362.057894487056
 21
284.7093019806203
 31
0.0
  0
LINE
  5
3B6
330
37B
100
AcDbEntity
  8
Layer 01
 62
     1
420
 16711680
370
    25
100
AcDbLine
 10
1362.057894487056
 20
284.7093019806203
 30
0.0
 11
1362.459264409687
 21
285.1052960502019
 31
0.0
  0
LINE
  5
3B7
330
37B
100
AcDbEntity
  8
Layer 01
 62
     1
420
 16711680
370
    25
100
AcDbLine
 10
1362.459264409687
 20
285.1052960502019
 30
0.0
 11
1362.793799076911
 21
285.5796721654371
 31
0.0
  0
LINE
  5
3B8
330
37B
100
AcDbEntity
  8
Layer 01
 62
     1
420
 16711680
370
    25
100
AcDbLine
 10
1362.793799076911
 20
285.5796721654371
 30
0.0
 11
1363.215350283181
 21
286.3883299665772
 31
0.0
  0
LINE
  5
3B9
330
37B
100
AcDbEntity
  8
Layer 01
 62
     1
420
 16711680
370
    25
100
AcDbLine
 10
1402.744277850171
 20
384.671792649037
 30
0.0
 11
1410.070008518248
 21
395.2677887476173
 31
0.0
  0
LINE
  5
3BA
330
37B
100
AcDbEntity
  8
Layer 01
 62
     1
420
 16711680
370
    25
100
AcDbLine
 10
1410.070008518248
 20
395.2677887476173
 30
0.0
 11
1417.397115525175
 21
384.671792649037
 31
0.0
  0
LINE
  5
3BB
330
37B
100
AcDbEntity
  8
Layer 01
 62
     1
420
 16711680
370
    25
100
AcDbLine
 10
1410.070008518248
 20
394.4150971383788
 30
0.0
 11
1410.070008518248
 21
406.6393382346036
 31
0.0
  0
LINE
  5
3BC
330
37B
100
AcDbEntity
  8
Layer 01
 62
     1
420
 16711680
370
    25
100
AcDbLine
 10
1382.493484584069
 20
395.6555669476624
 30
0.0
 11
1394.504209446191
 21
395.6555669476624
 31
0.0
  0
LINE
  5
3BD
330
37B
100
AcDbEntity
  8
Layer 01
 62
     1
420
 16711680
370
    25
100
AcDbLine
 10
1362.061544646099
 20
401.7552899052528
 30
0.0
 11
1374.258237883583
 21
401.7552899052528
 31
0.0
  0
LINE
  5
3BE
330
37B
100
AcDbEntity
  8
Layer 01
 62
     1
420
 16711680
370
    25
100
AcDbLine
 10
1374.258237883583
 20
401.7552899052528
 30
0.0
 11
1369.387275314179
 21
384.6724823243027
 31
0.0
  0
LINE
  5
3BF
330
37B
100
AcDbEntity
  8
Layer 01
 62
     1
420
 16711680
370
    25
100
AcDbLine
 10
1365.717522262535
 20
406.638651571022
 30
0.0
 11
1365.717522262535
 21
396.8829479853155
 31
0.0
  0
ENDBLK
  5
37E
330
37B
100
AcDbEntity
  8
0
100
AcDbBlockEnd
  0
BLOCK
  5
3C2
330
3C0
100
AcDbEntity
  8
0
100
AcDbBlockBegin
  2
Block_8
 70
     0
 10
0.0
 20
0.0
 30
0.0
  3
Block_8
  1

  0
LINE
  5
3C4
330
3C0
100
AcDbEntity
  8
Layer 01
 62
     5
420
      255
370
    25
100
AcDbLine
 10
2053.235250758481
 20
635.9441773888741
 30
0.0
 11
2056.502366189656
 21
643.6539090605513
 31
0.0
  0
LINE
  5
3C5
330
3C0
100
AcDbEntity
  8
Layer 01
 62
     5
420
      255
370
    25
100
AcDbLine
 10
2056.502366189656
 20
643.6539090605513
 30
0.0
 11
2050.480157234256
 21
681.8524757130192
 31
0.0
  0
LINE
  5
3C6
330
3C0
100
AcDbEntity
  8
Layer 01
 62
     5
420
      255
370
    25
100
AcDbLine
 10
2050.480157234256
 20
681.8524757130192
 30
0.0
 11
1988.34656351232
 21
651.2062588333836
 31
0.0
  0
LINE
  5
3C7
330
3C0
100
AcDbEntity
  8
Layer 01
 62
     5
420
      255
370
    25
100
AcDbLine
 10
1988.34656351232
 20
651.2062588333836
 30
0.0
 11
1984.640006036993
 21
658.5992051560885
 31
0.0
  0
LINE
  5
3C8
330
3C0
100
AcDbEntity
  8
Layer 01
 62
     5
420
      255
370
    25
100
AcDbLine
 10
1984.640006036993
 20
658.5992051560885
 30
0.0
 11
2048.364115729562
 21
690.5481960882334
 31
0.0
  0
LINE
  5
3C9
330
3C0
100
AcDbEntity
  8
Layer 01
 62
     5
420
      255
370
    25
100
AcDbLine
 10
2048.364115729562
 20
690.5481960882334
 30
0.0
 11
2044.993463730813
 21
702.6708734184841
 31
0.0
  0
LINE
  5
3CA
330
3C0
100
AcDbEntity
  8
Layer 01
 62
     5
420
      255
370
    25
100
AcDbLine
 10
2044.993463730813
 20
702.6708734184841
 30
0.0
 11
2033.436796569169
 21
717.8566437464955
 31
0.0
  0
LINE
  5
3CB
330
3C0
100
AcDbEntity
  8
Layer 01
 62
     5
420
      255
370
    25
100
AcDbLine
 10
2033.436796569169
 20
717.8566437464955
 30
0.0
 11
2011.43096448462
 21
740.8417353591862
 31
0.0
  0
LINE
  5
3CC
330
3C0
100
AcDbEntity
  8
Layer 01
 62
     5
420
      255
370
    25
100
AcDbLine
 10
2011.43096448462
 20
740.8417353591862
 30
0.0
 11
1999.99089889437
 21
747.3686254788264
 31
0.0
  0
LINE
  5
3CD
330
3C0
100
AcDbEntity
  8
Layer 01
 62
     5
420
      255
370
    25
100
AcDbLine
 10
1999.99089889437
 20
747.3686254788264
 30
0.0
 11
1951.290452527663
 21
749.8721447708626
 31
0.0
  0
LINE
  5
3CE
330
3C0
100
AcDbEntity
  8
Layer 01
 62
     5
420
      255
370
    25
100
AcDbLine
 10
1951.290452527663
 20
749.8721447708626
 30
0.0
 11
1946.289048679632
 21
749.3687194619227
 31
0.0
  0
LINE
  5
3CF
330
3C0
100
AcDbEntity
  8
Layer 01
 62
     5
420
      255
370
    25
100
AcDbLine
 10
1946.289048679632
 20
749.3687194619227
 30
0.0
 11
1932.879579782342
 21
688.159725904553
 31
0.0
  0
LINE
  5
3D0
330
3C0
100
AcDbEntity
  8
Layer 01
 62
     5
420
      255
370
    25
100
AcDbLine
 10
1932.879579782342
 20
688.159725904553
 30
0.0
 11
1924.788541167724
 21
689.8712470715824
 31
0.0
  0
LINE
  5
3D1
330
3C0
100
AcDbEntity
  8
Layer 01
 62
     5
420
      255
370
    25
100
AcDbLine
 10
1924.788541167724
 20
689.8712470715824
 30
0.0
 11
1937.144031136483
 21
748.2805265667498
 31
0.0
  0
LINE
  5
3D2
330
3C0
100
AcDbEntity
  8
Layer 01
 62
     5
420
      255
370
    25
100
AcDbLine
 10
1937.144031136483
 20
748.2805265667498
 30
0.0
 11
1934.356837658373
 21
748.1676576687984
 31
0.0
  0
LINE
  5
3D3
330
3C0
100
AcDbEntity
  8
Layer 01
 62
     5
420
      255
370
    25
100
AcDbLine
 10
1934.356837658373
 20
748.1676576687984
 30
0.0
 11
1868.759028946761
 21
728.5641563770886
 31
0.0
  0
LINE
  5
3D4
330
3C0
100
AcDbEntity
  8
Layer 01
 62
     5
420
      255
370
    25
100
AcDbLine
 10
1868.759028946761
 20
728.5641563770886
 30
0.0
 11
1866.300825901094
 21
726.4630807754127
 31
0.0
  0
LINE
  5
3D5
330
3C0
100
AcDbEntity
  8
Layer 01
 62
     5
420
      255
370
    25
100
AcDbLine
 10
1866.300825901094
 20
726.4630807754127
 30
0.0
 11
1845.237374223023
 21
709.0970551290878
 31
0.0
  0
LINE
  5
3D6
330
3C0
100
AcDbEntity
  8
Layer 01
 62
     5
420
      255
370
    25
100
AcDbLine
 10
1845.237374223023
 20
709.0970551290878
 30
0.0
 11
1877.775161994865
 21
668.8936261747967
 31
0.0
  0
LINE
  5
3D7
330
3C0
100
AcDbEntity
  8
Layer 01
 62
     5
420
      255
370
    25
100
AcDbLine
 10
1877.775161994865
 20
668.8936261747967
 30
0.0
 11
1871.392360045307
 21
663.634913453622
 31
0.0
  0
LINE
  5
3D8
330
3C0
100
AcDbEntity
  8
Layer 01
 62
     5
420
      255
370
    25
100
AcDbLine
 10
1871.392360045307
 20
663.634913453622
 30
0.0
 11
1838.527632734952
 21
703.5247223613436
 31
0.0
  0
LINE
  5
3D9
330
3C0
100
AcDbEntity
  8
Layer 01
 62
     5
420
      255
370
    25
100
AcDbLine
 10
1838.527632734952
 20
703.5247223613436
 30
0.0
 11
1813.562686106617
 21
682.9824659220633
 31
0.0
  0
LINE
  5
3DA
330
3C0
100
AcDbEntity
  8
Layer 01
 62
     5
420
      255
370
    25
100
AcDbLine
 10
1813.562686106617
 20
682.9824659220633
 30
0.0
 11
1781.194198061355
 21
622.2631818173412
 31
0.0
  0
LINE
  5
3DB
330
3C0
100
AcDbEntity
  8
Layer 01
 62
     5
420
      255
370
    25
100
AcDbLine
 10
1781.194198061355
 20
622.2631818173412
 30
0.0
 11
1780.843112695514
 21
620.532004347174
 31
0.0
  0
LINE
  5
3DC
330
3C0
100
AcDbEntity
  8
Layer 01
 62
     5
420
      255
370
    25
100
AcDbLine
 10
1780.843112695514
 20
620.532004347174
 30
0.0
 11
1841.170641102342
 21
621.4936767948663
 31
0.0
  0
LINE
  5
3DD
330
3C0
100
AcDbEntity
  8
Layer 01
 62
     5
420
      255
370
    25
100
AcDbLine
 10
1841.170641102342
 20
621.4936767948663
 30
0.0
 11
1841.302455852254
 21
613.2246481070378
 31
0.0
  0
LINE
  5
3DE
330
3C0
100
AcDbEntity
  8
Layer 01
 62
     5
420
      255
370
    25
100
AcDbLine
 10
1841.302455852254
 20
613.2246481070378
 30
0.0
 11
1778.138891014833
 21
612.2177687797154
 31
0.0
  0
LINE
  5
3DF
330
3C0
100
AcDbEntity
  8
Layer 01
 62
     5
420
      255
370
    25
100
AcDbLine
 10
1778.138891014833
 20
612.2177687797154
 30
0.0
 11
1776.531713614166
 21
606.9335915457777
 31
0.0
  0
LINE
  5
3E0
330
3C0
100
AcDbEntity
  8
Layer 01
 62
     5
420
      255
370
    25
100
AcDbLine
 10
1776.531713614166
 20
606.9335915457777
 30
0.0
 11
1769.228339125557
 21
557.2101131765411
 31
0.0
  0
LINE
  5
3E1
330
3C0
100
AcDbEntity
  8
Layer 01
 62
     5
420
      255
370
    25
100
AcDbLine
 10
1769.228339125557
 20
557.2101131765411
 30
0.0
 11
1772.108352041135
 21
546.6595735266268
 31
0.0
  0
LINE
  5
3E2
330
3C0
100
AcDbEntity
  8
Layer 01
 62
     5
420
      255
370
    25
100
AcDbLine
 10
1772.108352041135
 20
546.6595735266268
 30
0.0
 11
1791.857904208574
 21
518.4366611621376
 31
0.0
  0
LINE
  5
3E3
330
3C0
100
AcDbEntity
  8
Layer 01
 62
     5
420
      255
370
    25
100
AcDbLine
 10
1791.857904208574
 20
518.4366611621376
 30
0.0
 11
1804.358868115845
 21
504.4194977137097
 31
0.0
  0
LINE
  5
3E4
330
3C0
100
AcDbEntity
  8
Layer 01
 62
     5
420
      255
370
    25
100
AcDbLine
 10
1804.358868115845
 20
504.4194977137097
 30
0.0
 11
1816.181282477883
 21
498.6339841777981
 31
0.0
  0
LINE
  5
3E5
330
3C0
100
AcDbEntity
  8
Layer 01
 62
     5
420
      255
370
    25
100
AcDbLine
 10
1816.181282477883
 20
498.6339841777981
 30
0.0
 11
1860.421583747742
 21
555.9607085749579
 31
0.0
  0
LINE
  5
3E6
330
3C0
100
AcDbEntity
  8
Layer 01
 62
     5
420
      255
370
    25
100
AcDbLine
 10
1860.421583747742
 20
555.9607085749579
 30
0.0
 11
1866.968755396603
 21
550.9081096433167
 31
0.0
  0
LINE
  5
3E7
330
3C0
100
AcDbEntity
  8
Layer 01
 62
     5
420
      255
370
    25
100
AcDbLine
 10
1866.968755396603
 20
550.9081096433167
 30
0.0
 11
1824.290876420424
 21
495.6059787905581
 31
0.0
  0
LINE
  5
3E8
330
3C0
100
AcDbEntity
  8
Layer 01
 62
     5
420
      255
370
    25
100
AcDbLine
 10
1824.290876420424
 20
495.6059787905581
 30
0.0
 11
1857.22762986033
 21
482.5546788718974
 31
0.0
  0
LINE
  5
3E9
330
3C0
100
AcDbEntity
  8
Layer 01
 62
     5
420
      255
370
    25
100
AcDbLine
 10
1857.22762986033
 20
482.5546788718974
 30
0.0
 11
1894.129867583638
 21
481.8449310734918
 31
0.0
  0
LINE
  5
3EA
330
3C0
100
AcDbEntity
  8
Layer 01
 62
     5
420
      255
370
    25
100
AcDbLine
 10
1894.129867583638
 20
481.8449310734918
 30
0.0
 11
1937.357565818653
 21
505.5181932984027
 31
0.0
  0
LINE
  5
3EB
330
3C0
100
AcDbEntity
  8
Layer 01
 62
     5
420
      255
370
    25
100
AcDbLine
 10
1937.357565818653
 20
505.5181932984027
 30
0.0
 11
1924.838928302598
 21
556.5988277817288
 31
0.0
  0
LINE
  5
3EC
330
3C0
100
AcDbEntity
  8
Layer 01
 62
     5
420
      255
370
    25
100
AcDbLine
 10
1924.838928302598
 20
556.5988277817288
 30
0.0
 11
1932.871303382493
 21
558.567368687101
 31
0.0
  0
LINE
  5
3ED
330
3C0
100
AcDbEntity
  8
Layer 01
 62
     5
420
      255
370
    25
100
AcDbLine
 10
1932.871303382493
 20
558.567368687101
 30
0.0
 11
1944.781590032973
 21
509.969035902987
 31
0.0
  0
LINE
  5
3EE
330
3C0
100
AcDbEntity
  8
Layer 01
 62
     5
420
      255
370
    25
100
AcDbLine
 10
1944.781590032973
 20
509.969035902987
 30
0.0
 11
1967.361771465496
 21
537.3932551138998
 31
0.0
  0
LINE
  5
3EF
330
3C0
100
AcDbEntity
  8
Layer 01
 62
     5
420
      255
370
    25
100
AcDbLine
 10
1967.361771465496
 20
537.3932551138998
 30
0.0
 11
1969.228514047224
 21
549.1780549353958
 31
0.0
  0
LINE
  5
3F0
330
3C0
100
AcDbEntity
  8
Layer 01
 62
     5
420
      255
370
    25
100
AcDbLine
 10
1969.228514047224
 20
549.1780549353958
 30
0.0
 11
1993.544924720911
 21
551.3694712213018
 31
0.0
  0
LINE
  5
3F1
330
3C0
100
AcDbEntity
  8
Layer 01
 62
     5
420
      255
370
    25
100
AcDbLine
 10
1993.544924720911
 20
551.3694712213018
 30
0.0
 11
2012.965965907593
 21
567.69788871889
 31
0.0
  0
LINE
  5
3F2
330
3C0
100
AcDbEntity
  8
Layer 01
 62
     5
420
      255
370
    25
100
AcDbLine
 10
2012.965965907593
 20
567.69788871889
 30
0.0
 11
1968.562073508554
 21
588.7139775772944
 31
0.0
  0
LINE
  5
3F3
330
3C0
100
AcDbEntity
  8
Layer 01
 62
     5
420
      255
370
    25
100
AcDbLine
 10
1968.562073508554
 20
588.7139775772944
 30
0.0
 11
1972.031107744989
 21
596.2213076077879
 31
0.0
  0
LINE
  5
3F4
330
3C0
100
AcDbEntity
  8
Layer 01
 62
     5
420
      255
370
    25
100
AcDbLine
 10
1972.031107744989
 20
596.2213076077879
 30
0.0
 11
2019.196257841199
 21
574.4269309518688
 31
0.0
  0
LINE
  5
3F5
330
3C0
100
AcDbEntity
  8
Layer 01
 62
     5
420
      255
370
    25
100
AcDbLine
 10
2019.196257841199
 20
574.4269309518688
 30
0.0
 11
2046.340365394673
 21
604.8101211928783
 31
0.0
  0
LINE
  5
3F6
330
3C0
100
AcDbEntity
  8
Layer 01
 62
     5
420
      255
370
    25
100
AcDbLine
 10
2046.340365394673
 20
604.8101211928783
 30
0.0
 11
2053.235250758481
 21
635.9441773888741
 31
0.0
  0
LINE
  5
3F7
330
3C0
100
AcDbEntity
  8
Layer 01
 62
     1
420
 16711680
370
    25
100
AcDbLine
 10
1890.874891037794
 20
657.85791450554
 30
0.0
 11
1879.717771825167
 21
648.6656999892857
 31
0.0
  0
LINE
  5
3F8
330
3C0
100
AcDbEntity
  8
Layer 01
 62
     1
420
 16711680
370
    25
100
AcDbLine
 10
1879.717771825167
 20
648.6656999892857
 30
0.0
 11
1884.242386963563
 21
648.2294531330717
 31
0.0
  0
LINE
  5
3F9
330
3C0
100
AcDbEntity
  8
Layer 01
 62
     1
420
 16711680
370
    25
100
AcDbLine
 10
1856.363652529164
 20
624.8293750133081
 30
0.0
 11
1862.783124514345
 21
624.9317069690213
 31
0.0
  0
LINE
  5
3FA
330
3C0
100
AcDbEntity
  8
Layer 01
 62
     1
420
 16711680
370
    25
100
AcDbLine
 10
1862.783124514345
 20
624.9317069690213
 30
0.0
 11
1857.003547128224
 21
615.2877064025116
 31
0.0
  0
LINE
  5
3FB
330
3C0
100
AcDbEntity
  8
Layer 01
 62
     1
420
 16711680
370
    25
100
AcDbLine
 10
1857.003547128224
 20
615.2877064025116
 30
0.0
 11
1857.003547128224
 21
615.2877064025116
 31
0.0
  0
LINE
  5
3FC
330
3C0
100
AcDbEntity
  8
Layer 01
 62
     1
420
 16711680
370
    25
100
AcDbLine
 10
1857.003547128224
 20
615.2877064025116
 30
0.0
 11
1856.996595659825
 21
615.2788184051624
 31
0.0
  0
LINE
  5
3FD
330
3C0
100
AcDbEntity
  8
Layer 01
 62
     1
420
 16711680
370
    25
100
AcDbLine
 10
1856.996595659825
 20
615.2788184051624
 30
0.0
 11
1856.989936858991
 21
615.2698593585117
 31
0.0
  0
LINE
  5
3FE
330
3C0
100
AcDbEntity
  8
Layer 01
 62
     1
420
 16711680
370
    25
100
AcDbLine
 10
1856.989936858991
 20
615.2698593585117
 30
0.0
 11
1856.983525202326
 21
615.2607566367483
 31
0.0
  0
LINE
  5
3FF
330
3C0
100
AcDbEntity
  8
Layer 01
 62
     1
420
 16711680
370
    25
100
AcDbLine
 10
1856.983525202326
 20
615.2607566367483
 30
0.0
 11
1856.977321320933
 21
615.2514348803198
 31
0.0
  0
LINE
  5
400
330
3C0
100
AcDbEntity
  8
Layer 01
 62
     1
420
 16711680
370
    25
100
AcDbLine
 10
1856.977321320933
 20
615.2514348803198
 30
0.0
 11
1856.971276957659
 21
615.2418153089188
 31
0.0
  0
LINE
  5
401
330
3C0
100
AcDbEntity
  8
Layer 01
 62
     1
420
 16711680
370
    25
100
AcDbLine
 10
1856.971276957659
 20
615.2418153089188
 30
0.0
 11
1856.965348504153
 21
615.2318229723501
 31
0.0
  0
LINE
  5
402
330
3C0
100
AcDbEntity
  8
Layer 01
 62
     1
420
 16711680
370
    25
100
AcDbLine
 10
1856.965348504153
 20
615.2318229723501
 30
0.0
 11
1856.959498915917
 21
615.2213844260975
 31
0.0
  0
LINE
  5
403
330
3C0
100
AcDbEntity
  8
Layer 01
 62
     1
420
 16711680
370
    25
100
AcDbLine
 10
1856.959498915917
 20
615.2213844260975
 30
0.0
 11
1856.953676105707
 21
615.210425538661
 31
0.0
  0
LINE
  5
404
330
3C0
100
AcDbEntity
  8
Layer 01
 62
     1
420
 16711680
370
    25
100
AcDbLine
 10
1856.953676105707
 20
615.210425538661
 30
0.0
 11
1856.947842619667
 21
615.1988686260867
 31
0.0
  0
LINE
  5
405
330
3C0
100
AcDbEntity
  8
Layer 01
 62
     1
420
 16711680
370
    25
100
AcDbLine
 10
1856.947842619667
 20
615.1988686260867
 30
0.0
 11
1856.947842619667
 21
615.1988686260867
 31
0.0
  0
LINE
  5
406
330
3C0
100
AcDbEntity
  8
Layer 01
 62
     1
420
 16711680
370
    25
100
AcDbLine
 10
1856.947842619667
 20
615.1988686260867
 30
0.0
 11
1856.711302105977
 21
614.6690966348829
 31
0.0
  0
LINE
  5
407
330
3C0
100
AcDbEntity
  8
Layer 01
 62
     1
420
 16711680
370
    25
100
AcDbLine
 10
1856.711302105977
 20
614.6690966348829
 30
0.0
 11
1856.576913074471
 21
614.1217053964241
 31
0.0
  0
LINE
  5
408
330
3C0
100
AcDbEntity
  8
Layer 01
 62
     1
420
 16711680
370
    25
100
AcDbLine
 10
1856.576913074471
 20
614.1217053964241
 30
0.0
 11
1856.540968666078
 21
613.5689569383213
 31
0.0
  0
LINE
  5
409
330
3C0
100
AcDbEntity
  8
Layer 01
 62
     1
420
 16711680
370
    25
100
AcDbLine
 10
1856.540968666078
 20
613.5689569383213
 30
0.0
 11
1856.599770909953
 21
613.0231167089025
 31
0.0
  0
LINE
  5
40A
330
3C0
100
AcDbEntity
  8
Layer 01
 62
     1
420
 16711680
370
    25
100
AcDbLine
 10
1856.599770909953
 20
613.0231167089025
 30
0.0
 11
1856.749612537664
 21
612.4964424963329
 31
0.0
  0
LINE
  5
40B
330
3C0
100
AcDbEntity
  8
Layer 01
 62
     1
420
 16711680
370
    25
100
AcDbLine
 10
1856.749612537664
 20
612.4964424963329
 30
0.0
 11
1856.98679516902
 21
612.00119550951
 31
0.0
  0
LINE
  5
40C
330
3C0
100
AcDbEntity
  8
Layer 01
 62
     1
420
 16711680
370
    25
100
AcDbLine
 10
1856.98679516902
 20
612.00119550951
 30
0.0
 11
1857.307611944938
 21
611.5496377760392
 31
0.0
  0
LINE
  5
40D
330
3C0
100
AcDbEntity
  8
Layer 01
 62
     1
420
 16711680
370
    25
100
AcDbLine
 10
1857.307611944938
 20
611.5496377760392
 30
0.0
 11
1857.708362570185
 21
611.1540328292059
 31
0.0
  0
LINE
  5
40E
330
3C0
100
AcDbEntity
  8
Layer 01
 62
     1
420
 16711680
370
    25
100
AcDbLine
 10
1857.708362570185
 20
611.1540328292059
 30
0.0
 11
1858.185342100724
 21
610.8266403722207
 31
0.0
  0
LINE
  5
40F
330
3C0
100
AcDbEntity
  8
Layer 01
 62
     1
420
 16711680
370
    25
100
AcDbLine
 10
1858.185342100724
 20
610.8266403722207
 30
0.0
 11
1858.185342100724
 21
610.8266403722207
 31
0.0
  0
LINE
  5
410
330
3C0
100
AcDbEntity
  8
Layer 01
 62
     1
420
 16711680
370
    25
100
AcDbLine
 10
1858.185342100724
 20
610.8266403722207
 30
0.0
 11
1858.71652231429
 21
610.5936052870347
 31
0.0
  0
LINE
  5
411
330
3C0
100
AcDbEntity
  8
Layer 01
 62
     1
420
 16711680
370
    25
100
AcDbLine
 10
1858.71652231429
 20
610.5936052870347
 30
0.0
 11
1859.264713771004
 21
610.4614325161422
 31
0.0
  0
LINE
  5
412
330
3C0
100
AcDbEntity
  8
Layer 01
 62
     1
420
 16711680
370
    25
100
AcDbLine
 10
1859.264713771004
 20
610.4614325161422
 30
0.0
 11
1859.817762405345
 21
610.4267577909218
 31
0.0
  0
LINE
  5
413
330
3C0
100
AcDbEntity
  8
Layer 01
 62
     1
420
 16711680
370
    25
100
AcDbLine
 10
1859.817762405345
 20
610.4267577909218
 30
0.0
 11
1860.363512236743
 21
610.4862191671506
 31
0.0
  0
LINE
  5
414
330
3C0
100
AcDbEntity
  8
Layer 01
 62
     1
420
 16711680
370
    25
100
AcDbLine
 10
1860.363512236743
 20
610.4862191671506
 30
0.0
 11
1860.889806465912
 21
610.6364462217181
 31
0.0
  0
LINE
  5
415
330
3C0
100
AcDbEntity
  8
Layer 01
 62
     1
420
 16711680
370
    25
100
AcDbLine
 10
1860.889806465912
 20
610.6364462217181
 30
0.0
 11
1861.384495676129
 21
610.8740785160895
 31
0.0
  0
LINE
  5
416
330
3C0
100
AcDbEntity
  8
Layer 01
 62
     1
420
 16711680
370
    25
100
AcDbLine
 10
1861.384495676129
 20
610.8740785160895
 30
0.0
 11
1861.835416913625
 21
611.195748360912
 31
0.0
  0
LINE
  5
417
330
3C0
100
AcDbEntity
  8
Layer 01
 62
     1
420
 16711680
370
    25
100
AcDbLine
 10
1861.835416913625
 20
611.195748360912
 30
0.0
 11
1862.23042226736
 21
611.5980887538047
 31
0.0
  0
LINE
  5
418
330
3C0
100
AcDbEntity
  8
Layer 01
 62
     1
420
 16711680
370
    25
100
AcDbLine
 10
1862.23042226736
 20
611.5980887538047
 30
0.0
 11
1862.557355756771
 21
612.0777377505471
 31
0.0
  0
LINE
  5
419
330
3C0
100
AcDbEntity
  8
Layer 01
 62
     1
420
 16711680
370
    25
100
AcDbLine
 10
1862.557355756771
 20
612.0777377505471
 30
0.0
 11
1862.965966747198
 21
612.8930094749198
 31
0.0
  0
LINE
  5
41A
330
3C0
100
AcDbEntity
  8
Layer 01
 62
     1
420
 16711680
370
    25
100
AcDbLine
 10
1871.20923752451
 20
575.0012528802516
 30
0.0
 11
1869.248001933731
 21
572.4598796929966
 31
0.0
  0
LINE
  5
41B
330
3C0
100
AcDbEntity
  8
Layer 01
 62
     1
420
 16711680
370
    25
100
AcDbLine
 10
1869.248001933731
 20
572.4598796929966
 30
0.0
 11
1869.248001933731
 21
572.4598796929966
 31
0.0
  0
LINE
  5
41C
330
3C0
100
AcDbEntity
  8
Layer 01
 62
     1
420
 16711680
370
    25
100
AcDbLine
 10
1869.248001933731
 20
572.4598796929966
 30
0.0
 11
1868.936271347075
 21
571.9711654105363
 31
0.0
  0
LINE
  5
41D
330
3C0
100
AcDbEntity
  8
Layer 01
 62
     1
420
 16711680
370
    25
100
AcDbLine
 10
1868.936271347075
 20
571.9711654105363
 30
0.0
 11
1868.722535668512
 21
571.4498802850283
 31
0.0
  0
LINE
  5
41E
330
3C0
100
AcDbEntity
  8
Layer 01
 62
     1
420
 16711680
370
    25
100
AcDbLine
 10
1868.722535668512
 20
571.4498802850283
 30
0.0
 11
1868.605054721988
 21
570.908778939687
 31
0.0
  0
LINE
  5
41F
330
3C0
100
AcDbEntity
  8
Layer 01
 62
     1
420
 16711680
370
    25
100
AcDbLine
 10
1868.605054721988
 20
570.908778939687
 30
0.0
 11
1868.582102555449
 21
570.3606082058289
 31
0.0
  0
LINE
  5
420
330
3C0
100
AcDbEntity
  8
Layer 01
 62
     1
420
 16711680
370
    25
100
AcDbLine
 10
1868.582102555449
 20
570.3606082058289
 30
0.0
 11
1868.651940907887
 21
569.8181203822837
 31
0.0
  0
LINE
  5
421
330
3C0
100
AcDbEntity
  8
Layer 01
 62
     1
420
 16711680
370
    25
100
AcDbLine
 10
1868.651940907887
 20
569.8181203822837
 30
0.0
 11
1868.812838082118
 21
569.2940692735543
 31
0.0
  0
LINE
  5
422
330
3C0
100
AcDbEntity
  8
Layer 01
 62
     1
420
 16711680
370
    25
100
AcDbLine
 10
1868.812838082118
 20
569.2940692735543
 30
0.0
 11
1869.063061971618
 21
568.8012044447181
 31
0.0
  0
LINE
  5
423
330
3C0
100
AcDbEntity
  8
Layer 01
 62
     1
420
 16711680
370
    25
100
AcDbLine
 10
1869.063061971618
 20
568.8012044447181
 30
0.0
 11
1869.400878554803
 21
568.3522777852433
 31
0.0
  0
LINE
  5
424
330
3C0
100
AcDbEntity
  8
Layer 01
 62
     1
420
 16711680
370
    25
100
AcDbLine
 10
1869.400878554803
 20
568.3522777852433
 30
0.0
 11
1869.824553810107
 21
567.960041184597
 31
0.0
  0
LINE
  5
425
330
3C0
100
AcDbEntity
  8
Layer 01
 62
     1
420
 16711680
370
    25
100
AcDbLine
 10
1869.824553810107
 20
567.960041184597
 30
0.0
 11
1871.097035178833
 21
566.9780359299972
 31
0.0
  0
LINE
  5
426
330
3C0
100
AcDbEntity
  8
Layer 01
 62
     1
420
 16711680
370
    25
100
AcDbLine
 10
1871.097035178833
 20
566.9780359299972
 30
0.0
 11
1871.097035178833
 21
566.9780359299972
 31
0.0
  0
LINE
  5
427
330
3C0
100
AcDbEntity
  8
Layer 01
 62
     1
420
 16711680
370
    25
100
AcDbLine
 10
1871.097035178833
 20
566.9780359299972
 30
0.0
 11
1871.583668034302
 21
566.6677707591905
 31
0.0
  0
LINE
  5
428
330
3C0
100
AcDbEntity
  8
Layer 01
 62
     1
420
 16711680
370
    25
100
AcDbLine
 10
1871.583668034302
 20
566.6677707591905
 30
0.0
 11
1872.103462371143
 21
566.4548593856509
 31
0.0
  0
LINE
  5
429
330
3C0
100
AcDbEntity
  8
Layer 01
 62
     1
420
 16711680
370
    25
100
AcDbLine
 10
1872.103462371143
 20
566.4548593856509
 30
0.0
 11
1872.643627693037
 21
566.3377662088111
 31
0.0
  0
LINE
  5
42A
330
3C0
100
AcDbEntity
  8
Layer 01
 62
     1
420
 16711680
370
    25
100
AcDbLine
 10
1872.643627693037
 20
566.3377662088111
 30
0.0
 11
1873.191372275608
 21
566.3149429097903
 31
0.0
  0
LINE
  5
42B
330
3C0
100
AcDbEntity
  8
Layer 01
 62
     1
420
 16711680
370
    25
100
AcDbLine
 10
1873.191372275608
 20
566.3149429097903
 30
0.0
 11
1873.733902888795
 21
566.3848477335467
 31
0.0
  0
LINE
  5
42C
330
3C0
100
AcDbEntity
  8
Layer 01
 62
     1
420
 16711680
370
    25
100
AcDbLine
 10
1873.733902888795
 20
566.3848477335467
 30
0.0
 11
1874.258429036284
 21
566.5459450795116
 31
0.0
  0
LINE
  5
42D
330
3C0
100
AcDbEntity
  8
Layer 01
 62
     1
420
 16711680
370
    25
100
AcDbLine
 10
1874.258429036284
 20
566.5459450795116
 30
0.0
 11
1874.7521589937
 21
566.7966866288099
 31
0.0
  0
LINE
  5
42E
330
3C0
100
AcDbEntity
  8
Layer 01
 62
     1
420
 16711680
370
    25
100
AcDbLine
 10
1874.7521589937
 20
566.7966866288099
 30
0.0
 11
1875.202295700886
 21
567.1355352751951
 31
0.0
  0
LINE
  5
42F
330
3C0
100
AcDbEntity
  8
Layer 01
 62
     1
420
 16711680
370
    25
100
AcDbLine
 10
1875.202295700886
 20
567.1355352751951
 30
0.0
 11
1875.59605632171
 21
567.5609461205093
 31
0.0
  0
LINE
  5
430
330
3C0
100
AcDbEntity
  8
Layer 01
 62
     1
420
 16711680
370
    25
100
AcDbLine
 10
1875.59605632171
 20
567.5609461205093
 30
0.0
 11
1876.578057336872
 21
568.833427898592
 31
0.0
  0
LINE
  5
431
330
3C0
100
AcDbEntity
  8
Layer 01
 62
     1
420
 16711680
370
    25
100
AcDbLine
 10
1876.578057336872
 20
568.833427898592
 30
0.0
 11
1875.59605632171
 21
567.5609461205093
 31
0.0
  0
LINE
  5
432
330
3C0
100
AcDbEntity
  8
Layer 01
 62
     1
420
 16711680
370
    25
100
AcDbLine
 10
1875.59605632171
 20
567.5609461205093
 30
0.0
 11
1875.59605632171
 21
567.5609461205093
 31
0.0
  0
LINE
  5
433
330
3C0
100
AcDbEntity
  8
Layer 01
 62
     1
420
 16711680
370
    25
100
AcDbLine
 10
1875.59605632171
 20
567.5609461205093
 30
0.0
 11
1875.284359518875
 21
567.0722050415869
 31
0.0
  0
LINE
  5
434
330
3C0
100
AcDbEntity
  8
Layer 01
 62
     1
420
 16711680
370
    25
100
AcDbLine
 10
1875.284359518875
 20
567.0722050415869
 30
0.0
 11
1875.070749400396
 21
566.5508243522221
 31
0.0
  0
LINE
  5
435
330
3C0
100
AcDbEntity
  8
Layer 01
 62
     1
420
 16711680
370
    25
100
AcDbLine
 10
1875.070749400396
 20
566.5508243522221
 30
0.0
 11
1874.953535303734
 21
566.009517523411
 31
0.0
  0
LINE
  5
436
330
3C0
100
AcDbEntity
  8
Layer 01
 62
     1
420
 16711680
370
    25
100
AcDbLine
 10
1874.953535303734
 20
566.009517523411
 30
0.0
 11
1874.931020821234
 21
565.4610049993758
 31
0.0
  0
LINE
  5
437
330
3C0
100
AcDbEntity
  8
Layer 01
 62
     1
420
 16711680
370
    25
100
AcDbLine
 10
1874.931020821234
 20
565.4610049993758
 30
0.0
 11
1875.001522672929
 21
564.9180102356836
 31
0.0
  0
LINE
  5
438
330
3C0
100
AcDbEntity
  8
Layer 01
 62
     1
420
 16711680
370
    25
100
AcDbLine
 10
1875.001522672929
 20
564.9180102356836
 30
0.0
 11
1875.163339802351
 21
564.3932498464648
 31
0.0
  0
LINE
  5
439
330
3C0
100
AcDbEntity
  8
Layer 01
 62
     1
420
 16711680
370
    25
100
AcDbLine
 10
1875.163339802351
 20
564.3932498464648
 30
0.0
 11
1875.41478195633
 21
563.8994415421605
 31
0.0
  0
LINE
  5
43A
330
3C0
100
AcDbEntity
  8
Layer 01
 62
     1
420
 16711680
370
    25
100
AcDbLine
 10
1875.41478195633
 20
563.8994415421605
 30
0.0
 11
1875.75416161545
 21
563.4493091877161
 31
0.0
  0
LINE
  5
43B
330
3C0
100
AcDbEntity
  8
Layer 01
 62
     1
420
 16711680
370
    25
100
AcDbLine
 10
1875.75416161545
 20
563.4493091877161
 30
0.0
 11
1876.179783877742
 21
563.0555666634893
 31
0.0
  0
LINE
  5
43C
330
3C0
100
AcDbEntity
  8
Layer 01
 62
     1
420
 16711680
370
    25
100
AcDbLine
 10
1876.179783877742
 20
563.0555666634893
 30
0.0
 11
1876.179783877742
 21
563.0555666634893
 31
0.0
  0
LINE
  5
43D
330
3C0
100
AcDbEntity
  8
Layer 01
 62
     1
420
 16711680
370
    25
100
AcDbLine
 10
1876.179783877742
 20
563.0555666634893
 30
0.0
 11
1876.666416733214
 21
562.7453014926875
 31
0.0
  0
LINE
  5
43E
330
3C0
100
AcDbEntity
  8
Layer 01
 62
     1
420
 16711680
370
    25
100
AcDbLine
 10
1876.666416733214
 20
562.7453014926875
 30
0.0
 11
1877.186211070052
 21
562.5323901191434
 31
0.0
  0
LINE
  5
43F
330
3C0
100
AcDbEntity
  8
Layer 01
 62
     1
420
 16711680
370
    25
100
AcDbLine
 10
1877.186211070052
 20
562.5323901191434
 30
0.0
 11
1877.72637830699
 21
562.4152946179083
 31
0.0
  0
LINE
  5
440
330
3C0
100
AcDbEntity
  8
Layer 01
 62
     1
420
 16711680
370
    25
100
AcDbLine
 10
1877.72637830699
 20
562.4152946179083
 30
0.0
 11
1878.274122889564
 21
562.3924713188879
 31
0.0
  0
LINE
  5
441
330
3C0
100
AcDbEntity
  8
Layer 01
 62
     1
420
 16711680
370
    25
100
AcDbLine
 10
1878.274122889564
 20
562.3924713188879
 30
0.0
 11
1878.816651587709
 21
562.4623784670395
 31
0.0
  0
LINE
  5
442
330
3C0
100
AcDbEntity
  8
Layer 01
 62
     1
420
 16711680
370
    25
100
AcDbLine
 10
1878.816651587709
 20
562.4623784670395
 30
0.0
 11
1879.341177735194
 21
562.6234758130063
 31
0.0
  0
LINE
  5
443
330
3C0
100
AcDbEntity
  8
Layer 01
 62
     1
420
 16711680
370
    25
100
AcDbLine
 10
1879.341177735194
 20
562.6234758130063
 30
0.0
 11
1879.834907692612
 21
562.8742173623079
 31
0.0
  0
LINE
  5
444
330
3C0
100
AcDbEntity
  8
Layer 01
 62
     1
420
 16711680
370
    25
100
AcDbLine
 10
1879.834907692612
 20
562.8742173623079
 30
0.0
 11
1880.285046314844
 21
563.2130636842901
 31
0.0
  0
LINE
  5
445
330
3C0
100
AcDbEntity
  8
Layer 01
 62
     1
420
 16711680
370
    25
100
AcDbLine
 10
1880.285046314844
 20
563.2130636842901
 30
0.0
 11
1880.67880502062
 21
563.6384768540047
 31
0.0
  0
LINE
  5
446
330
3C0
100
AcDbEntity
  8
Layer 01
 62
     1
420
 16711680
370
    25
100
AcDbLine
 10
1880.67880502062
 20
563.6384768540047
 30
0.0
 11
1882.640040611395
 21
566.1798500412579
 31
0.0
  0
LINE
  5
447
330
3C0
100
AcDbEntity
  8
Layer 01
 62
     1
420
 16711680
370
    25
100
AcDbLine
 10
1921.518803749289
 20
570.6535304288333
 30
0.0
 11
1919.608188469251
 21
578.449543085007
 31
0.0
  0
LINE
  5
448
330
3C0
100
AcDbEntity
  8
Layer 01
 62
     1
420
 16711680
370
    25
100
AcDbLine
 10
1919.608188469251
 20
578.449543085007
 30
0.0
 11
1931.290396987687
 21
578.0120969960655
 31
0.0
  0
LINE
  5
449
330
3C0
100
AcDbEntity
  8
Layer 01
 62
     1
420
 16711680
370
    25
100
AcDbLine
 10
1917.824695058896
 20
572.2254180115903
 30
0.0
 11
1924.060448162113
 21
573.7536520108489
 31
0.0
  0
LINE
  5
44A
330
3C0
100
AcDbEntity
  8
Layer 01
 62
     1
420
 16711680
370
    25
100
AcDbLine
 10
1947.598241237335
 20
594.9938319907492
 30
0.0
 11
1950.512316309366
 21
593.6472777363438
 31
0.0
  0
LINE
  5
44B
330
3C0
100
AcDbEntity
  8
Layer 01
 62
     1
420
 16711680
370
    25
100
AcDbLine
 10
1950.512316309366
 20
593.6472777363438
 30
0.0
 11
1950.512316309366
 21
593.6472777363438
 31
0.0
  0
LINE
  5
44C
330
3C0
100
AcDbEntity
  8
Layer 01
 62
     1
420
 16711680
370
    25
100
AcDbLine
 10
1950.512316309366
 20
593.6472777363438
 30
0.0
 11
1951.057065620889
 21
593.4526241749789
 31
0.0
  0
LINE
  5
44D
330
3C0
100
AcDbEntity
  8
Layer 01
 62
     1
420
 16711680
370
    25
100
AcDbLine
 10
1951.057065620889
 20
593.4526241749789
 30
0.0
 11
1951.612298286573
 21
593.3605800637315
 31
0.0
  0
LINE
  5
44E
330
3C0
100
AcDbEntity
  8
Layer 01
 62
     1
420
 16711680
370
    25
100
AcDbLine
 10
1951.612298286573
 20
593.3605800637315
 30
0.0
 11
1952.165897116795
 21
593.366722806861
 31
0.0
  0
LINE
  5
44F
330
3C0
100
AcDbEntity
  8
Layer 01
 62
     1
420
 16711680
370
    25
100
AcDbLine
 10
1952.165897116795
 20
593.366722806861
 30
0.0
 11
1952.705739176797
 21
593.4666367818264
 31
0.0
  0
LINE
  5
450
330
3C0
100
AcDbEntity
  8
Layer 01
 62
     1
420
 16711680
370
    25
100
AcDbLine
 10
1952.705739176797
 20
593.4666367818264
 30
0.0
 11
1953.219707686315
 21
593.6559036323359
 31
0.0
  0
LINE
  5
451
330
3C0
100
AcDbEntity
  8
Layer 01
 62
     1
420
 16711680
370
    25
100
AcDbLine
 10
1953.219707686315
 20
593.6559036323359
 30
0.0
 11
1953.695685455725
 21
593.9301007626446
 31
0.0
  0
LINE
  5
452
330
3C0
100
AcDbEntity
  8
Layer 01
 62
     1
420
 16711680
370
    25
100
AcDbLine
 10
1953.695685455725
 20
593.9301007626446
 30
0.0
 11
1954.121549550273
 21
594.2848125502113
 31
0.0
  0
LINE
  5
453
330
3C0
100
AcDbEntity
  8
Layer 01
 62
     1
420
 16711680
370
    25
100
AcDbLine
 10
1954.121549550273
 20
594.2848125502113
 30
0.0
 11
1954.485180455934
 21
594.7156144842538
 31
0.0
  0
LINE
  5
454
330
3C0
100
AcDbEntity
  8
Layer 01
 62
     1
420
 16711680
370
    25
100
AcDbLine
 10
1954.485180455934
 20
594.7156144842538
 30
0.0
 11
1954.774463716847
 21
595.218090123524
 31
0.0
  0
LINE
  5
455
330
3C0
100
AcDbEntity
  8
Layer 01
 62
     1
420
 16711680
370
    25
100
AcDbLine
 10
1954.774463716847
 20
595.218090123524
 30
0.0
 11
1955.445267637882
 21
596.6697770627605
 31
0.0
  0
LINE
  5
456
330
3C0
100
AcDbEntity
  8
Layer 01
 62
     1
420
 16711680
370
    25
100
AcDbLine
 10
1955.445267637882
 20
596.6697770627605
 30
0.0
 11
1955.445267637882
 21
596.6697770627605
 31
0.0
  0
LINE
  5
457
330
3C0
100
AcDbEntity
  8
Layer 01
 62
     1
420
 16711680
370
    25
100
AcDbLine
 10
1955.445267637882
 20
596.6697770627605
 30
0.0
 11
1955.64036298538
 21
597.2154678794056
 31
0.0
  0
LINE
  5
458
330
3C0
100
AcDbEntity
  8
Layer 01
 62
     1
420
 16711680
370
    25
100
AcDbLine
 10
1955.64036298538
 20
597.2154678794056
 30
0.0
 11
1955.732529588677
 21
597.7708834106112
 31
0.0
  0
LINE
  5
459
330
3C0
100
AcDbEntity
  8
Layer 01
 62
     1
420
 16711680
370
    25
100
AcDbLine
 10
1955.732529588677
 20
597.7708834106112
 30
0.0
 11
1955.726296951744
 21
598.324060884244
 31
0.0
  0
LINE
  5
45A
330
3C0
100
AcDbEntity
  8
Layer 01
 62
     1
420
 16711680
370
    25
100
AcDbLine
 10
1955.726296951744
 20
598.324060884244
 30
0.0
 11
1955.626186509015
 21
598.8630425863083
 31
0.0
  0
LINE
  5
45B
330
3C0
100
AcDbEntity
  8
Layer 01
 62
     1
420
 16711680
370
    25
100
AcDbLine
 10
1955.626186509015
 20
598.8630425863083
 30
0.0
 11
1955.436723525017
 21
599.3758661540222
 31
0.0
  0
LINE
  5
45C
330
3C0
100
AcDbEntity
  8
Layer 01
 62
     1
420
 16711680
370
    25
100
AcDbLine
 10
1955.436723525017
 20
599.3758661540222
 30
0.0
 11
1955.162434769966
 21
599.8505626607408
 31
0.0
  0
LINE
  5
45D
330
3C0
100
AcDbEntity
  8
Layer 01
 62
     1
420
 16711680
370
    25
100
AcDbLine
 10
1955.162434769966
 20
599.8505626607408
 30
0.0
 11
1954.807841678299
 21
600.275174392487
 31
0.0
  0
LINE
  5
45E
330
3C0
100
AcDbEntity
  8
Layer 01
 62
     1
420
 16711680
370
    25
100
AcDbLine
 10
1954.807841678299
 20
600.275174392487
 30
0.0
 11
1954.37747142959
 21
600.6377366620729
 31
0.0
  0
LINE
  5
45F
330
3C0
100
AcDbEntity
  8
Layer 01
 62
     1
420
 16711680
370
    25
100
AcDbLine
 10
1954.37747142959
 20
600.6377366620729
 30
0.0
 11
1953.875847373311
 21
600.9262894311023
 31
0.0
  0
LINE
  5
460
330
3C0
100
AcDbEntity
  8
Layer 01
 62
     1
420
 16711680
370
    25
100
AcDbLine
 10
1953.875847373311
 20
600.9262894311023
 30
0.0
 11
1950.961774216331
 21
602.2728413611122
 31
0.0
  0
LINE
  5
461
330
3C0
100
AcDbEntity
  8
Layer 01
 62
     1
420
 16711680
370
    25
100
AcDbLine
 10
1950.961774216331
 20
602.2728413611122
 30
0.0
 11
1953.662106807219
 21
608.1166246514068
 31
0.0
  0
LINE
  5
462
330
3C0
100
AcDbEntity
  8
Layer 01
 62
     1
420
 16711680
370
    25
100
AcDbLine
 10
1953.662106807219
 20
608.1166246514068
 30
0.0
 11
1959.49025271183
 21
605.4235165519478
 31
0.0
  0
LINE
  5
463
330
3C0
100
AcDbEntity
  8
Layer 01
 62
     1
420
 16711680
370
    25
100
AcDbLine
 10
1968.197575635011
 20
653.8155232223906
 30
0.0
 11
1968.197575635011
 21
653.8155232223906
 31
0.0
  0
LINE
  5
464
330
3C0
100
AcDbEntity
  8
Layer 01
 62
     1
420
 16711680
370
    25
100
AcDbLine
 10
1968.197575635011
 20
653.8155232223906
 30
0.0
 11
1967.530024283519
 21
653.0951236192643
 31
0.0
  0
LINE
  5
465
330
3C0
100
AcDbEntity
  8
Layer 01
 62
     1
420
 16711680
370
    25
100
AcDbLine
 10
1967.530024283519
 20
653.0951236192643
 30
0.0
 11
1966.983871049835
 21
652.3015987363698
 31
0.0
  0
LINE
  5
466
330
3C0
100
AcDbEntity
  8
Layer 01
 62
     1
420
 16711680
370
    25
100
AcDbLine
 10
1966.983871049835
 20
652.3015987363698
 30
0.0
 11
1966.56164036012
 21
651.4492383445378
 31
0.0
  0
LINE
  5
467
330
3C0
100
AcDbEntity
  8
Layer 01
 62
     1
420
 16711680
370
    25
100
AcDbLine
 10
1966.56164036012
 20
651.4492383445378
 30
0.0
 11
1966.26586471007
 21
650.5523271564499
 31
0.0
  0
LINE
  5
468
330
3C0
100
AcDbEntity
  8
Layer 01
 62
     1
420
 16711680
370
    25
100
AcDbLine
 10
1966.26586471007
 20
650.5523271564499
 30
0.0
 11
1966.099066201449
 21
649.6251530278937
 31
0.0
  0
LINE
  5
469
330
3C0
100
AcDbEntity
  8
Layer 01
 62
     1
420
 16711680
370
    25
100
AcDbLine
 10
1966.099066201449
 20
649.6251530278937
 30
0.0
 11
1966.063775824259
 21
648.6820072353943
 31
0.0
  0
LINE
  5
46A
330
3C0
100
AcDbEntity
  8
Layer 01
 62
     1
420
 16711680
370
    25
100
AcDbLine
 10
1966.063775824259
 20
648.6820072353943
 30
0.0
 11
1966.16251759531
 21
647.7371753103419
 31
0.0
  0
LINE
  5
46B
330
3C0
100
AcDbEntity
  8
Layer 01
 62
     1
420
 16711680
370
    25
100
AcDbLine
 10
1966.16251759531
 20
647.7371753103419
 30
0.0
 11
1966.397820180198
 21
646.8049466142052
 31
0.0
  0
LINE
  5
46C
330
3C0
100
AcDbEntity
  8
Layer 01
 62
     1
420
 16711680
370
    25
100
AcDbLine
 10
1966.397820180198
 20
646.8049466142052
 30
0.0
 11
1966.772211835186
 21
645.8996062690393
 31
0.0
  0
LINE
  5
46D
330
3C0
100
AcDbEntity
  8
Layer 01
 62
     1
420
 16711680
370
    25
100
AcDbLine
 10
1966.772211835186
 20
645.8996062690393
 30
0.0
 11
1968.925665409153
 21
641.6044153595993
 31
0.0
  0
LINE
  5
46E
330
3C0
100
AcDbEntity
  8
Layer 01
 62
     1
420
 16711680
370
    25
100
AcDbLine
 10
1968.925665409153
 20
641.6044153595993
 30
0.0
 11
1968.925665409153
 21
641.6044153595993
 31
0.0
  0
LINE
  5
46F
330
3C0
100
AcDbEntity
  8
Layer 01
 62
     1
420
 16711680
370
    25
100
AcDbLine
 10
1968.925665409153
 20
641.6044153595993
 30
0.0
 11
1969.230816352344
 21
641.1114179840888
 31
0.0
  0
LINE
  5
470
330
3C0
100
AcDbEntity
  8
Layer 01
 62
     1
420
 16711680
370
    25
100
AcDbLine
 10
1969.230816352344
 20
641.1114179840888
 30
0.0
 11
1969.607994992244
 21
640.6924238469652
 31
0.0
  0
LINE
  5
471
330
3C0
100
AcDbEntity
  8
Layer 01
 62
     1
420
 16711680
370
    25
100
AcDbLine
 10
1969.607994992244
 20
640.6924238469652
 30
0.0
 11
1970.044948725196
 21
640.3514679777743
 31
0.0
  0
LINE
  5
472
330
3C0
100
AcDbEntity
  8
Layer 01
 62
     1
420
 16711680
370
    25
100
AcDbLine
 10
1970.044948725196
 20
640.3514679777743
 30
0.0
 11
1970.529420298755
 21
640.092581575984
 31
0.0
  0
LINE
  5
473
330
3C0
100
AcDbEntity
  8
Layer 01
 62
     1
420
 16711680
370
    25
100
AcDbLine
 10
1970.529420298755
 20
640.092581575984
 30
0.0
 11
1971.0491628544
 21
639.9197926979479
 31
0.0
  0
LINE
  5
474
330
3C0
100
AcDbEntity
  8
Layer 01
 62
     1
420
 16711680
370
    25
100
AcDbLine
 10
1971.0491628544
 20
639.9197926979479
 30
0.0
 11
1971.591917224642
 21
639.8371348675299
 31
0.0
  0
LINE
  5
475
330
3C0
100
AcDbEntity
  8
Layer 01
 62
     1
420
 16711680
370
    25
100
AcDbLine
 10
1971.591917224642
 20
639.8371348675299
 30
0.0
 11
1972.145430396475
 21
639.8486388748393
 31
0.0
  0
LINE
  5
476
330
3C0
100
AcDbEntity
  8
Layer 01
 62
     1
420
 16711680
370
    25
100
AcDbLine
 10
1972.145430396475
 20
639.8486388748393
 30
0.0
 11
1972.697447032488
 21
639.9583335949379
 31
0.0
  0
LINE
  5
477
330
3C0
100
AcDbEntity
  8
Layer 01
 62
     1
420
 16711680
370
    25
100
AcDbLine
 10
1972.697447032488
 20
639.9583335949379
 30
0.0
 11
1973.235714529033
 21
640.1702540573816
 31
0.0
  0
LINE
  5
478
330
3C0
100
AcDbEntity
  8
Layer 01
 62
     1
420
 16711680
370
    25
100
AcDbLine
 10
1973.235714529033
 20
640.1702540573816
 30
0.0
 11
1973.235714529033
 21
640.1702540573816
 31
0.0
  0
LINE
  5
479
330
3C0
100
AcDbEntity
  8
Layer 01
 62
     1
420
 16711680
370
    25
100
AcDbLine
 10
1973.235714529033
 20
640.1702540573816
 30
0.0
 11
1973.728614279748
 21
640.4753245686976
 31
0.0
  0
LINE
  5
47A
330
3C0
100
AcDbEntity
  8
Layer 01
 62
     1
420
 16711680
370
    25
100
AcDbLine
 10
1973.728614279748
 20
640.4753245686976
 30
0.0
 11
1974.147327427957
 21
640.8523185314353
 31
0.0
  0
LINE
  5
47B
330
3C0
100
AcDbEntity
  8
Layer 01
 62
     1
420
 16711680
370
    25
100
AcDbLine
 10
1974.147327427957
 20
640.8523185314353
 30
0.0
 11
1974.487853664207
 21
641.2890548714093
 31
0.0
  0
LINE
  5
47C
330
3C0
100
AcDbEntity
  8
Layer 01
 62
     1
420
 16711680
370
    25
100
AcDbLine
 10
1974.487853664207
 20
641.2890548714093
 30
0.0
 11
1974.746190354653
 21
641.7733505994013
 31
0.0
  0
LINE
  5
47D
330
3C0
100
AcDbEntity
  8
Layer 01
 62
     1
420
 16711680
370
    25
100
AcDbLine
 10
1974.746190354653
 20
641.7733505994013
 30
0.0
 11
1974.918337189846
 21
642.293024641231
 31
0.0
  0
LINE
  5
47E
330
3C0
100
AcDbEntity
  8
Layer 01
 62
     1
420
 16711680
370
    25
100
AcDbLine
 10
1974.918337189846
 20
642.293024641231
 30
0.0
 11
1975.000292354644
 21
642.8359024865589
 31
0.0
  0
LINE
  5
47F
330
3C0
100
AcDbEntity
  8
Layer 01
 62
     1
420
 16711680
370
    25
100
AcDbLine
 10
1975.000292354644
 20
642.8359024865589
 30
0.0
 11
1974.988057045291
 21
643.3897964973674
 31
0.0
  0
LINE
  5
480
330
3C0
100
AcDbEntity
  8
Layer 01
 62
     1
420
 16711680
370
    25
100
AcDbLine
 10
1974.988057045291
 20
643.3897964973674
 30
0.0
 11
1974.877631361691
 21
643.9425298389181
 31
0.0
  0
LINE
  5
481
330
3C0
100
AcDbEntity
  8
Layer 01
 62
     1
420
 16711680
370
    25
100
AcDbLine
 10
1974.877631361691
 20
643.9425298389181
 30
0.0
 11
1974.665012669997
 21
644.4819195219811
 31
0.0
  0
LINE
  5
482
330
3C0
100
AcDbEntity
  8
Layer 01
 62
     1
420
 16711680
370
    25
100
AcDbLine
 10
1974.665012669997
 20
644.4819195219811
 30
0.0
 11
1973.948276036485
 21
645.9114865251591
 31
0.0
  0
LINE
  5
483
330
3C0
100
AcDbEntity
  8
Layer 01
 62
     1
420
 16711680
370
    25
100
AcDbLine
 10
1973.948276036485
 20
645.9114865251591
 30
0.0
 11
1973.948276036485
 21
645.9114865251591
 31
0.0
  0
LINE
  5
484
330
3C0
100
AcDbEntity
  8
Layer 01
 62
     1
420
 16711680
370
    25
100
AcDbLine
 10
1973.948276036485
 20
645.9114865251591
 30
0.0
 11
1973.643385920399
 21
646.4043046725811
 31
0.0
  0
LINE
  5
485
330
3C0
100
AcDbEntity
  8
Layer 01
 62
     1
420
 16711680
370
    25
100
AcDbLine
 10
1973.643385920399
 20
646.4043046725811
 30
0.0
 11
1973.266875428558
 21
646.8227956996561
 31
0.0
  0
LINE
  5
486
330
3C0
100
AcDbEntity
  8
Layer 01
 62
     1
420
 16711680
370
    25
100
AcDbLine
 10
1973.266875428558
 20
646.8227956996561
 30
0.0
 11
1972.830843711733
 21
647.162997160155
 31
0.0
  0
LINE
  5
487
330
3C0
100
AcDbEntity
  8
Layer 01
 62
     1
420
 16711680
370
    25
100
AcDbLine
 10
1972.830843711733
 20
647.162997160155
 30
0.0
 11
1972.347377611717
 21
647.420952075343
 31
0.0
  0
LINE
  5
488
330
3C0
100
AcDbEntity
  8
Layer 01
 62
     1
420
 16711680
370
    25
100
AcDbLine
 10
1972.347377611717
 20
647.420952075343
 30
0.0
 11
1971.828578194337
 21
647.5926956745936
 31
0.0
  0
LINE
  5
489
330
3C0
100
AcDbEntity
  8
Layer 01
 62
     1
420
 16711680
370
    25
100
AcDbLine
 10
1971.828578194337
 20
647.5926956745936
 30
0.0
 11
1971.286534216429
 21
647.6742686547811
 31
0.0
  0
LINE
  5
48A
330
3C0
100
AcDbEntity
  8
Layer 01
 62
     1
420
 16711680
370
    25
100
AcDbLine
 10
1971.286534216429
 20
647.6742686547811
 30
0.0
 11
1970.733342913731
 21
647.6617108940724
 31
0.0
  0
LINE
  5
48B
330
3C0
100
AcDbEntity
  8
Layer 01
 62
     1
420
 16711680
370
    25
100
AcDbLine
 10
1970.733342913731
 20
647.6617108940724
 30
0.0
 11
1970.181094958119
 21
647.5510607649375
 31
0.0
  0
LINE
  5
48C
330
3C0
100
AcDbEntity
  8
Layer 01
 62
     1
420
 16711680
370
    25
100
AcDbLine
 10
1970.181094958119
 20
647.5510607649375
 30
0.0
 11
1969.641883345888
 21
647.3383585549054
 31
0.0
  0
LINE
  5
48D
330
3C0
100
AcDbEntity
  8
Layer 01
 62
     1
420
 16711680
370
    25
100
AcDbLine
 10
1969.641883345888
 20
647.3383585549054
 30
0.0
 11
1966.772211835186
 21
645.8996062690393
 31
0.0
  0
LINE
  5
48E
330
3C0
100
AcDbEntity
  8
Layer 01
 62
     1
420
 16711680
370
    25
100
AcDbLine
 10
1970.816506375796
 20
636.9359465891275
 30
0.0
 11
1977.277929487948
 21
640.1754741306757
 31
0.0
  0
LINE
  5
48F
330
3C0
100
AcDbEntity
  8
Layer 01
 62
     1
420
 16711680
370
    25
100
AcDbLine
 10
1932.086416015502
 20
669.4647522694603
 30
0.0
 11
1918.608403174758
 21
675.6006814905287
 31
0.0
  0
LINE
  5
490
330
3C0
100
AcDbEntity
  8
Layer 01
 62
     1
420
 16711680
370
    25
100
AcDbLine
 10
1918.608403174758
 20
675.6006814905287
 30
0.0
 11
1917.278015498217
 21
669.3114038529025
 31
0.0
  0
LINE
  5
491
330
3C0
100
AcDbEntity
  8
Layer 01
 62
     1
420
 16711680
370
    25
100
AcDbLine
 10
1924.906551726083
 20
674.2684167156569
 30
0.0
 11
1924.241449828388
 21
671.1242204506532
 31
0.0
  0
LINE
  5
492
330
3C0
100
AcDbEntity
  8
Layer 01
 62
     1
420
 16711680
370
    25
100
AcDbLine
 10
1943.255923202623
 20
615.2986319641188
 30
0.0
 11
1955.201924108251
 21
600.7990838973747
 31
0.0
  0
LINE
  5
493
330
3C0
100
AcDbEntity
  8
Layer 01
 62
     1
420
 16711680
370
    25
100
AcDbLine
 10
1955.201924108251
 20
600.7990838973747
 30
0.0
 11
1917.142327727894
 21
593.7839589719454
 31
0.0
  0
LINE
  5
494
330
3C0
100
AcDbEntity
  8
Layer 01
 62
     1
420
 16711680
370
    25
100
AcDbLine
 10
1917.142327727894
 20
593.7839589719454
 30
0.0
 11
1929.088328633524
 21
579.2844109052001
 31
0.0
  0
LINE
  5
495
330
3C0
100
AcDbEntity
  8
Layer 01
 62
     1
420
 16711680
370
    25
100
AcDbLine
 10
1910.365245067293
 20
628.6148163435326
 30
0.0
 11
1922.129100327239
 21
614.3363489183813
 31
0.0
  0
LINE
  5
496
330
3C0
100
AcDbEntity
  8
Layer 01
 62
     1
420
 16711680
370
    25
100
AcDbLine
 10
1910.572403166051
 20
654.9684991861616
 30
0.0
 11
1884.458807691325
 21
633.4538261939911
 31
0.0
  0
LINE
  5
497
330
3C0
100
AcDbEntity
  8
Layer 01
 62
     1
420
 16711680
370
    25
100
AcDbLine
 10
1884.458807691325
 20
633.4538261939911
 30
0.0
 11
1895.048819451801
 21
632.4327770304798
 31
0.0
  0
ENDBLK
  5
3C3
330
3C0
100
AcDbEntity
  8
0
100
AcDbBlockEnd
  0
BLOCK
  5
49A
330
498
100
AcDbEntity
  8
0
100
AcDbBlockBegin
  2
Block_9
 70
     0
 10
0.0
 20
0.0
 30
0.0
  3
Block_9
  1

  0
LINE
  5
49C
330
498
100
AcDbEntity
  8
Layer 01
 62
     5
420
      255
370
    25
100
AcDbLine
 10
1793.215828068134
 20
113.9441389106268
 30
0.0
 11
1644.943886125246
 21
113.9504628036465
 31
0.0
  0
LINE
  5
49D
330
498
100
AcDbEntity
  8
Layer 01
 62
     5
420
      255
370
    25
100
AcDbLine
 10
1644.943886125246
 20
113.9504628036465
 30
0.0
 11
1644.490360015046
 21
72.29190056801042
 31
0.0
  0
LINE
  5
49E
330
498
100
AcDbEntity
  8
Layer 01
 62
     5
420
      255
370
    25
100
AcDbLine
 10
1644.490360015046
 20
72.29190056801042
 30
0.0
 11
1636.220280203787
 21
72.29225630388086
 31
0.0
  0
LINE
  5
49F
330
498
100
AcDbEntity
  8
Layer 01
 62
     5
420
      255
370
    25
100
AcDbLine
 10
1636.220280203787
 20
72.29225630388086
 30
0.0
 11
1636.222055645602
 21
113.91981145505
 31
0.0
  0
LINE
  5
4A0
330
498
100
AcDbEntity
  8
Layer 01
 62
     5
420
      255
370
    25
100
AcDbLine
 10
1636.222055645602
 20
113.91981145505
 30
0.0
 11
1338.956959480318
 21
113.9635103298081
 31
0.0
  0
LINE
  5
4A1
330
498
100
AcDbEntity
  8
Layer 01
 62
     5
420
      255
370
    25
100
AcDbLine
 10
1338.956959480318
 20
113.9635103298081
 30
0.0
 11
1338.503001296565
 21
62.24503146873201
 31
0.0
  0
LINE
  5
4A2
330
498
100
AcDbEntity
  8
Layer 01
 62
     5
420
      255
370
    25
100
AcDbLine
 10
1338.503001296565
 20
62.24503146873201
 30
0.0
 11
1330.232921485181
 21
62.24538419291827
 31
0.0
  0
LINE
  5
4A3
330
498
100
AcDbEntity
  8
Layer 01
 62
     5
420
      255
370
    25
100
AcDbLine
 10
1330.232921485181
 20
62.24538419291827
 30
0.0
 11
1330.235125989119
 21
113.9328619930209
 31
0.0
  0
LINE
  5
4A4
330
498
100
AcDbEntity
  8
Layer 01
 62
     5
420
      255
370
    25
100
AcDbLine
 10
1330.235125989119
 20
113.9328619930209
 30
0.0
 11
1183.032823517864
 21
113.9701605937899
 31
0.0
  0
LINE
  5
4A5
330
498
100
AcDbEntity
  8
Layer 01
 62
     5
420
      255
370
    25
100
AcDbLine
 10
1183.032823517864
 20
113.9701605937899
 30
0.0
 11
1182.814933134959
 21
92.97034710007405
 31
0.0
  0
LINE
  5
4A6
330
498
100
AcDbEntity
  8
Layer 01
 62
     5
420
      255
370
    25
100
AcDbLine
 10
1182.814933134959
 20
92.97034710007405
 30
0.0
 11
1182.803366407168
 21
90.0314364908619
 31
0.0
  0
LINE
  5
4A7
330
498
100
AcDbEntity
  8
Layer 01
 62
     5
420
      255
370
    25
100
AcDbLine
 10
1182.803366407168
 20
90.0314364908619
 30
0.0
 11
1185.126858337526
 21
88.97348395507199
 31
0.0
  0
LINE
  5
4A8
330
498
100
AcDbEntity
  8
Layer 01
 62
     5
420
      255
370
    25
100
AcDbLine
 10
1185.126858337526
 20
88.97348395507199
 30
0.0
 11
1230.664921601386
 21
47.26690851344289
 31
0.0
  0
LINE
  5
4A9
330
498
100
AcDbEntity
  8
Layer 01
 62
     5
420
      255
370
    25
100
AcDbLine
 10
1230.664921601386
 20
47.26690851344289
 30
0.0
 11
1280.850194473682
 21
27.30855347232287
 31
0.0
  0
LINE
  5
4AA
330
498
100
AcDbEntity
  8
Layer 01
 62
     5
420
      255
370
    25
100
AcDbLine
 10
1280.850194473682
 20
27.30855347232287
 30
0.0
 11
1329.423688132765
 21
9.348888873329707
 31
0.0
  0
LINE
  5
4AB
330
498
100
AcDbEntity
  8
Layer 01
 62
     5
420
      255
370
    25
100
AcDbLine
 10
1329.423688132765
 20
9.348888873329707
 30
0.0
 11
1376.339862115809
 21
13.28165993827051
 31
0.0
  0
LINE
  5
4AC
330
498
100
AcDbEntity
  8
Layer 01
 62
     5
420
      255
370
    25
100
AcDbLine
 10
1376.339862115809
 20
13.28165993827051
 30
0.0
 11
1435.896376160845
 21
17.47092994106413
 31
0.0
  0
LINE
  5
4AD
330
498
100
AcDbEntity
  8
Layer 01
 62
     5
420
      255
370
    25
100
AcDbLine
 10
1435.896376160845
 20
17.47092994106413
 30
0.0
 11
1489.122341115819
 21
17.38230585066971
 31
0.0
  0
LINE
  5
4AE
330
498
100
AcDbEntity
  8
Layer 01
 62
     5
420
      255
370
    25
100
AcDbLine
 10
1489.122341115819
 20
17.38230585066971
 30
0.0
 11
1555.761422750862
 21
19.17427877969688
 31
0.0
  0
LINE
  5
4AF
330
498
100
AcDbEntity
  8
Layer 01
 62
     5
420
      255
370
    25
100
AcDbLine
 10
1555.761422750862
 20
19.17427877969688
 30
0.0
 11
1592.208257763773
 21
22.06744498582911
 31
0.0
  0
LINE
  5
4B0
330
498
100
AcDbEntity
  8
Layer 01
 62
     5
420
      255
370
    25
100
AcDbLine
 10
1592.208257763773
 20
22.06744498582911
 30
0.0
 11
1594.5822172285
 21
21.02760857878979
 31
0.0
  0
LINE
  5
4B1
330
498
100
AcDbEntity
  8
Layer 01
 62
     5
420
      255
370
    25
100
AcDbLine
 10
1594.5822172285
 20
21.02760857878979
 30
0.0
 11
1693.594343009986
 21
41.82330801702973
 31
0.0
  0
LINE
  5
4B2
330
498
100
AcDbEntity
  8
Layer 01
 62
     5
420
      255
370
    25
100
AcDbLine
 10
1693.594343009986
 20
41.82330801702973
 30
0.0
 11
1696.804388772993
 21
43.13960157002902
 31
0.0
  0
LINE
  5
4B3
330
498
100
AcDbEntity
  8
Layer 01
 62
     5
420
      255
370
    25
100
AcDbLine
 10
1696.804388772993
 20
43.13960157002902
 30
0.0
 11
1704.404729581015
 21
46.78591580332235
 31
0.0
  0
LINE
  5
4B4
330
498
100
AcDbEntity
  8
Layer 01
 62
     5
420
      255
370
    25
100
AcDbLine
 10
1704.404729581015
 20
46.78591580332235
 30
0.0
 11
1741.860556014802
 21
67.39161345176231
 31
0.0
  0
LINE
  5
4B5
330
498
100
AcDbEntity
  8
Layer 01
 62
     5
420
      255
370
    25
100
AcDbLine
 10
1741.860556014802
 20
67.39161345176231
 30
0.0
 11
1748.162896217373
 21
72.27055020145098
 31
0.0
  0
LINE
  5
4B6
330
498
100
AcDbEntity
  8
Layer 01
 62
     5
420
      255
370
    25
100
AcDbLine
 10
1748.162896217373
 20
72.27055020145098
 30
0.0
 11
1758.962396208862
 21
73.3647457919868
 31
0.0
  0
LINE
  5
4B7
330
498
100
AcDbEntity
  8
Layer 01
 62
     5
420
      255
370
    25
100
AcDbLine
 10
1758.962396208862
 20
73.3647457919868
 30
0.0
 11
1793.265698793375
 21
72.78334413931752
 31
0.0
  0
LINE
  5
4B8
330
498
100
AcDbEntity
  8
Layer 01
 62
     5
420
      255
370
    25
100
AcDbLine
 10
1793.265698793375
 20
72.78334413931752
 30
0.0
 11
1793.327328166679
 21
93.15071099702212
 31
0.0
  0
LINE
  5
4B9
330
498
100
AcDbEntity
  8
Layer 01
 62
     5
420
      255
370
    25
100
AcDbLine
 10
1793.327328166679
 20
93.15071099702212
 30
0.0
 11
1793.215828068134
 21
113.9441389106268
 31
0.0
  0
LINE
  5
4BA
330
498
100
AcDbEntity
  8
Layer 01
 62
     1
420
 16711680
370
    25
100
AcDbLine
 10
1327.139068191558
 20
42.18741331382632
 30
0.0
 11
1341.595143608398
 21
42.18679675297779
 31
0.0
  0
LINE
  5
4BB
330
498
100
AcDbEntity
  8
Layer 01
 62
     1
420
 16711680
370
    25
100
AcDbLine
 10
1341.595143608398
 20
42.18679675297779
 30
0.0
 11
1338.380601871844
 21
45.40070313886913
 31
0.0
  0
LINE
  5
4BC
330
498
100
AcDbEntity
  8
Layer 01
 62
     1
420
 16711680
370
    25
100
AcDbLine
 10
1633.126241093754
 20
50.63147710300258
 30
0.0
 11
1633.126514923199
 21
57.05176653909582
 31
0.0
  0
LINE
  5
4BD
330
498
100
AcDbEntity
  8
Layer 01
 62
     1
420
 16711680
370
    25
100
AcDbLine
 10
1633.126514923199
 20
57.05176653909582
 30
0.0
 11
1642.676915077968
 21
51.11880268769821
 31
0.0
  0
LINE
  5
4BE
330
498
100
AcDbEntity
  8
Layer 01
 62
     1
420
 16711680
370
    25
100
AcDbLine
 10
1642.676915077968
 20
51.11880268769821
 30
0.0
 11
1642.676915077968
 21
51.11880268769821
 31
0.0
  0
LINE
  5
4BF
330
498
100
AcDbEntity
  8
Layer 01
 62
     1
420
 16711680
370
    25
100
AcDbLine
 10
1642.676915077968
 20
51.11880268769821
 30
0.0
 11
1642.685690817919
 21
51.11170980139249
 31
0.0
  0
LINE
  5
4C0
330
498
100
AcDbEntity
  8
Layer 01
 62
     1
420
 16711680
370
    25
100
AcDbLine
 10
1642.685690817919
 20
51.11170980139249
 30
0.0
 11
1642.69454186239
 21
51.10490904506566
 31
0.0
  0
LINE
  5
4C1
330
498
100
AcDbEntity
  8
Layer 01
 62
     1
420
 16711680
370
    25
100
AcDbLine
 10
1642.69454186239
 20
51.10490904506566
 30
0.0
 11
1642.703540489697
 21
51.09835222871895
 31
0.0
  0
LINE
  5
4C2
330
498
100
AcDbEntity
  8
Layer 01
 62
     1
420
 16711680
370
    25
100
AcDbLine
 10
1642.703540489697
 20
51.09835222871895
 30
0.0
 11
1642.712765001793
 21
51.09199718545762
 31
0.0
  0
LINE
  5
4C3
330
498
100
AcDbEntity
  8
Layer 01
 62
     1
420
 16711680
370
    25
100
AcDbLine
 10
1642.712765001793
 20
51.09199718545762
 30
0.0
 11
1642.722287677253
 21
51.08580174864485
 31
0.0
  0
LINE
  5
4C4
330
498
100
AcDbEntity
  8
Layer 01
 62
     1
420
 16711680
370
    25
100
AcDbLine
 10
1642.722287677253
 20
51.08580174864485
 30
0.0
 11
1642.732180794397
 21
51.07971772828316
 31
0.0
  0
LINE
  5
4C5
330
498
100
AcDbEntity
  8
Layer 01
 62
     1
420
 16711680
370
    25
100
AcDbLine
 10
1642.732180794397
 20
51.07971772828316
 30
0.0
 11
1642.742525666594
 21
51.07369693398047
 31
0.0
  0
LINE
  5
4C6
330
498
100
AcDbEntity
  8
Layer 01
 62
     1
420
 16711680
370
    25
100
AcDbLine
 10
1642.742525666594
 20
51.07369693398047
 30
0.0
 11
1642.753388549321
 21
51.06770322272755
 31
0.0
  0
LINE
  5
4C7
330
498
100
AcDbEntity
  8
Layer 01
 62
     1
420
 16711680
370
    25
100
AcDbLine
 10
1642.753388549321
 20
51.06770322272755
 30
0.0
 11
1642.764850755806
 21
51.06168539245453
 31
0.0
  0
LINE
  5
4C8
330
498
100
AcDbEntity
  8
Layer 01
 62
     1
420
 16711680
370
    25
100
AcDbLine
 10
1642.764850755806
 20
51.06168539245453
 30
0.0
 11
1642.764850755806
 21
51.06168539245453
 31
0.0
  0
LINE
  5
4C9
330
498
100
AcDbEntity
  8
Layer 01
 62
     1
420
 16711680
370
    25
100
AcDbLine
 10
1642.764850755806
 20
51.06168539245453
 30
0.0
 11
1643.290776425439
 21
50.81670777468779
 31
0.0
  0
LINE
  5
4CA
330
498
100
AcDbEntity
  8
Layer 01
 62
     1
420
 16711680
370
    25
100
AcDbLine
 10
1643.290776425439
 20
50.81670777468779
 30
0.0
 11
1643.835951089779
 21
50.67358744584653
 31
0.0
  0
LINE
  5
4CB
330
498
100
AcDbEntity
  8
Layer 01
 62
     1
420
 16711680
370
    25
100
AcDbLine
 10
1643.835951089779
 20
50.67358744584653
 30
0.0
 11
1644.388053806445
 21
50.62881330976906
 31
0.0
  0
LINE
  5
4CC
330
498
100
AcDbEntity
  8
Layer 01
 62
     1
420
 16711680
370
    25
100
AcDbLine
 10
1644.388053806445
 20
50.62881330976906
 30
0.0
 11
1644.934763633575
 21
50.67888631702142
 31
0.0
  0
LINE
  5
4CD
330
498
100
AcDbEntity
  8
Layer 01
 62
     1
420
 16711680
370
    25
100
AcDbLine
 10
1644.934763633575
 20
50.67888631702142
 30
0.0
 11
1645.463765652019
 21
50.82029235949852
 31
0.0
  0
LINE
  5
4CE
330
498
100
AcDbEntity
  8
Layer 01
 62
     1
420
 16711680
370
    25
100
AcDbLine
 10
1645.463765652019
 20
50.82029235949852
 30
0.0
 11
1645.962738919644
 21
51.04952636440573
 31
0.0
  0
LINE
  5
4CF
330
498
100
AcDbEntity
  8
Layer 01
 62
     1
420
 16711680
370
    25
100
AcDbLine
 10
1645.962738919644
 20
51.04952636440573
 30
0.0
 11
1646.419365506137
 21
51.36308627049207
 31
0.0
  0
LINE
  5
4D0
330
498
100
AcDbEntity
  8
Layer 01
 62
     1
420
 16711680
370
    25
100
AcDbLine
 10
1646.419365506137
 20
51.36308627049207
 30
0.0
 11
1646.82132446925
 21
51.75746399327941
 31
0.0
  0
LINE
  5
4D1
330
498
100
AcDbEntity
  8
Layer 01
 62
     1
420
 16711680
370
    25
100
AcDbLine
 10
1646.82132446925
 20
51.75746399327941
 30
0.0
 11
1647.156297878404
 21
52.22915144816188
 31
0.0
  0
LINE
  5
4D2
330
498
100
AcDbEntity
  8
Layer 01
 62
     1
420
 16711680
370
    25
100
AcDbLine
 10
1647.156297878404
 20
52.22915144816188
 30
0.0
 11
1647.156297878404
 21
52.22915144816188
 31
0.0
  0
LINE
  5
4D3
330
498
100
AcDbEntity
  8
Layer 01
 62
     1
420
 16711680
370
    25
100
AcDbLine
 10
1647.156297878404
 20
52.22915144816188
 30
0.0
 11
1647.397794053765
 21
52.75654094391431
 31
0.0
  0
LINE
  5
4D4
330
498
100
AcDbEntity
  8
Layer 01
 62
     1
420
 16711680
370
    25
100
AcDbLine
 10
1647.397794053765
 20
52.75654094391431
 30
0.0
 11
1647.538709866688
 21
53.30254993829876
 31
0.0
  0
LINE
  5
4D5
330
498
100
AcDbEntity
  8
Layer 01
 62
     1
420
 16711680
370
    25
100
AcDbLine
 10
1647.538709866688
 20
53.30254993829876
 30
0.0
 11
1647.582219109782
 21
53.85497194725072
 31
0.0
  0
LINE
  5
4D6
330
498
100
AcDbEntity
  8
Layer 01
 62
     1
420
 16711680
370
    25
100
AcDbLine
 10
1647.582219109782
 20
53.85497194725072
 30
0.0
 11
1647.531486540748
 21
54.40160349876594
 31
0.0
  0
LINE
  5
4D7
330
498
100
AcDbEntity
  8
Layer 01
 62
     1
420
 16711680
370
    25
100
AcDbLine
 10
1647.531486540748
 20
54.40160349876594
 30
0.0
 11
1647.389688963632
 21
54.93023208528899
 31
0.0
  0
LINE
  5
4D8
330
498
100
AcDbEntity
  8
Layer 01
 62
     1
420
 16711680
370
    25
100
AcDbLine
 10
1647.389688963632
 20
54.93023208528899
 30
0.0
 11
1647.159994147691
 21
55.42865122301272
 31
0.0
  0
LINE
  5
4D9
330
498
100
AcDbEntity
  8
Layer 01
 62
     1
420
 16711680
370
    25
100
AcDbLine
 10
1647.159994147691
 20
55.42865122301272
 30
0.0
 11
1646.845572874109
 21
55.88466045135712
 31
0.0
  0
LINE
  5
4DA
330
498
100
AcDbEntity
  8
Layer 01
 62
     1
420
 16711680
370
    25
100
AcDbLine
 10
1646.845572874109
 20
55.88466045135712
 30
0.0
 11
1646.449595923443
 21
56.28604425134188
 31
0.0
  0
LINE
  5
4DB
330
498
100
AcDbEntity
  8
Layer 01
 62
     1
420
 16711680
370
    25
100
AcDbLine
 10
1646.449595923443
 20
56.28604425134188
 30
0.0
 11
1645.975231065072
 21
56.62059915083695
 31
0.0
  0
LINE
  5
4DC
330
498
100
AcDbEntity
  8
Layer 01
 62
     1
420
 16711680
370
    25
100
AcDbLine
 10
1645.975231065072
 20
56.62059915083695
 30
0.0
 11
1645.166594255909
 21
57.04218785804675
 31
0.0
  0
LINE
  5
4DD
330
498
100
AcDbEntity
  8
Layer 01
 62
     1
420
 16711680
370
    25
100
AcDbLine
 10
1489.515705001823
 20
80.55769088390361
 30
0.0
 11
1478.912838709189
 21
87.88883703023588
 31
0.0
  0
LINE
  5
4DE
330
498
100
AcDbEntity
  8
Layer 01
 62
     1
420
 16711680
370
    25
100
AcDbLine
 10
1478.912838709189
 20
87.88883703023588
 30
0.0
 11
1489.51633037821
 21
95.22045806238535
 31
0.0
  0
LINE
  5
4DF
330
498
100
AcDbEntity
  8
Layer 01
 62
     1
420
 16711680
370
    25
100
AcDbLine
 10
1479.76611157235
 20
87.88880063760188
 30
0.0
 11
1467.533585349019
 21
87.88932236265868
 31
0.0
  0
LINE
  5
4E0
330
498
100
AcDbEntity
  8
Layer 01
 62
     1
420
 16711680
370
    25
100
AcDbLine
 10
1478.523624551419
 20
60.29364218201137
 30
0.0
 11
1478.524137163703
 21
72.31250761068025
 31
0.0
  0
LINE
  5
4E1
330
498
100
AcDbEntity
  8
Layer 01
 62
     1
420
 16711680
370
    25
100
AcDbLine
 10
1467.532535133584
 20
47.16592241914699
 30
0.0
 11
1489.513591106325
 21
47.16498491307127
 31
0.0
  0
LINE
  5
4E2
330
498
100
AcDbEntity
  8
Layer 01
 62
     1
420
 16711680
370
    25
100
AcDbLine
 10
1489.513591106325
 20
47.16498491307127
 30
0.0
 11
1484.625751686745
 21
52.05186188001235
 31
0.0
  0
ENDBLK
  5
49B
330
498
100
AcDbEntity
  8
0
100
AcDbBlockEnd
  0
ENDSEC
  0
SECTION
  2
ENTITIES
  0
INSERT
  5
7A
330
70
100
AcDbEntity
  8
Layer 01
100
AcDbBlockReference
  2
Block_0
 10
0.0
 20
0.0
 30
0.0
  0
INSERT
  5
F3
330
70
100
AcDbEntity
  8
Layer 01
100
AcDbBlockReference
  2
Block_1
 10
0.0
 20
0.0
 30
0.0
  0
INSERT
  5
16A
330
70
100
AcDbEntity
  8
Layer 01
100
AcDbBlockReference
  2
Block_2
 10
0.0
 20
0.0
 30
0.0
  0
INSERT
  5
1D8
330
70
100
AcDbEntity
  8
Layer 01
100
AcDbBlockReference
  2
Block_3
 10
0.0
 20
0.0
 30
0.0
  0
INSERT
  5
2D2
330
70
100
AcDbEntity
  8
Layer 01
100
AcDbBlockReference
  2
Block_5
 10
0.0
 20
0.0
 30
0.0
  0
INSERT
  5
320
330
70
100
AcDbEntity
  8
Layer 01
100
AcDbBlockReference
  2
Block_6
 10
0.0
 20
0.0
 30
0.0
  0
INSERT
  5
37C
330
70
100
AcDbEntity
  8
Layer 01
100
AcDbBlockReference
  2
Block_7
 10
0.0
 20
0.0
 30
0.0
  0
INSERT
  5
3C1
330
70
100
AcDbEntity
  8
Layer 01
100
AcDbBlockReference
  2
Block_8
 10
0.0
 20
0.0
 30
0.0
  0
INSERT
  5
499
330
70
100
AcDbEntity
  8
Layer 01
100
AcDbBlockReference
  2
Block_9
 10
0.0
 20
0.0
 30
0.0
  0
ENDSEC
  0
SECTION
  2
OBJECTS
  0
DICTIONARY
  5
C
330
0
100
AcDbDictionary
281
     1
  3
ACAD_COLOR
350
63
  3
ACAD_DETAILVIEWSTYLE
350
6A
  3
ACAD_GROUP
350
D
  3
ACAD_LAYOUT
350
62
  3
ACAD_MATERIAL
350
10
  3
ACAD_MLEADERSTYLE
350
66
  3
ACAD_MLINESTYLE
350
5F
  3
ACAD_PLOTSETTINGS
350
61
  3
ACAD_PLOTSTYLENAME
350
E
  3
ACAD_SCALELIST
350
42
  3
ACAD_SECTIONVIEWSTYLE
350
68
  3
ACAD_TABLESTYLE
350
64
  3
ACAD_VISUALSTYLE
350
29
  3
ACDB_RECOMPOSE_DATA
350
4EB
  3
AcDbVariableDictionary
350
4E3
  0
DICTIONARY
  5
63
102
{ACAD_REACTORS
330
C
102
}
330
C
100
AcDbDictionary
281
     1
  0
DICTIONARY
  5
6A
102
{ACAD_REACTORS
330
C
102
}
330
C
100
AcDbDictionary
281
     1
  3
Imperial24
350
6B
  0
DICTIONARY
  5
D
102
{ACAD_REACTORS
330
C
102
}
330
C
100
AcDbDictionary
281
     1
  0
DICTIONARY
  5
62
102
{ACAD_REACTORS
330
C
102
}
330
C
100
AcDbDictionary
281
     1
  3
Layout1
350
6F
  3
Layout2
350
77
  3
Model
350
73
  0
DICTIONARY
  5
10
102
{ACAD_REACTORS
330
C
102
}
330
C
100
AcDbDictionary
281
     1
  3
ByBlock
350
19
  3
ByLayer
350
11
  3
Global
350
21
  0
DICTIONARY
  5
66
102
{ACAD_REACTORS
330
C
102
}
330
C
100
AcDbDictionary
281
     1
  3
Standard
350
67
  0
DICTIONARY
  5
5F
102
{ACAD_REACTORS
330
C
102
}
330
C
100
AcDbDictionary
281
     1
  3
Standard
350
60
  0
DICTIONARY
  5
61
102
{ACAD_REACTORS
330
C
102
}
330
C
100
AcDbDictionary
281
     1
  0
ACDBDICTIONARYWDFLT
  5
E
102
{ACAD_REACTORS
330
C
102
}
330
C
100
AcDbDictionary
281
     1
  3
Normal
350
F
100
AcDbDictionaryWithDefault
340
F
  0
DICTIONARY
  5
42
102
{ACAD_REACTORS
330
C
102
}
330
C
100
AcDbDictionary
281
     1
  3
A0
350
43
  3
A1
350
44
  3
A2
350
45
  3
A3
350
46
  3
A4
350
47
  3
A5
350
48
  3
A6
350
49
  3
A7
350
4A
  3
A8
350
4B
  3
A9
350
4C
  3
B0
350
4D
  3
B1
350
4E
  3
B2
350
4F
  3
B3
350
50
  3
B4
350
51
  3
B5
350
52
  3
B6
350
53
  0
DICTIONARY
  5
68
102
{ACAD_REACTORS
330
C
102
}
330
C
100
AcDbDictionary
281
     1
  3
Imperial24
350
69
  0
DICTIONARY
  5
64
102
{ACAD_REACTORS
330
C
102
}
330
C
100
AcDbDictionary
281
     1
  3
Standard
350
65
  0
DICTIONARY
  5
29
102
{ACAD_REACTORS
330
C
102
}
330
C
100
AcDbDictionary
281
     1
  3
2dWireframe
350
2F
  3
Basic
350
2E
  3
Brighten
350
35
  3
ColorChange
350
39
  3
Conceptual
350
32
  3
Dim
350
34
  3
EdgeColorOff
350
41
  3
Facepattern
350
38
  3
Flat
350
2A
  3
FlatWithEdges
350
2B
  3
Gouraud
350
2C
  3
GouraudWithEdges
350
2D
  3
Hidden
350
31
  3
JitterOff
350
3F
  3
Linepattern
350
37
  3
OverhangOff
350
40
  3
Realistic
350
33
  3
Shaded
350
3E
  3
Shaded with edges
350
3D
  3
Shades of Gray
350
3A
  3
Sketchy
350
3B
  3
Thicken
350
36
  3
Wireframe
350
30
  3
X-Ray
350
3C
  0
XRECORD
  5
4EB
102
{ACAD_REACTORS
330
C
102
}
330
C
100
AcDbXrecord
280
     1
 90
        1
330
65
  0
DICTIONARY
  5
4E3
102
{ACAD_REACTORS
330
C
102
}
330
C
100
AcDbDictionary
281
     1
  3
CANNOSCALE
350
4E8
  3
CMLEADERSTYLE
350
4E5
  3
CTABLESTYLE
350
4E4
  3
CVIEWDETAILSTYLE
350
4E6
  3
CVIEWSECTIONSTYLE
350
4E7
  0
ACDBDETAILVIEWSTYLE
  5
6B
102
{ACAD_REACTORS
330
6A
102
}
330
6A
100
AcDbModelDocViewStyle
 70
     0
  3
Imperial24
290
     1
300
Imperial24
 90
        0
100
AcDbDetailViewStyle
 70
     0
 71
     0
 90
        3
 71
     1
340
55
 62
   256
 40
0.24
340
0
 62
   256
 40
0.24
300

 40
0.36
280
     3
 71
     2
340
5D
 90
       25
 62
   256
 71
     3
340
55
 62
   256
 40
0.24
 90
        1
 40
0.75
 90
        1
300
%<\AcVar ViewType \f "%tc1">% %<\AcVar ViewDetailId>%\PSCALE %<\AcVar ViewScale \f "%sn">%
 71
     4
340
5D
 90
       25
 62
   256
340
5D
 90
       25
 62
   256
280
     0
  0
LAYOUT
  5
6F
102
{ACAD_REACTORS
330
62
102
}
330
62
100
AcDbPlotSettings
  1

  2

  4

  6

 40
0.0
 41
0.0
 42
0.0
 43
0.0
 44
0.0
 45
0.0
 46
0.0
 47
0.0
 48
0.0
 49
0.0
140
0.0
141
0.0
142
1.0
143
1.0
 70
   688
 72
     0
 73
     0
 74
     5
  7

 75
    16
147
1.0
 76
     0
 77
     2
 78
   300
148
0.0
149
0.0
100
AcDbLayout
  1
Layout1
 70
     1
 71
     1
 10
0.0
 20
0.0
 11
12.0
 21
9.0
 12
0.0
 22
0.0
 32
0.0
 14
0.0
 24
0.0
 34
0.0
 15
0.0
 25
0.0
 35
0.0
146
0.0
 13
0.0
 23
0.0
 33
0.0
 16
1.0
 26
0.0
 36
0.0
 17
0.0
 27
1.0
 37
0.0
 76
     0
330
6C
  0
LAYOUT
  5
77
102
{ACAD_REACTORS
330
62
102
}
330
62
100
AcDbPlotSettings
  1

  2

  4

  6

 40
0.0
 41
0.0
 42
0.0
 43
0.0
 44
0.0
 45
0.0
 46
0.0
 47
0.0
 48
0.0
 49
0.0
140
0.0
141
0.0
142
1.0
143
1.0
 70
   688
 72
     0
 73
     0
 74
     5
  7

 75
    16
147
1.0
 76
     0
 77
     2
 78
   300
148
0.0
149
0.0
100
AcDbLayout
  1
Layout2
 70
     1
 71
     2
 10
0.0
 20
0.0
 11
12.0
 21
9.0
 12
0.0
 22
0.0
 32
0.0
 14
0.0
 24
0.0
 34
0.0
 15
0.0
 25
0.0
 35
0.0
146
0.0
 13
0.0
 23
0.0
 33
0.0
 16
1.0
 26
0.0
 36
0.0
 17
0.0
 27
1.0
 37
0.0
 76
     0
330
74
  0
LAYOUT
  5
73
102
{ACAD_REACTORS
330
62
102
}
330
62
100
AcDbPlotSettings
  1

  2

  4

  6

 40
0.0
 41
0.0
 42
0.0
 43
0.0
 44
0.0
 45
0.0
 46
0.0
 47
0.0
 48
0.0
 49
0.0
140
0.0
141
0.0
142
1.0
143
1.0
 70
  1712
 72
     0
 73
     0
 74
     0
  7

 75
     0
147
1.0
 76
     0
 77
     2
 78
   300
148
0.0
149
0.0
100
AcDbLayout
  1
Model
 70
     1
 71
     0
 10
0.0
 20
0.0
 11
12.0
 21
9.0
 12
0.0
 22
0.0
 32
0.0
 14
0.0
 24
0.0
 34
0.0
 15
0.0
 25
0.0
 35
0.0
146
0.0
 13
0.0
 23
0.0
 33
0.0
 16
1.0
 26
0.0
 36
0.0
 17
0.0
 27
1.0
 37
0.0
 76
     0
330
70
  0
MATERIAL
  5
19
102
{ACAD_XDICTIONARY
360
1A
102
}
102
{ACAD_REACTORS
330
10
102
}
330
10
100
AcDbMaterial
  1
ByBlock
 72
     0
 43
0.0208333333333333
 43
0.0
 43
0.0
 43
0.0
 43
0.0
 43
0.0208333333333333
 43
0.0
 43
0.0
 43
0.0
 43
0.0
 43
1.0
 43
0.0
 43
0.0
 43
0.0
 43
0.0
 43
1.0
 77
     0
 47
0.0208333333333333
 47
0.0
 47
0.0
 47
0.0
 47
0.0
 47
0.0208333333333333
 47
0.0
 47
0.0
 47
0.0
 47
0.0
 47
1.0
 47
0.0
 47
0.0
 47
0.0
 47
0.0
 47
1.0
171
     0
 49
0.0208333333333333
 49
0.0
 49
0.0
 49
0.0
 49
0.0
 49
0.0208333333333333
 49
0.0
 49
0.0
 49
0.0
 49
0.0
 49
1.0
 49
0.0
 49
0.0
 49
0.0
 49
0.0
 49
1.0
175
     0
142
0.0208333333333333
142
0.0
142
0.0
142
0.0
142
0.0
142
0.0208333333333333
142
0.0
142
0.0
142
0.0
142
0.0
142
1.0
142
0.0
142
0.0
142
0.0
142
0.0
142
1.0
179
     0
144
0.0208333333333333
144
0.0
144
0.0
144
0.0
144
0.0
144
0.0208333333333333
144
0.0
144
0.0
144
0.0
144
0.0
144
1.0
144
0.0
144
0.0
144
0.0
144
0.0
144
1.0
147
0.0208333333333333
147
0.0
147
0.0
147
0.0
147
0.0
147
0.0208333333333333
147
0.0
147
0.0
147
0.0
147
0.0
147
1.0
147
0.0
147
0.0
147
0.0
147
0.0
147
1.0
  0
MATERIAL
  5
11
102
{ACAD_XDICTIONARY
360
12
102
}
102
{ACAD_REACTORS
330
10
102
}
330
10
100
AcDbMaterial
  1
ByLayer
 72
     0
 43
0.0208333333333333
 43
0.0
 43
0.0
 43
0.0
 43
0.0
 43
0.0208333333333333
 43
0.0
 43
0.0
 43
0.0
 43
0.0
 43
1.0
 43
0.0
 43
0.0
 43
0.0
 43
0.0
 43
1.0
 77
     0
 47
0.0208333333333333
 47
0.0
 47
0.0
 47
0.0
 47
0.0
 47
0.0208333333333333
 47
0.0
 47
0.0
 47
0.0
 47
0.0
 47
1.0
 47
0.0
 47
0.0
 47
0.0
 47
0.0
 47
1.0
171
     0
 49
0.0208333333333333
 49
0.0
 49
0.0
 49
0.0
 49
0.0
 49
0.0208333333333333
 49
0.0
 49
0.0
 49
0.0
 49
0.0
 49
1.0
 49
0.0
 49
0.0
 49
0.0
 49
0.0
 49
1.0
175
     0
142
0.0208333333333333
142
0.0
142
0.0
142
0.0
142
0.0
142
0.0208333333333333
142
0.0
142
0.0
142
0.0
142
0.0
142
1.0
142
0.0
142
0.0
142
0.0
142
0.0
142
1.0
179
     0
144
0.0208333333333333
144
0.0
144
0.0
144
0.0
144
0.0
144
0.0208333333333333
144
0.0
144
0.0
144
0.0
144
0.0
144
1.0
144
0.0
144
0.0
144
0.0
144
0.0
144
1.0
147
0.0208333333333333
147
0.0
147
0.0
147
0.0
147
0.0
147
0.0208333333333333
147
0.0
147
0.0
147
0.0
147
0.0
147
1.0
147
0.0
147
0.0
147
0.0
147
0.0
147
1.0
  0
MATERIAL
  5
21
102
{ACAD_XDICTIONARY
360
22
102
}
102
{ACAD_REACTORS
330
10
102
}
330
10
100
AcDbMaterial
  1
Global
 72
     0
 43
0.0208333333333333
 43
0.0
 43
0.0
 43
0.0
 43
0.0
 43
0.0208333333333333
 43
0.0
 43
0.0
 43
0.0
 43
0.0
 43
1.0
 43
0.0
 43
0.0
 43
0.0
 43
0.0
 43
1.0
 77
     0
 47
0.0208333333333333
 47
0.0
 47
0.0
 47
0.0
 47
0.0
 47
0.0208333333333333
 47
0.0
 47
0.0
 47
0.0
 47
0.0
 47
1.0
 47
0.0
 47
0.0
 47
0.0
 47
0.0
 47
1.0
171
     0
 49
0.0208333333333333
 49
0.0
 49
0.0
 49
0.0
 49
0.0
 49
0.0208333333333333
 49
0.0
 49
0.0
 49
0.0
 49
0.0
 49
1.0
 49
0.0
 49
0.0
 49
0.0
 49
0.0
 49
1.0
175
     0
142
0.0208333333333333
142
0.0
142
0.0
142
0.0
142
0.0
142
0.0208333333333333
142
0.0
142
0.0
142
0.0
142
0.0
142
1.0
142
0.0
142
0.0
142
0.0
142
0.0
142
1.0
179
     0
144
0.0208333333333333
144
0.0
144
0.0
144
0.0
144
0.0
144
0.0208333333333333
144
0.0
144
0.0
144
0.0
144
0.0
144
1.0
144
0.0
144
0.0
144
0.0
144
0.0
144
1.0
147
0.0208333333333333
147
0.0
147
0.0
147
0.0
147
0.0
147
0.0208333333333333
147
0.0
147
0.0
147
0.0
147
0.0
147
1.0
147
0.0
147
0.0
147
0.0
147
0.0
147
1.0
  0
MLEADERSTYLE
  5
67
102
{ACAD_REACTORS
330
66
102
}
330
66
100
AcDbMLeaderStyle
179
     2
170
     2
171
     1
172
     0
 90
        2
 40
0.0
 41
0.0
173
     1
 91
-1056964608
340
5B
 92
       -2
290
     1
 42
0.09
291
     1
 43
0.36
  3
Standard
 44
0.18
300

342
55
174
     1
178
     6
175
     1
176
     0
 93
-1056964608
 45
0.18
292
     0
297
     0
 46
0.18
 94
-1056964608
 47
1.0
 49
1.0
140
1.0
293
     1
141
0.0
294
     1
177
     0
142
1.0
295
     1
296
     0
143
0.125
271
     0
272
     9
273
     9
298
     1
  0
MLINESTYLE
  5
60
102
{ACAD_REACTORS
330
5F
102
}
330
5F
100
AcDbMlineStyle
  2
STANDARD
 70
     0
  3

 62
   256
 51
90.0
 52
90.0
 71
     2
 49
0.5
 62
   256
  6
BYLAYER
 49
-0.5
 62
   256
  6
BYLAYER
  0
ACDBPLACEHOLDER
  5
F
102
{ACAD_REACTORS
330
E
102
}
330
E
  0
SCALE
  5
43
102
{ACAD_REACTORS
330
42
102
}
330
42
100
AcDbScale
 70
     0
300
1:1
140
1.0
141
1.0
290
     1
  0
SCALE
  5
44
102
{ACAD_REACTORS
330
42
102
}
330
42
100
AcDbScale
 70
     0
300
1/128" = 1'-0"
140
0.0078125
141
12.0
290
     0
  0
SCALE
  5
45
102
{ACAD_REACTORS
330
42
102
}
330
42
100
AcDbScale
 70
     0
300
1/64" = 1'-0"
140
0.015625
141
12.0
290
     0
  0
SCALE
  5
46
102
{ACAD_REACTORS
330
42
102
}
330
42
100
AcDbScale
 70
     0
300
1/32" = 1'-0"
140
0.03125
141
12.0
290
     0
  0
SCALE
  5
47
102
{ACAD_REACTORS
330
42
102
}
330
42
100
AcDbScale
 70
     0
300
1/16" = 1'-0"
140
0.0625
141
12.0
290
     0
  0
SCALE
  5
48
102
{ACAD_REACTORS
330
42
102
}
330
42
100
AcDbScale
 70
     0
300
3/32" = 1'-0"
140
0.09375
141
12.0
290
     0
  0
SCALE
  5
49
102
{ACAD_REACTORS
330
42
102
}
330
42
100
AcDbScale
 70
     0
300
1/8" = 1'-0"
140
0.125
141
12.0
290
     0
  0
SCALE
  5
4A
102
{ACAD_REACTORS
330
42
102
}
330
42
100
AcDbScale
 70
     0
300
3/16" = 1'-0"
140
0.1875
141
12.0
290
     0
  0
SCALE
  5
4B
102
{ACAD_REACTORS
330
42
102
}
330
42
100
AcDbScale
 70
     0
300
1/4" = 1'-0"
140
0.25
141
12.0
290
     0
  0
SCALE
  5
4C
102
{ACAD_REACTORS
330
42
102
}
330
42
100
AcDbScale
 70
     0
300
3/8" = 1'-0"
140
0.375
141
12.0
290
     0
  0
SCALE
  5
4D
102
{ACAD_REACTORS
330
42
102
}
330
42
100
AcDbScale
 70
     0
300
1/2" = 1'-0"
140
0.5
141
12.0
290
     0
  0
SCALE
  5
4E
102
{ACAD_REACTORS
330
42
102
}
330
42
100
AcDbScale
 70
     0
300
3/4" = 1'-0"
140
0.75
141
12.0
290
     0
  0
SCALE
  5
4F
102
{ACAD_REACTORS
330
42
102
}
330
42
100
AcDbScale
 70
     0
300
1" = 1'-0"
140
1.0
141
12.0
290
     0
  0
SCALE
  5
50
102
{ACAD_REACTORS
330
42
102
}
330
42
100
AcDbScale
 70
     0
300
1-1/2" = 1'-0"
140
1.5
141
12.0
290
     0
  0
SCALE
  5
51
102
{ACAD_REACTORS
330
42
102
}
330
42
100
AcDbScale
 70
     0
300
3" = 1'-0"
140
3.0
141
12.0
290
     0
  0
SCALE
  5
52
102
{ACAD_REACTORS
330
42
102
}
330
42
100
AcDbScale
 70
     0
300
6" = 1'-0"
140
6.0
141
12.0
290
     0
  0
SCALE
  5
53
102
{ACAD_REACTORS
330
42
102
}
330
42
100
AcDbScale
 70
     0
300
1'-0" = 1'-0"
140
12.0
141
12.0
290
     0
  0
ACDBSECTIONVIEWSTYLE
  5
69
102
{ACAD_REACTORS
330
68
102
}
330
68
100
AcDbModelDocViewStyle
 70
     0
  3
Imperial24
290
     1
300
Imperial24
 90
        0
100
AcDbSectionViewStyle
 70
     0
 71
     0
 90
       78
 71
     1
340
55
 62
   256
 40
0.24
340
0
340
0
 62
   256
 40
0.24
300
I, O, Q, S, X, Z
 40
0.48
 90
        3
 40
0.18
 90
        1
 71
     2
340
5D
 90
       25
 62
   256
340
5D
 90
       50
 62
   256
 40
0.24
 40
0.0
 40
0.24
 71
     3
340
55
 62
   256
 40
0.24
 90
        1
 40
0.75
 90
        1
300
%<\AcVar ViewType \f "%tc1">% %<\AcVar ViewSectionStartId>%-%<\AcVar ViewSectionEndId>%\PSCALE %<\AcVar ViewScale \f "%sn">%
 71
     4
 62
   256
 62
   257
300
ANSI31
 40
1.0
 90
        0
290
     0
290
     0
 90
        6
 40
0.0
 40
1.570796326794896
 40
0.2617993877991494
 40
1.308996938995747
 40
-0.2617993877991494
 40
1.832595714594046
  0
TABLESTYLE
  5
65
102
{ACAD_XDICTIONARY
360
4E9
102
}
102
{ACAD_REACTORS
330
64
102
}
330
64
100
AcDbTableStyle
280
     0
  3
Standard
 70
     0
 71
     0
 40
0.06
 41
0.06
280
     0
281
     0
  7
Standard
140
0.18
170
     2
 62
     0
 63
     7
283
     0
 90
      512
 91
        0
  1

274
    -2
284
     1
 64
     0
275
    -2
285
     1
 65
     0
276
    -2
286
     1
 66
     0
277
    -2
287
     1
 67
     0
278
    -2
288
     1
 68
     0
279
    -2
289
     1
 69
     0
  7
Standard
140
0.25
170
     5
 62
     0
 63
     7
283
     0
 90
      512
 91
        0
  1

274
    -2
284
     1
 64
     0
275
    -2
285
     1
 65
     0
276
    -2
286
     1
 66
     0
277
    -2
287
     1
 67
     0
278
    -2
288
     1
 68
     0
279
    -2
289
     1
 69
     0
  7
Standard
140
0.18
170
     5
 62
     0
 63
     7
283
     0
 90
      512
 91
        0
  1

274
    -2
284
     1
 64
     0
275
    -2
285
     1
 65
     0
276
    -2
286
     1
 66
     0
277
    -2
287
     1
 67
     0
278
    -2
288
     1
 68
     0
279
    -2
289
     1
 69
     0
  0
VISUALSTYLE
  5
2F
102
{ACAD_REACTORS
330
29
102
}
330
29
100
AcDbVisualStyle
  2
2dWireframe
 70
     4
177
     3
291
     0
 70
    58
 90
        0
176
     1
 90
        2
176
     1
 90
        0
176
     1
 90
        0
176
     1
 40
0.6
176
     1
 40
30.0
176
     1
 62
     7
420
 16777215
176
     1
 90
        1
176
     1
 90
        4
176
     1
 62
     7
176
     1
 62
   257
176
     1
 90
        1
176
     1
 90
        1
176
     1
 40
1.0
176
     1
 90
        0
176
     1
 62
   257
176
     1
 40
1.0
176
     1
 90
        1
176
     1
 90
        6
176
     1
 90
        2
176
     1
 62
     7
176
     1
 90
        5
176
     1
 90
        0
176
     1
 90
        0
176
     1
290
     0
176
     1
 90
        1
176
     1
 40
0.0
176
     1
 90
        0
176
     1
290
     1
176
     1
290
     1
176
     1
290
     0
176
     1
290
     0
176
     1
290
     0
176
     1
290
     0
176
     1
290
     0
176
     1
290
     0
176
     1
290
     0
176
     1
 90
       50
176
     1
 40
0.0
176
     1
 40
1.0
176
     1
 90
        0
176
     1
 62
    18
420
        0
176
     1
 90
       50
176
     1
 90
        3
176
     1
 62
     5
420
      255
176
     1
290
     0
176
     1
 90
       50
176
     1
 90
       50
176
     1
 90
       50
176
     1
290
     0
176
     1
 90
       50
176
     1
 62
   256
176
     0
 40
1.0
176
     0
 90
        2
176
     1
  1
strokes_ogs.tif
176
     1
290
     0
176
     1
 40
1.0
176
     1
 40
1.0
176
     1
  0
VISUALSTYLE
  5
2E
102
{ACAD_REACTORS
330
29
102
}
330
29
100
AcDbVisualStyle
  2
Basic
 70
     7
177
     3
291
     1
 70
    58
 90
        1
176
     1
 90
        0
176
     1
 90
        1
176
     1
 90
        0
176
     1
 40
0.6
176
     1
 40
30.0
176
     1
 62
     7
420
 16777215
176
     1
 90
        0
176
     1
 90
        4
176
     1
 62
     7
176
     1
 62
   257
176
     1
 90
        1
176
     1
 90
        1
176
     1
 40
1.0
176
     1
 90
        8
176
     1
 62
     7
176
     1
 40
1.0
176
     1
 90
        1
176
     1
 90
        6
176
     1
 90
        2
176
     1
 62
     7
176
     1
 90
        5
176
     1
 90
        0
176
     1
 90
        0
176
     1
290
     0
176
     1
 90
        1
176
     1
 40
0.0
176
     1
 90
        0
176
     1
290
     0
176
     1
290
     1
176
     1
290
     1
176
     1
290
     0
176
     1
290
     0
176
     1
290
     0
176
     1
290
     0
176
     1
290
     0
176
     1
290
     0
176
     1
 90
       50
176
     1
 40
0.0
176
     1
 40
1.0
176
     1
 90
        0
176
     1
 62
    18
420
        0
176
     1
 90
       50
176
     1
 90
        3
176
     1
 62
     5
420
      255
176
     1
290
     0
176
     1
 90
       50
176
     1
 90
       50
176
     1
 90
       50
176
     1
290
     0
176
     1
 90
       50
176
     1
 62
   256
176
     0
 40
1.0
176
     0
 90
        2
176
     1
  1
strokes_ogs.tif
176
     1
290
     0
176
     1
 40
1.0
176
     1
 40
1.0
176
     1
  0
VISUALSTYLE
  5
35
102
{ACAD_REACTORS
330
29
102
}
330
29
100
AcDbVisualStyle
  2
Brighten
 70
    12
177
     3
291
     1
 70
    58
 90
        2
176
     1
 90
        2
176
     1
 90
        0
176
     1
 90
        0
176
     1
 40
0.6
176
     1
 40
30.0
176
     1
 62
     7
420
 16777215
176
     1
 90
        1
176
     1
 90
        4
176
     1
 62
     7
176
     1
 62
   257
176
     1
 90
        1
176
     1
 90
        1
176
     1
 40
1.0
176
     1
 90
        8
176
     1
 62
     7
176
     1
 40
1.0
176
     1
 90
        1
176
     1
 90
        6
176
     1
 90
        2
176
     1
 62
     7
176
     1
 90
        5
176
     1
 90
        0
176
     1
 90
        0
176
     1
290
     0
176
     1
 90
        1
176
     1
 40
50.0
176
     1
 90
        0
176
     1
290
     0
176
     1
290
     1
176
     1
290
     1
176
     1
290
     0
176
     1
290
     0
176
     1
290
     0
176
     1
290
     0
176
     1
290
     0
176
     1
290
     0
176
     1
 90
       50
176
     1
 40
0.0
176
     1
 40
1.0
176
     1
 90
        0
176
     1
 62
    18
420
        0
176
     1
 90
       50
176
     1
 90
        3
176
     1
 62
     5
420
      255
176
     1
290
     0
176
     1
 90
       50
176
     1
 90
       50
176
     1
 90
       50
176
     1
290
     0
176
     1
 90
       50
176
     1
 62
   256
176
     0
 40
1.0
176
     0
 90
        2
176
     1
  1
strokes_ogs.tif
176
     1
290
     0
176
     1
 40
1.0
176
     1
 40
1.0
176
     1
  0
VISUALSTYLE
  5
39
102
{ACAD_REACTORS
330
29
102
}
330
29
100
AcDbVisualStyle
  2
ColorChange
 70
    16
177
     3
291
     1
 70
    58
 90
        2
176
     1
 90
        2
176
     1
 90
        3
176
     1
 90
        0
176
     1
 40
0.6
176
     1
 40
30.0
176
     1
 62
     8
420
  8421504
176
     1
 90
        1
176
     1
 90
        4
176
     1
 62
     7
176
     1
 62
   257
176
     1
 90
        1
176
     1
 90
        1
176
     1
 40
1.0
176
     1
 90
        8
176
     1
 62
     8
420
  8421504
176
     1
 40
1.0
176
     1
 90
        1
176
     1
 90
        6
176
     1
 90
        2
176
     1
 62
     7
176
     1
 90
        5
176
     1
 90
        0
176
     1
 90
        0
176
     1
290
     0
176
     1
 90
        1
176
     1
 40
0.0
176
     1
 90
        0
176
     1
290
     0
176
     1
290
     1
176
     1
290
     1
176
     1
290
     0
176
     1
290
     0
176
     1
290
     0
176
     1
290
     0
176
     1
290
     0
176
     1
290
     0
176
     1
 90
       50
176
     1
 40
0.0
176
     1
 40
1.0
176
     1
 90
        0
176
     1
 62
    18
420
        0
176
     1
 90
       50
176
     1
 90
        3
176
     1
 62
     5
420
      255
176
     1
290
     0
176
     1
 90
       50
176
     1
 90
       50
176
     1
 90
       50
176
     1
290
     0
176
     1
 90
       50
176
     1
 62
   256
176
     0
 40
1.0
176
     0
 90
        2
176
     1
  1
strokes_ogs.tif
176
     1
290
     0
176
     1
 40
1.0
176
     1
 40
1.0
176
     1
  0
VISUALSTYLE
  5
32
102
{ACAD_REACTORS
330
29
102
}
330
29
100
AcDbVisualStyle
  2
Conceptual
 70
     9
177
     3
291
     0
 70
    58
 90
        3
176
     1
 90
        2
176
     1
 90
        0
176
     1
 90
        0
176
     1
 40
0.6
176
     1
 40
30.0
176
     1
 62
     7
420
 16777215
176
     1
 90
        2
176
     1
 90
        2
176
     1
 62
     7
176
     1
 62
   257
176
     1
 90
        1
176
     1
 90
        1
176
     1
 40
179.0
176
     1
 90
        8
176
     1
 62
     7
176
     1
 40
1.0
176
     1
 90
        1
176
     1
 90
        6
176
     1
 90
        2
176
     1
 62
     7
176
     1
 90
        3
176
     1
 90
        0
176
     1
 90
        0
176
     1
290
     0
176
     1
 90
        1
176
     1
 40
0.0
176
     1
 90
        0
176
     1
290
     0
176
     1
290
     1
176
     1
290
     1
176
     1
290
     0
176
     1
290
     0
176
     1
290
     0
176
     1
290
     0
176
     1
290
     0
176
     1
290
     0
176
     1
 90
       50
176
     1
 40
0.0
176
     1
 40
1.0
176
     1
 90
        0
176
     1
 62
    18
420
        0
176
     1
 90
       50
176
     1
 90
        3
176
     1
 62
     5
420
      255
176
     1
290
     0
176
     1
 90
       50
176
     1
 90
       50
176
     1
 90
       50
176
     1
290
     0
176
     1
 90
       50
176
     1
 62
   256
176
     0
 40
1.0
176
     0
 90
        2
176
     1
  1
strokes_ogs.tif
176
     1
290
     0
176
     1
 40
1.0
176
     1
 40
1.0
176
     1
  0
VISUALSTYLE
  5
34
102
{ACAD_REACTORS
330
29
102
}
330
29
100
AcDbVisualStyle
  2
Dim
 70
    11
177
     3
291
     1
 70
    58
 90
        2
176
     1
 90
        2
176
     1
 90
        0
176
     1
 90
        0
176
     1
 40
0.6
176
     1
 40
30.0
176
     1
 62
     7
420
 16777215
176
     1
 90
        1
176
     1
 90
        4
176
     1
 62
     7
176
     1
 62
   257
176
     1
 90
        1
176
     1
 90
        1
176
     1
 40
1.0
176
     1
 90
        8
176
     1
 62
     7
176
     1
 40
1.0
176
     1
 90
        1
176
     1
 90
        6
176
     1
 90
        2
176
     1
 62
     7
176
     1
 90
        5
176
     1
 90
        0
176
     1
 90
        0
176
     1
290
     0
176
     1
 90
        1
176
     1
 40
-50.0
176
     1
 90
        0
176
     1
290
     0
176
     1
290
     1
176
     1
290
     1
176
     1
290
     0
176
     1
290
     0
176
     1
290
     0
176
     1
290
     0
176
     1
290
     0
176
     1
290
     0
176
     1
 90
       50
176
     1
 40
0.0
176
     1
 40
1.0
176
     1
 90
        0
176
     1
 62
    18
420
        0
176
     1
 90
       50
176
     1
 90
        3
176
     1
 62
     5
420
      255
176
     1
290
     0
176
     1
 90
       50
176
     1
 90
       50
176
     1
 90
       50
176
     1
290
     0
176
     1
 90
       50
176
     1
 62
   256
176
     0
 40
1.0
176
     0
 90
        2
176
     1
  1
strokes_ogs.tif
176
     1
290
     0
176
     1
 40
1.0
176
     1
 40
1.0
176
     1
  0
VISUALSTYLE
  5
41
102
{ACAD_REACTORS
330
29
102
}
330
29
100
AcDbVisualStyle
  2
EdgeColorOff
 70
    22
177
     3
291
     1
 70
    58
 90
        2
176
     0
 90
        2
176
     0
 90
        0
176
     0
 90
        0
176
     0
 40
0.6
176
     0
 40
30.0
176
     0
 62
     7
420
 16777215
176
     0
 90
        1
176
     0
 90
        4
176
     0
 62
     7
176
     0
 62
   257
176
     0
 90
        1
176
     0
 90
        1
176
     0
 40
1.0
176
     0
 90
        8
176
     2
 62
     7
176
     0
 40
1.0
176
     0
 90
        1
176
     0
 90
        6
176
     0
 90
        2
176
     0
 62
     7
176
     0
 90
        5
176
     0
 90
        0
176
     0
 90
        0
176
     0
290
     0
176
     0
 90
        1
176
     0
 40
0.0
176
     0
 90
        0
176
     0
290
     0
176
     0
290
     1
176
     0
290
     1
176
     0
290
     0
176
     0
290
     0
176
     0
290
     0
176
     0
290
     0
176
     0
290
     0
176
     0
290
     0
176
     0
 90
       50
176
     0
 40
0.0
176
     0
 40
1.0
176
     0
 90
        0
176
     0
 62
    18
420
        0
176
     0
 90
       50
176
     0
 90
        3
176
     0
 62
     5
420
      255
176
     0
290
     0
176
     0
 90
       50
176
     0
 90
       50
176
     0
 90
       50
176
     0
290
     0
176
     0
 90
       50
176
     0
 62
   256
176
     0
 40
1.0
176
     0
 90
        2
176
     0
  1
strokes_ogs.tif
176
     0
290
     0
176
     0
 40
1.0
176
     0
 40
1.0
176
     0
  0
VISUALSTYLE
  5
38
102
{ACAD_REACTORS
330
29
102
}
330
29
100
AcDbVisualStyle
  2
Facepattern
 70
    15
177
     3
291
     1
 70
    58
 90
        2
176
     1
 90
        2
176
     1
 90
        0
176
     1
 90
        0
176
     1
 40
0.6
176
     1
 40
30.0
176
     1
 62
     7
420
 16777215
176
     1
 90
        1
176
     1
 90
        4
176
     1
 62
     7
176
     1
 62
   257
176
     1
 90
        1
176
     1
 90
        1
176
     1
 40
1.0
176
     1
 90
        8
176
     1
 62
     7
176
     1
 40
1.0
176
     1
 90
        1
176
     1
 90
        6
176
     1
 90
        2
176
     1
 62
     7
176
     1
 90
        5
176
     1
 90
        0
176
     1
 90
        0
176
     1
290
     0
176
     1
 90
        1
176
     1
 40
0.0
176
     1
 90
        0
176
     1
290
     0
176
     1
290
     1
176
     1
290
     1
176
     1
290
     0
176
     1
290
     0
176
     1
290
     0
176
     1
290
     0
176
     1
290
     0
176
     1
290
     0
176
     1
 90
       50
176
     1
 40
0.0
176
     1
 40
1.0
176
     1
 90
        0
176
     1
 62
    18
420
        0
176
     1
 90
       50
176
     1
 90
        3
176
     1
 62
     5
420
      255
176
     1
290
     0
176
     1
 90
       50
176
     1
 90
       50
176
     1
 90
       50
176
     1
290
     0
176
     1
 90
       50
176
     1
 62
   256
176
     0
 40
1.0
176
     0
 90
        2
176
     1
  1
strokes_ogs.tif
176
     1
290
     0
176
     1
 40
1.0
176
     1
 40
1.0
176
     1
  0
VISUALSTYLE
  5
2A
102
{ACAD_REACTORS
330
29
102
}
330
29
100
AcDbVisualStyle
  2
Flat
 70
     0
177
     3
291
     1
 70
    58
 90
        2
176
     1
 90
        1
176
     1
 90
        1
176
     1
 90
        2
176
     1
 40
0.6
176
     1
 40
30.0
176
     1
 62
     7
420
 16777215
176
     1
 90
        0
176
     1
 90
        0
176
     1
 62
     7
176
     1
 62
   257
176
     1
 90
        1
176
     1
 90
        1
176
     1
 40
1.0
176
     1
 90
        8
176
     1
 62
     7
176
     1
 40
1.0
176
     1
 90
        1
176
     1
 90
        6
176
     1
 90
        2
176
     1
 62
     7
176
     1
 90
        5
176
     1
 90
        0
176
     1
 90
        0
176
     1
290
     0
176
     1
 90
       13
176
     1
 40
0.0
176
     1
 90
        0
176
     1
290
     0
176
     1
290
     1
176
     1
290
     1
176
     1
290
     0
176
     1
290
     0
176
     1
290
     0
176
     1
290
     0
176
     1
290
     0
176
     1
290
     0
176
     1
 90
       50
176
     1
 40
0.0
176
     1
 40
1.0
176
     1
 90
        0
176
     1
 62
    18
420
        0
176
     1
 90
       50
176
     1
 90
        3
176
     1
 62
     5
420
      255
176
     1
290
     0
176
     1
 90
       50
176
     1
 90
       50
176
     1
 90
       50
176
     1
290
     0
176
     1
 90
       50
176
     1
 62
   256
176
     0
 40
1.0
176
     0
 90
        2
176
     1
  1
strokes_ogs.tif
176
     1
290
     0
176
     1
 40
1.0
176
     1
 40
1.0
176
     1
  0
VISUALSTYLE
  5
2B
102
{ACAD_REACTORS
330
29
102
}
330
29
100
AcDbVisualStyle
  2
FlatWithEdges
 70
     1
177
     3
291
     1
 70
    58
 90
        2
176
     1
 90
        1
176
     1
 90
        1
176
     1
 90
        2
176
     1
 40
0.6
176
     1
 40
30.0
176
     1
 62
     7
420
 16777215
176
     1
 90
        1
176
     1
 90
        0
176
     1
 62
     7
176
     1
 62
   257
176
     1
 90
        1
176
     1
 90
        1
176
     1
 40
1.0
176
     1
 90
        0
176
     1
 62
   257
176
     1
 40
1.0
176
     1
 90
        1
176
     1
 90
        6
176
     1
 90
        2
176
     1
 62
     7
176
     1
 90
        5
176
     1
 90
        0
176
     1
 90
        0
176
     1
290
     0
176
     1
 90
       13
176
     1
 40
0.0
176
     1
 90
        0
176
     1
290
     0
176
     1
290
     1
176
     1
290
     1
176
     1
290
     0
176
     1
290
     0
176
     1
290
     0
176
     1
290
     0
176
     1
290
     0
176
     1
290
     0
176
     1
 90
       50
176
     1
 40
0.0
176
     1
 40
1.0
176
     1
 90
        0
176
     1
 62
    18
420
        0
176
     1
 90
       50
176
     1
 90
        3
176
     1
 62
     5
420
      255
176
     1
290
     0
176
     1
 90
       50
176
     1
 90
       50
176
     1
 90
       50
176
     1
290
     0
176
     1
 90
       50
176
     1
 62
   256
176
     0
 40
1.0
176
     0
 90
        2
176
     1
  1
strokes_ogs.tif
176
     1
290
     0
176
     1
 40
1.0
176
     1
 40
1.0
176
     1
  0
VISUALSTYLE
  5
2C
102
{ACAD_REACTORS
330
29
102
}
330
29
100
AcDbVisualStyle
  2
Gouraud
 70
     2
177
     3
291
     1
 70
    58
 90
        2
176
     1
 90
        2
176
     1
 90
        1
176
     1
 90
        2
176
     1
 40
0.6
176
     1
 40
30.0
176
     1
 62
     7
420
 16777215
176
     1
 90
        0
176
     1
 90
        0
176
     1
 62
     7
176
     1
 62
   257
176
     1
 90
        1
176
     1
 90
        1
176
     1
 40
1.0
176
     1
 90
        0
176
     1
 62
     7
176
     1
 40
1.0
176
     1
 90
        1
176
     1
 90
        6
176
     1
 90
        2
176
     1
 62
     7
176
     1
 90
        5
176
     1
 90
        0
176
     1
 90
        0
176
     1
290
     0
176
     1
 90
       13
176
     1
 40
0.0
176
     1
 90
        0
176
     1
290
     0
176
     1
290
     1
176
     1
290
     1
176
     1
290
     0
176
     1
290
     0
176
     1
290
     0
176
     1
290
     0
176
     1
290
     0
176
     1
290
     0
176
     1
 90
       50
176
     1
 40
0.0
176
     1
 40
1.0
176
     1
 90
        0
176
     1
 62
    18
420
        0
176
     1
 90
       50
176
     1
 90
        3
176
     1
 62
     5
420
      255
176
     1
290
     0
176
     1
 90
       50
176
     1
 90
       50
176
     1
 90
       50
176
     1
290
     0
176
     1
 90
       50
176
     1
 62
   256
176
     0
 40
1.0
176
     0
 90
        2
176
     1
  1
strokes_ogs.tif
176
     1
290
     0
176
     1
 40
1.0
176
     1
 40
1.0
176
     1
  0
VISUALSTYLE
  5
2D
102
{ACAD_REACTORS
330
29
102
}
330
29
100
AcDbVisualStyle
  2
GouraudWithEdges
 70
     3
177
     3
291
     1
 70
    58
 90
        2
176
     1
 90
        2
176
     1
 90
        1
176
     1
 90
        2
176
     1
 40
0.6
176
     1
 40
30.0
176
     1
 62
     7
420
 16777215
176
     1
 90
        1
176
     1
 90
        0
176
     1
 62
     7
176
     1
 62
   257
176
     1
 90
        1
176
     1
 90
        1
176
     1
 40
1.0
176
     1
 90
        0
176
     1
 62
   257
176
     1
 40
1.0
176
     1
 90
        1
176
     1
 90
        6
176
     1
 90
        2
176
     1
 62
     7
176
     1
 90
        5
176
     1
 90
        0
176
     1
 90
        0
176
     1
290
     0
176
     1
 90
       13
176
     1
 40
0.0
176
     1
 90
        0
176
     1
290
     0
176
     1
290
     1
176
     1
290
     1
176
     1
290
     0
176
     1
290
     0
176
     1
290
     0
176
     1
290
     0
176
     1
290
     0
176
     1
290
     0
176
     1
 90
       50
176
     1
 40
0.0
176
     1
 40
1.0
176
     1
 90
        0
176
     1
 62
    18
420
        0
176
     1
 90
       50
176
     1
 90
        3
176
     1
 62
     5
420
      255
176
     1
290
     0
176
     1
 90
       50
176
     1
 90
       50
176
     1
 90
       50
176
     1
290
     0
176
     1
 90
       50
176
     1
 62
   256
176
     0
 40
1.0
176
     0
 90
        2
176
     1
  1
strokes_ogs.tif
176
     1
290
     0
176
     1
 40
1.0
176
     1
 40
1.0
176
     1
  0
VISUALSTYLE
  5
31
102
{ACAD_REACTORS
330
29
102
}
330
29
100
AcDbVisualStyle
  2
Hidden
 70
     6
177
     3
291
     0
 70
    58
 90
        1
176
     1
 90
        2
176
     1
 90
        2
176
     1
 90
        0
176
     1
 40
0.6
176
     1
 40
30.0
176
     1
 62
     7
420
 16777215
176
     1
 90
        2
176
     1
 90
        2
176
     1
 62
     7
176
     1
 62
   257
176
     1
 90
        2
176
     1
 90
        1
176
     1
 40
40.0
176
     1
 90
        0
176
     1
 62
   257
176
     1
 40
1.0
176
     1
 90
        1
176
     1
 90
        6
176
     1
 90
        2
176
     1
 62
     7
176
     1
 90
        3
176
     1
 90
        0
176
     1
 90
        0
176
     1
290
     0
176
     1
 90
        1
176
     1
 40
0.0
176
     1
 90
        0
176
     1
290
     0
176
     1
290
     1
176
     1
290
     1
176
     1
290
     0
176
     1
290
     0
176
     1
290
     0
176
     1
290
     0
176
     1
290
     0
176
     1
290
     0
176
     1
 90
       50
176
     1
 40
0.0
176
     1
 40
1.0
176
     1
 90
        0
176
     1
 62
    18
420
        0
176
     1
 90
       50
176
     1
 90
        3
176
     1
 62
     5
420
      255
176
     1
290
     0
176
     1
 90
       50
176
     1
 90
       50
176
     1
 90
       50
176
     1
290
     0
176
     1
 90
       50
176
     1
 62
   256
176
     0
 40
1.0
176
     0
 90
        2
176
     1
  1
strokes_ogs.tif
176
     1
290
     0
176
     1
 40
1.0
176
     1
 40
1.0
176
     1
  0
VISUALSTYLE
  5
3F
102
{ACAD_REACTORS
330
29
102
}
330
29
100
AcDbVisualStyle
  2
JitterOff
 70
    20
177
     3
291
     1
 70
    58
 90
        2
176
     0
 90
        2
176
     0
 90
        0
176
     0
 90
        0
176
     0
 40
0.6
176
     0
 40
30.0
176
     0
 62
     7
420
 16777215
176
     0
 90
        1
176
     0
 90
        4
176
     0
 62
     7
176
     0
 62
   257
176
     0
 90
        1
176
     0
 90
        1
176
     0
 40
1.0
176
     0
 90
       10
176
     2
 62
     7
176
     0
 40
1.0
176
     0
 90
        1
176
     0
 90
        6
176
     0
 90
        2
176
     0
 62
     7
176
     0
 90
        5
176
     0
 90
        0
176
     0
 90
        0
176
     0
290
     0
176
     0
 90
        1
176
     0
 40
0.0
176
     0
 90
        0
176
     0
290
     0
176
     0
290
     1
176
     0
290
     1
176
     0
290
     0
176
     0
290
     0
176
     0
290
     0
176
     0
290
     0
176
     0
290
     0
176
     0
290
     0
176
     0
 90
       50
176
     0
 40
0.0
176
     0
 40
1.0
176
     0
 90
        0
176
     0
 62
    18
420
        0
176
     0
 90
       50
176
     0
 90
        3
176
     0
 62
     5
420
      255
176
     0
290
     0
176
     0
 90
       50
176
     0
 90
       50
176
     0
 90
       50
176
     0
290
     0
176
     0
 90
       50
176
     0
 62
   256
176
     0
 40
1.0
176
     0
 90
        2
176
     0
  1
strokes_ogs.tif
176
     0
290
     0
176
     0
 40
1.0
176
     0
 40
1.0
176
     0
  0
VISUALSTYLE
  5
37
102
{ACAD_REACTORS
330
29
102
}
330
29
100
AcDbVisualStyle
  2
Linepattern
 70
    14
177
     3
291
     1
 70
    58
 90
        2
176
     1
 90
        2
176
     1
 90
        0
176
     1
 90
        0
176
     1
 40
0.6
176
     1
 40
30.0
176
     1
 62
     7
420
 16777215
176
     1
 90
        1
176
     1
 90
        4
176
     1
 62
     7
176
     1
 62
   257
176
     1
 90
        7
176
     1
 90
        7
176
     1
 40
1.0
176
     1
 90
        8
176
     1
 62
     7
176
     1
 40
1.0
176
     1
 90
        1
176
     1
 90
        6
176
     1
 90
        2
176
     1
 62
     7
176
     1
 90
        5
176
     1
 90
        0
176
     1
 90
        0
176
     1
290
     0
176
     1
 90
        1
176
     1
 40
0.0
176
     1
 90
        0
176
     1
290
     0
176
     1
290
     1
176
     1
290
     1
176
     1
290
     0
176
     1
290
     0
176
     1
290
     0
176
     1
290
     0
176
     1
290
     0
176
     1
290
     0
176
     1
 90
       50
176
     1
 40
0.0
176
     1
 40
1.0
176
     1
 90
        0
176
     1
 62
    18
420
        0
176
     1
 90
       50
176
     1
 90
        3
176
     1
 62
     5
420
      255
176
     1
290
     0
176
     1
 90
       50
176
     1
 90
       50
176
     1
 90
       50
176
     1
290
     0
176
     1
 90
       50
176
     1
 62
   256
176
     0
 40
1.0
176
     0
 90
        2
176
     1
  1
strokes_ogs.tif
176
     1
290
     0
176
     1
 40
1.0
176
     1
 40
1.0
176
     1
  0
VISUALSTYLE
  5
40
102
{ACAD_REACTORS
330
29
102
}
330
29
100
AcDbVisualStyle
  2
OverhangOff
 70
    21
177
     3
291
     1
 70
    58
 90
        2
176
     0
 90
        2
176
     0
 90
        0
176
     0
 90
        0
176
     0
 40
0.6
176
     0
 40
30.0
176
     0
 62
     7
420
 16777215
176
     0
 90
        1
176
     0
 90
        4
176
     0
 62
     7
176
     0
 62
   257
176
     0
 90
        1
176
     0
 90
        1
176
     0
 40
1.0
176
     0
 90
        9
176
     2
 62
     7
176
     0
 40
1.0
176
     0
 90
        1
176
     0
 90
        6
176
     0
 90
        2
176
     0
 62
     7
176
     0
 90
        5
176
     0
 90
        0
176
     0
 90
        0
176
     0
290
     0
176
     0
 90
        1
176
     0
 40
0.0
176
     0
 90
        0
176
     0
290
     0
176
     0
290
     1
176
     0
290
     1
176
     0
290
     0
176
     0
290
     0
176
     0
290
     0
176
     0
290
     0
176
     0
290
     0
176
     0
290
     0
176
     0
 90
       50
176
     0
 40
0.0
176
     0
 40
1.0
176
     0
 90
        0
176
     0
 62
    18
420
        0
176
     0
 90
       50
176
     0
 90
        3
176
     0
 62
     5
420
      255
176
     0
290
     0
176
     0
 90
       50
176
     0
 90
       50
176
     0
 90
       50
176
     0
290
     0
176
     0
 90
       50
176
     0
 62
   256
176
     0
 40
1.0
176
     0
 90
        2
176
     0
  1
strokes_ogs.tif
176
     0
290
     0
176
     0
 40
1.0
176
     0
 40
1.0
176
     0
  0
VISUALSTYLE
  5
33
102
{ACAD_REACTORS
330
29
102
}
330
29
100
AcDbVisualStyle
  2
Realistic
 70
     8
177
     3
291
     0
 70
    58
 90
        2
176
     1
 90
        3
176
     1
 90
        0
176
     1
 90
        2
176
     1
 40
0.6
176
     1
 40
30.0
176
     1
 62
     7
420
 16777215
176
     1
 90
        0
176
     1
 90
        0
176
     1
 62
     7
176
     1
 62
   257
176
     1
 90
        1
176
     1
 90
        1
176
     1
 40
1.0
176
     1
 90
        8
176
     1
 62
   257
176
     1
 40
1.0
176
     1
 90
        1
176
     1
 90
        6
176
     1
 90
        2
176
     1
 62
     7
176
     1
 90
        3
176
     1
 90
        0
176
     1
 90
        0
176
     1
290
     0
176
     1
 90
       13
176
     1
 40
0.0
176
     1
 90
        0
176
     1
290
     0
176
     1
290
     1
176
     1
290
     1
176
     1
290
     0
176
     1
290
     0
176
     1
290
     0
176
     1
290
     0
176
     1
290
     0
176
     1
290
     0
176
     1
 90
       50
176
     1
 40
0.0
176
     1
 40
1.0
176
     1
 90
        0
176
     1
 62
    18
420
        0
176
     1
 90
       50
176
     1
 90
        3
176
     1
 62
     5
420
      255
176
     1
290
     0
176
     1
 90
       50
176
     1
 90
       50
176
     1
 90
       50
176
     1
290
     0
176
     1
 90
       50
176
     1
 62
   256
176
     0
 40
1.0
176
     0
 90
        2
176
     1
  1
strokes_ogs.tif
176
     1
290
     0
176
     1
 40
1.0
176
     1
 40
1.0
176
     1
  0
VISUALSTYLE
  5
3E
102
{ACAD_REACTORS
330
29
102
}
330
29
100
AcDbVisualStyle
  2
Shaded
 70
    27
177
     3
291
     0
 70
    58
 90
        2
176
     1
 90
        2
176
     1
 90
        1
176
     1
 90
        2
176
     1
 40
0.6
176
     1
 40
30.0
176
     1
 62
     7
420
 16777215
176
     1
 90
        0
176
     1
 90
        4
176
     1
 62
     7
176
     1
 62
   257
176
     1
 90
        1
176
     1
 90
        1
176
     1
 40
1.0
176
     1
 90
        8
176
     1
 62
   257
176
     1
 40
1.0
176
     1
 90
        1
176
     1
 90
        6
176
     1
 90
        2
176
     1
 62
     8
420
  7895160
176
     1
 90
        3
176
     1
 90
        0
176
     1
 90
        0
176
     1
290
     0
176
     1
 90
        5
176
     1
 40
0.0
176
     1
 90
        0
176
     1
290
     0
176
     1
290
     1
176
     1
290
     1
176
     1
290
     0
176
     1
290
     0
176
     1
290
     0
176
     1
290
     0
176
     1
290
     0
176
     1
290
     0
176
     1
 90
       50
176
     1
 40
0.0
176
     1
 40
1.0
176
     1
 90
        0
176
     1
 62
    18
420
        0
176
     1
 90
       50
176
     1
 90
        3
176
     1
 62
     5
420
      255
176
     1
290
     0
176
     1
 90
       50
176
     1
 90
       50
176
     1
 90
       50
176
     1
290
     0
176
     1
 90
       50
176
     1
 62
   256
176
     0
 40
1.0
176
     0
 90
        2
176
     1
  1
strokes_ogs.tif
176
     1
290
     0
176
     1
 40
1.0
176
     1
 40
1.0
176
     1
  0
VISUALSTYLE
  5
3D
102
{ACAD_REACTORS
330
29
102
}
330
29
100
AcDbVisualStyle
  2
Shaded with edges
 70
    26
177
     3
291
     0
 70
    58
 90
        2
176
     1
 90
        2
176
     1
 90
        1
176
     1
 90
        2
176
     1
 40
0.6
176
     1
 40
30.0
176
     1
 62
     7
420
 16777215
176
     1
 90
        1
176
     1
 90
        2
176
     1
 62
     7
176
     1
 62
   257
176
     1
 90
        2
176
     1
 90
        1
176
     1
 40
1.0
176
     1
 90
        8
176
     1
 62
   257
176
     1
 40
1.0
176
     1
 90
        1
176
     1
 90
        6
176
     1
 90
        2
176
     1
 62
     7
176
     1
 90
        3
176
     1
 90
        0
176
     1
 90
        0
176
     1
290
     0
176
     1
 90
        5
176
     1
 40
0.0
176
     1
 90
        0
176
     1
290
     0
176
     1
290
     1
176
     1
290
     1
176
     1
290
     0
176
     1
290
     0
176
     1
290
     0
176
     1
290
     0
176
     1
290
     0
176
     1
290
     0
176
     1
 90
       50
176
     1
 40
0.0
176
     1
 40
1.0
176
     1
 90
        0
176
     1
 62
    18
420
        0
176
     1
 90
       50
176
     1
 90
        3
176
     1
 62
     5
420
      255
176
     1
290
     0
176
     1
 90
       50
176
     1
 90
       50
176
     1
 90
       50
176
     1
290
     0
176
     1
 90
       50
176
     1
 62
   256
176
     0
 40
1.0
176
     0
 90
        2
176
     1
  1
strokes_ogs.tif
176
     1
290
     0
176
     1
 40
1.0
176
     1
 40
1.0
176
     1
  0
VISUALSTYLE
  5
3A
102
{ACAD_REACTORS
330
29
102
}
330
29
100
AcDbVisualStyle
  2
Shades of Gray
 70
    23
177
     3
291
     0
 70
    58
 90
        2
176
     1
 90
        2
176
     1
 90
        3
176
     1
 90
        0
176
     1
 40
0.6
176
     1
 40
30.0
176
     1
 62
     7
420
 16777215
176
     1
 90
        2
176
     1
 90
        2
176
     1
 62
     7
176
     1
 62
     7
176
     1
 90
        1
176
     1
 90
        1
176
     1
 40
40.0
176
     1
 90
        8
176
     1
 62
     7
176
     1
 40
1.0
176
     1
 90
        1
176
     1
 90
        6
176
     1
 90
        2
176
     1
 62
     7
176
     1
 90
        3
176
     1
 90
        0
176
     1
 90
        0
176
     1
290
     0
176
     1
 90
        1
176
     1
 40
0.0
176
     1
 90
        0
176
     1
290
     0
176
     1
290
     1
176
     1
290
     1
176
     1
290
     0
176
     1
290
     0
176
     1
290
     0
176
     1
290
     0
176
     1
290
     0
176
     1
290
     0
176
     1
 90
       50
176
     1
 40
0.0
176
     1
 40
1.0
176
     1
 90
        0
176
     1
 62
    18
420
        0
176
     1
 90
       50
176
     1
 90
        3
176
     1
 62
     5
420
      255
176
     1
290
     0
176
     1
 90
       50
176
     1
 90
       50
176
     1
 90
       50
176
     1
290
     0
176
     1
 90
       50
176
     1
 62
   256
176
     0
 40
1.0
176
     0
 90
        2
176
     1
  1
strokes_ogs.tif
176
     1
290
     0
176
     1
 40
1.0
176
     1
 40
1.0
176
     1
  0
VISUALSTYLE
  5
3B
102
{ACAD_REACTORS
330
29
102
}
330
29
100
AcDbVisualStyle
  2
Sketchy
 70
    24
177
     3
291
     0
 70
    58
 90
        1
176
     1
 90
        2
176
     1
 90
        2
176
     1
 90
        0
176
     1
 40
0.6
176
     1
 40
30.0
176
     1
 62
     7
420
 16777215
176
     1
 90
        2
176
     1
 90
        2
176
     1
 62
     7
176
     1
 62
     7
176
     1
 90
        1
176
     1
 90
        1
176
     1
 40
40.0
176
     1
 90
       11
176
     1
 62
     7
176
     1
 40
1.0
176
     1
 90
        1
176
     1
 90
        6
176
     1
 90
        2
176
     1
 62
     7
176
     1
 90
        6
176
     1
 90
        0
176
     1
 90
        0
176
     1
290
     0
176
     1
 90
        1
176
     1
 40
0.0
176
     1
 90
        0
176
     1
290
     0
176
     1
290
     1
176
     1
290
     1
176
     1
290
     0
176
     1
290
     0
176
     1
290
     0
176
     1
290
     0
176
     1
290
     0
176
     1
290
     0
176
     1
 90
       50
176
     1
 40
0.0
176
     1
 40
1.0
176
     1
 90
        0
176
     1
 62
    18
420
        0
176
     1
 90
       50
176
     1
 90
        3
176
     1
 62
     5
420
      255
176
     1
290
     0
176
     1
 90
       50
176
     1
 90
       50
176
     1
 90
       50
176
     1
290
     0
176
     1
 90
       50
176
     1
 62
   256
176
     0
 40
1.0
176
     0
 90
        2
176
     1
  1
strokes_ogs.tif
176
     1
290
     0
176
     1
 40
1.0
176
     1
 40
1.0
176
     1
  0
VISUALSTYLE
  5
36
102
{ACAD_REACTORS
330
29
102
}
330
29
100
AcDbVisualStyle
  2
Thicken
 70
    13
177
     3
291
     1
 70
    58
 90
        2
176
     1
 90
        2
176
     1
 90
        0
176
     1
 90
        0
176
     1
 40
0.6
176
     1
 40
30.0
176
     1
 62
     7
420
 16777215
176
     1
 90
        1
176
     1
 90
        4
176
     1
 62
     7
176
     1
 62
   257
176
     1
 90
        1
176
     1
 90
        1
176
     1
 40
1.0
176
     1
 90
       12
176
     1
 62
     7
176
     1
 40
1.0
176
     1
 90
        1
176
     1
 90
        6
176
     1
 90
        2
176
     1
 62
     7
176
     1
 90
        5
176
     1
 90
        0
176
     1
 90
        0
176
     1
290
     0
176
     1
 90
        1
176
     1
 40
0.0
176
     1
 90
        0
176
     1
290
     0
176
     1
290
     1
176
     1
290
     1
176
     1
290
     0
176
     1
290
     0
176
     1
290
     0
176
     1
290
     0
176
     1
290
     0
176
     1
290
     0
176
     1
 90
       50
176
     1
 40
0.0
176
     1
 40
1.0
176
     1
 90
        0
176
     1
 62
    18
420
        0
176
     1
 90
       50
176
     1
 90
        3
176
     1
 62
     5
420
      255
176
     1
290
     0
176
     1
 90
       50
176
     1
 90
       50
176
     1
 90
       50
176
     1
290
     0
176
     1
 90
       50
176
     1
 62
   256
176
     0
 40
1.0
176
     0
 90
        2
176
     1
  1
strokes_ogs.tif
176
     1
290
     0
176
     1
 40
1.0
176
     1
 40
1.0
176
     1
  0
VISUALSTYLE
  5
30
102
{ACAD_REACTORS
330
29
102
}
330
29
100
AcDbVisualStyle
  2
Wireframe
 70
     5
177
     3
291
     0
 70
    58
 90
        0
176
     1
 90
        2
176
     1
 90
        0
176
     1
 90
        0
176
     1
 40
0.6
176
     1
 40
30.0
176
     1
 62
     7
420
 16777215
176
     1
 90
        1
176
     1
 90
        4
176
     1
 62
     7
176
     1
 62
   257
176
     1
 90
        1
176
     1
 90
        1
176
     1
 40
1.0
176
     1
 90
        0
176
     1
 62
   257
176
     1
 40
1.0
176
     1
 90
        1
176
     1
 90
        6
176
     1
 90
        2
176
     1
 62
     7
176
     1
 90
        3
176
     1
 90
        0
176
     1
 90
        0
176
     1
290
     0
176
     1
 90
        1
176
     1
 40
0.0
176
     1
 90
        0
176
     1
290
     0
176
     1
290
     1
176
     1
290
     1
176
     1
290
     0
176
     1
290
     0
176
     1
290
     0
176
     1
290
     0
176
     1
290
     0
176
     1
290
     0
176
     1
 90
       50
176
     1
 40
0.0
176
     1
 40
1.0
176
     1
 90
        0
176
     1
 62
    18
420
        0
176
     1
 90
       50
176
     1
 90
        3
176
     1
 62
     5
420
      255
176
     1
290
     0
176
     1
 90
       50
176
     1
 90
       50
176
     1
 90
       50
176
     1
290
     0
176
     1
 90
       50
176
     1
 62
   256
176
     0
 40
1.0
176
     0
 90
        2
176
     1
  1
strokes_ogs.tif
176
     1
290
     0
176
     1
 40
1.0
176
     1
 40
1.0
176
     1
  0
VISUALSTYLE
  5
3C
102
{ACAD_REACTORS
330
29
102
}
330
29
100
AcDbVisualStyle
  2
X-Ray
 70
    25
177
     3
291
     0
 70
    58
 90
        2
176
     1
 90
        2
176
     1
 90
        1
176
     1
 90
        1
176
     1
 40
0.5
176
     1
 40
30.0
176
     1
 62
     7
420
 16777215
176
     1
 90
        1
176
     1
 90
        0
176
     1
 62
     7
176
     1
 62
   257
176
     1
 90
        1
176
     1
 90
        1
176
     1
 40
1.0
176
     1
 90
        8
176
     1
 62
     7
176
     1
 40
1.0
176
     1
 90
        1
176
     1
 90
        6
176
     1
 90
        2
176
     1
 62
     7
176
     1
 90
        3
176
     1
 90
        0
176
     1
 90
        0
176
     1
290
     0
176
     1
 90
       13
176
     1
 40
0.0
176
     1
 90
        0
176
     1
290
     0
176
     1
290
     1
176
     1
290
     1
176
     1
290
     0
176
     1
290
     0
176
     1
290
     0
176
     1
290
     0
176
     1
290
     0
176
     1
290
     0
176
     1
 90
       50
176
     1
 40
0.0
176
     1
 40
1.0
176
     1
 90
        0
176
     1
 62
    18
420
        0
176
     1
 90
       50
176
     1
 90
        3
176
     1
 62
     5
420
      255
176
     1
290
     0
176
     1
 90
       50
176
     1
 90
       50
176
     1
 90
       50
176
     1
290
     0
176
     1
 90
       50
176
     1
 62
   256
176
     0
 40
1.0
176
     0
 90
        2
176
     1
  1
strokes_ogs.tif
176
     1
290
     0
176
     1
 40
1.0
176
     1
 40
1.0
176
     1
  0
DICTIONARYVAR
  5
4E8
102
{ACAD_REACTORS
330
4E3
102
}
330
4E3
100
DictionaryVariables
280
     0
  1
1:1
  0
DICTIONARYVAR
  5
4E5
102
{ACAD_REACTORS
330
4E3
102
}
330
4E3
100
DictionaryVariables
280
     0
  1
STANDARD
  0
DICTIONARYVAR
  5
4E4
102
{ACAD_REACTORS
330
4E3
102
}
330
4E3
100
DictionaryVariables
280
     0
  1
STANDARD
  0
DICTIONARYVAR
  5
4E6
102
{ACAD_REACTORS
330
4E3
102
}
330
4E3
100
DictionaryVariables
280
     0
  1
Imperial24
  0
DICTIONARYVAR
  5
4E7
102
{ACAD_REACTORS
330
4E3
102
}
330
4E3
100
DictionaryVariables
280
     0
  1
Imperial24
  0
DICTIONARY
  5
1A
330
19
100
AcDbDictionary
280
     1
281
     1
  3
BUMPTILE
360
1C
  3
DIFFUSETILE
360
1B
  3
OPACITYTILE
360
1F
  3
REFLECTIONTILE
360
1E
  3
REFRACTIONTILE
360
20
  3
SPECULARTILE
360
1D
  0
DICTIONARY
  5
12
330
11
100
AcDbDictionary
280
     1
281
     1
  3
BUMPTILE
360
14
  3
DIFFUSETILE
360
13
  3
OPACITYTILE
360
17
  3
REFLECTIONTILE
360
16
  3
REFRACTIONTILE
360
18
  3
SPECULARTILE
360
15
  0
DICTIONARY
  5
22
330
21
100
AcDbDictionary
280
     1
281
     1
  3
BUMPTILE
360
24
  3
DIFFUSETILE
360
23
  3
OPACITYTILE
360
27
  3
REFLECTIONTILE
360
26
  3
REFRACTIONTILE
360
28
  3
SPECULARTILE
360
25
  0
DICTIONARY
  5
4E9
330
65
100
AcDbDictionary
280
     1
281
     1
  3
ACAD_ROUNDTRIP_2008_TABLESTYLE_CELLSTYLEMAP
360
4EA
  0
XRECORD
  5
1C
102
{ACAD_REACTORS
330
1A
102
}
330
1A
100
AcDbXrecord
280
     1
270
     1
271
     1
  0
XRECORD
  5
1B
102
{ACAD_REACTORS
330
1A
102
}
330
1A
100
AcDbXrecord
280
     1
270
     1
271
     1
  0
XRECORD
  5
1F
102
{ACAD_REACTORS
330
1A
102
}
330
1A
100
AcDbXrecord
280
     1
270
     1
271
     1
  0
XRECORD
  5
1E
102
{ACAD_REACTORS
330
1A
102
}
330
1A
100
AcDbXrecord
280
     1
270
     1
271
     1
  0
XRECORD
  5
20
102
{ACAD_REACTORS
330
1A
102
}
330
1A
100
AcDbXrecord
280
     1
270
     1
271
     1
  0
XRECORD
  5
1D
102
{ACAD_REACTORS
330
1A
102
}
330
1A
100
AcDbXrecord
280
     1
270
     1
271
     1
  0
XRECORD
  5
14
102
{ACAD_REACTORS
330
12
102
}
330
12
100
AcDbXrecord
280
     1
270
     1
271
     1
  0
XRECORD
  5
13
102
{ACAD_REACTORS
330
12
102
}
330
12
100
AcDbXrecord
280
     1
270
     1
271
     1
  0
XRECORD
  5
17
102
{ACAD_REACTORS
330
12
102
}
330
12
100
AcDbXrecord
280
     1
270
     1
271
     1
  0
XRECORD
  5
16
102
{ACAD_REACTORS
330
12
102
}
330
12
100
AcDbXrecord
280
     1
270
     1
271
     1
  0
XRECORD
  5
18
102
{ACAD_REACTORS
330
12
102
}
330
12
100
AcDbXrecord
280
     1
270
     1
271
     1
  0
XRECORD
  5
15
102
{ACAD_REACTORS
330
12
102
}
330
12
100
AcDbXrecord
280
     1
270
     1
271
     1
  0
XRECORD
  5
24
102
{ACAD_REACTORS
330
22
102
}
330
22
100
AcDbXrecord
280
     1
270
     1
271
     1
  0
XRECORD
  5
23
102
{ACAD_REACTORS
330
22
102
}
330
22
100
AcDbXrecord
280
     1
270
     1
271
     1
  0
XRECORD
  5
27
102
{ACAD_REACTORS
330
22
102
}
330
22
100
AcDbXrecord
280
     1
270
     1
271
     1
  0
XRECORD
  5
26
102
{ACAD_REACTORS
330
22
102
}
330
22
100
AcDbXrecord
280
     1
270
     1
271
     1
  0
XRECORD
  5
28
102
{ACAD_REACTORS
330
22
102
}
330
22
100
AcDbXrecord
280
     1
270
     1
271
     1
  0
XRECORD
  5
25
102
{ACAD_REACTORS
330
22
102
}
330
22
100
AcDbXrecord
280
     1
270
     1
271
     1
  0
CELLSTYLEMAP
  5
4EA
102
{ACAD_REACTORS
330
4E9
102
}
330
4E9
100
AcDbCellStyleMap
 90
        3
300
CELLSTYLE
  1
TABLEFORMAT_BEGIN
 90
        5
170
     1
 91
        0
 92
    32768
 62
   257
 93
        1
300
CONTENTFORMAT
  1
CONTENTFORMAT_BEGIN
 90
        0
 91
        0
 92
      512
 93
        0
300

 40
0.0
140
1.0
 94
        5
 62
     0
340
55
144
0.25
309
CONTENTFORMAT_END
171
     0
 94
        0
309
TABLEFORMAT_END
  1
CELLSTYLE_BEGIN
 90
        1
 91
        1
300
_TITLE
309
CELLSTYLE_END
300
CELLSTYLE
  1
TABLEFORMAT_BEGIN
 90
        5
170
     1
 91
        0
 92
        0
 62
   257
 93
        1
300
CONTENTFORMAT
  1
CONTENTFORMAT_BEGIN
 90
        0
 91
        0
 92
      512
 93
        0
300

 40
0.0
140
1.0
 94
        5
 62
     0
340
55
144
0.18
309
CONTENTFORMAT_END
171
     0
 94
        0
309
TABLEFORMAT_END
  1
CELLSTYLE_BEGIN
 90
        2
 91
        1
300
_HEADER
309
CELLSTYLE_END
300
CELLSTYLE
  1
TABLEFORMAT_BEGIN
 90
        5
170
     1
 91
        0
 92
        0
 62
   257
 93
        1
300
CONTENTFORMAT
  1
CONTENTFORMAT_BEGIN
 90
        0
 91
        0
 92
      512
 93
        0
300

 40
0.0
140
1.0
 94
        2
 62
     0
340
55
144
0.18
309
CONTENTFORMAT_END
171
     0
 94
        0
309
TABLEFORMAT_END
  1
CELLSTYLE_BEGIN
 90
        3
 91
        2
300
_DATA
309
CELLSTYLE_END
  0
ENDSEC
  0
EOF
