  0
SECTION
  2
HEADER
  9
$ACADVER
  1
AC1014
  9
$ACADMAINTVER
 70
     9
  9
$DWGCODEPAGE
  3
ANSI_1252
  9
$INSBASE
 10
0.0
 20
0.0
 30
0.0
  9
$EXTMIN
 10
1.000000000000000E+20
 20
1.000000000000000E+20
 30
1.000000000000000E+20
  9
$EXTMAX
 10
-1.000000000000000E+20
 20
-1.000000000000000E+20
 30
-1.000000000000000E+20
  9
$LIMMIN
 10
0.0
 20
0.0
  9
$LIMMAX
 10
12.0
 20
9.0
  9
$ORTHOMODE
 70
     0
  9
$REGENMODE
 70
     1
  9
$FILLMODE
 70
     1
  9
$QTEXTMODE
 70
     0
  9
$MIRRTEXT
 70
     1
  9
$DRAGMODE
 70
     2
  9
$LTSCALE
 40
1.0
  9
$OSMODE
 70
    37
  9
$ATTMODE
 70
     1
  9
$TEXTSIZE
 40
0.2
  9
$TRACEWID
 40
0.05
  9
$TEXTSTYLE
  7
STANDARD
  9
$CLAYER
  8
NEGATIVO
  9
$CELTYPE
  6
BYLAYER
  9
$CECOLOR
 62
   256
  9
$CELTSCALE
 40
1.0
  9
$DELOBJ
 70
     1
  9
$DISPSILH
 70
     0
  9
$DIMSCALE
 40
1.0
  9
$DIMASZ
 40
0.18
  9
$DIMEXO
 40
0.0625
  9
$DIMDLI
 40
0.38
  9
$DIMRND
 40
0.0
  9
$DIMDLE
 40
0.0
  9
$DIMEXE
 40
0.18
  9
$DIMTP
 40
0.0
  9
$DIMTM
 40
0.0
  9
$DIMTXT
 40
0.18
  9
$DIMCEN
 40
0.09
  9
$DIMTSZ
 40
0.0
  9
$DIMTOL
 70
     0
  9
$DIMLIM
 70
     0
  9
$DIMTIH
 70
     1
  9
$DIMTOH
 70
     1
  9
$DIMSE1
 70
     0
  9
$DIMSE2
 70
     0
  9
$DIMTAD
 70
     0
  9
$DIMZIN
 70
     0
  9
$DIMBLK
  1

  9
$DIMASO
 70
     1
  9
$DIMSHO
 70
     1
  9
$DIMPOST
  1

  9
$DIMAPOST
  1

  9
$DIMALT
 70
     0
  9
$DIMALTD
 70
     2
  9
$DIMALTF
 40
25.4
  9
$DIMLFAC
 40
1.0
  9
$DIMTOFL
 70
     0
  9
$DIMTVP
 40
0.0
  9
$DIMTIX
 70
     0
  9
$DIMSOXD
 70
     0
  9
$DIMSAH
 70
     0
  9
$DIMBLK1
  1

  9
$DIMBLK2
  1

  9
$DIMSTYLE
  2
STANDARD_ACAD
  9
$DIMCLRD
 70
     0
  9
$DIMCLRE
 70
     0
  9
$DIMCLRT
 70
     0
  9
$DIMTFAC
 40
1.0
  9
$DIMGAP
 40
0.09
  9
$DIMJUST
 70
     0
  9
$DIMSD1
 70
     0
  9
$DIMSD2
 70
     0
  9
$DIMTOLJ
 70
     1
  9
$DIMTZIN
 70
     0
  9
$DIMALTZ
 70
     0
  9
$DIMALTTZ
 70
     0
  9
$DIMFIT
 70
     5
  9
$DIMUPT
 70
     0
  9
$DIMUNIT
 70
     2
  9
$DIMDEC
 70
     4
  9
$DIMTDEC
 70
     4
  9
$DIMALTU
 70
     2
  9
$DIMALTTD
 70
     2
  9
$DIMTXSTY
  7
STANDARD
  9
$DIMAUNIT
 70
     0
  9
$LUNITS
 70
     2
  9
$LUPREC
 70
     3
  9
$SKETCHINC
 40
0.1
  9
$FILLETRAD
 40
0.5
  9
$AUNITS
 70
     0
  9
$AUPREC
 70
     0
  9
$MENU
  1
.
  9
$ELEVATION
 40
0.0
  9
$PELEVATION
 40
0.0
  9
$THICKNESS
 40
0.0
  9
$LIMCHECK
 70
     0
  9
$CHAMFERA
 40
0.0
  9
$CHAMFERB
 40
0.0
  9
$CHAMFERC
 40
0.0
  9
$CHAMFERD
 40
0.0
  9
$SKPOLY
 70
     0
  9
$TDCREATE
 40
2459944.470341146
  9
$TDUPDATE
 40
2459944.470369121
  9
$TDINDWG
 40
0.0000000116
  9
$TDUSRTIMER
 40
0.0000000116
  9
$USRTIMER
 70
     1
  9
$ANGBASE
 50
0.0
  9
$ANGDIR
 70
     0
  9
$PDMODE
 70
     0
  9
$PDSIZE
 40
0.0
  9
$PLINEWID
 40
0.0
  9
$COORDS
 70
     1
  9
$SPLFRAME
 70
     0
  9
$SPLINETYPE
 70
     6
  9
$SPLINESEGS
 70
     8
  9
$ATTDIA
 70
     0
  9
$ATTREQ
 70
     1
  9
$HANDLING
 70
     1
  9
$HANDSEED
  5
1C9
  9
$SURFTAB1
 70
     6
  9
$SURFTAB2
 70
     6
  9
$SURFTYPE
 70
     6
  9
$SURFU
 70
     6
  9
$SURFV
 70
     6
  9
$UCSNAME
  2

  9
$UCSORG
 10
0.0
 20
0.0
 30
0.0
  9
$UCSXDIR
 10
1.0
 20
0.0
 30
0.0
  9
$UCSYDIR
 10
0.0
 20
1.0
 30
0.0
  9
$PUCSNAME
  2

  9
$PUCSORG
 10
0.0
 20
0.0
 30
0.0
  9
$PUCSXDIR
 10
1.0
 20
0.0
 30
0.0
  9
$PUCSYDIR
 10
0.0
 20
1.0
 30
0.0
  9
$USERI1
 70
     0
  9
$USERI2
 70
     0
  9
$USERI3
 70
     0
  9
$USERI4
 70
     0
  9
$USERI5
 70
     0
  9
$USERR1
 40
0.0
  9
$USERR2
 40
0.0
  9
$USERR3
 40
0.0
  9
$USERR4
 40
0.0
  9
$USERR5
 40
0.0
  9
$WORLDVIEW
 70
     1
  9
$SHADEDGE
 70
     3
  9
$SHADEDIF
 70
    70
  9
$TILEMODE
 70
     1
  9
$MAXACTVP
 70
    64
  9
$PINSBASE
 10
0.0
 20
0.0
 30
0.0
  9
$PLIMCHECK
 70
     0
  9
$PEXTMIN
 10
1.000000000000000E+20
 20
1.000000000000000E+20
 30
1.000000000000000E+20
  9
$PEXTMAX
 10
-1.000000000000000E+20
 20
-1.000000000000000E+20
 30
-1.000000000000000E+20
  9
$PLIMMIN
 10
0.0
 20
0.0
  9
$PLIMMAX
 10
12.0
 20
9.0
  9
$UNITMODE
 70
     0
  9
$VISRETAIN
 70
     1
  9
$PLINEGEN
 70
     0
  9
$PSLTSCALE
 70
     1
  9
$TREEDEPTH
 70
  3020
  9
$PICKSTYLE
 70
     1
  9
$CMLSTYLE
  2
STANDARD
  9
$CMLJUST
 70
     0
  9
$CMLSCALE
 40
1.0
  9
$PROXYGRAPHICS
 70
     1
  9
$MEASUREMENT
 70
     0
  0
ENDSEC
  0
SECTION
  2
CLASSES
  0
CLASS
  1
ACDBDICTIONARYWDFLT
  2
AcDbDictionaryWithDefault
  3
ObjectDBX Classes
 90
        0
280
     0
281
     0
  0
CLASS
  1
VISUALSTYLE
  2
AcDbVisualStyle
  3
ObjectDBX Classes
 90
     4095
280
     0
281
     0
  0
CLASS
  1
MATERIAL
  2
AcDbMaterial
  3
ObjectDBX Classes
 90
     1153
280
     0
281
     0
  0
CLASS
  1
SCALE
  2
AcDbScale
  3
ObjectDBX Classes
 90
     1153
280
     0
281
     0
  0
CLASS
  1
TABLESTYLE
  2
AcDbTableStyle
  3
ObjectDBX Classes
 90
     4095
280
     0
281
     0
  0
CLASS
  1
MLEADERSTYLE
  2
AcDbMLeaderStyle
  3
ACDB_MLEADERSTYLE_CLASS
 90
     4095
280
     0
281
     0
  0
CLASS
  1
SUN
  2
AcDbSun
  3
SCENEOE
 90
     1153
280
     0
281
     0
  0
CLASS
  1
DICTIONARYVAR
  2
AcDbDictionaryVar
  3
ObjectDBX Classes
 90
        0
280
     0
281
     0
  0
CLASS
  1
XRECORD
  2
AcDbXrecord
  3
ObjectDBX Classes
 90
        0
280
     0
281
     0
  0
CLASS
  1
LWPOLYLINE
  2
AcDbPolyline
  3
ObjectDBX Classes
 90
        0
280
     0
281
     1
  0
CLASS
  1
HATCH
  2
AcDbHatch
  3
ObjectDBX Classes
 90
        0
280
     0
281
     1
  0
CLASS
  1
ACDBPLACEHOLDER
  2
AcDbPlaceHolder
  3
ObjectDBX Classes
 90
        0
280
     0
281
     0
  0
CLASS
  1
LAYOUT
  2
AcDbLayout
  3
ObjectDBX Classes
 90
        0
280
     0
281
     0
  0
ENDSEC
  0
SECTION
  2
TABLES
  0
TABLE
  2
VPORT
  5
8
102
{ACAD_XDICTIONARY
360
1BE
102
}
330
0
100
AcDbSymbolTable
 70
     1
  0
VPORT
  5
29
330
8
100
AcDbSymbolTableRecord
100
AcDbViewportTableRecord
  2
*ACTIVE
 70
     0
 10
0.0
 20
0.0
 11
1.0
 21
1.0
 12
10.42990654205607
 22
4.5
 13
0.0
 23
0.0
 14
0.5
 24
0.5
 15
0.5
 25
0.5
 16
0.0
 26
0.0
 36
1.0
 17
0.0
 27
0.0
 37
0.0
 40
9.0
 41
1.972972972850329
 42
50.0
 43
0.0
 44
0.0
 50
0.0
 51
0.0
 71
     0
 72
   100
 73
     1
 74
     3
 75
     0
 76
     0
 77
     0
 78
     0
  0
ENDTAB
  0
TABLE
  2
LTYPE
  5
5
330
0
100
AcDbSymbolTable
 70
     1
  0
LTYPE
  5
14
330
5
100
AcDbSymbolTableRecord
100
AcDbLinetypeTableRecord
  2
BYBLOCK
 70
     0
  3

 72
    65
 73
     0
 40
0.0
  0
LTYPE
  5
15
330
5
100
AcDbSymbolTableRecord
100
AcDbLinetypeTableRecord
  2
BYLAYER
 70
     0
  3

 72
    65
 73
     0
 40
0.0
  0
LTYPE
  5
16
330
5
100
AcDbSymbolTableRecord
100
AcDbLinetypeTableRecord
  2
CONTINUOUS
 70
     0
  3
Solid line
 72
    65
 73
     0
 40
0.0
  0
ENDTAB
  0
TABLE
  2
LAYER
  5
2
330
0
100
AcDbSymbolTable
 70
     5
  0
LAYER
  5
10
330
2
100
AcDbSymbolTableRecord
100
AcDbLayerTableRecord
  2
0
 70
     0
 62
     7
  6
CONTINUOUS
  0
LAYER
  5
6E
330
2
100
AcDbSymbolTableRecord
100
AcDbLayerTableRecord
  2
3
 70
     0
 62
    96
  6
CONTINUOUS
  0
LAYER
  5
C4
330
2
100
AcDbSymbolTableRecord
100
AcDbLayerTableRecord
  2
12
 70
     0
 62
     5
  6
CONTINUOUS
  0
LAYER
  5
11A
330
2
100
AcDbSymbolTableRecord
100
AcDbLayerTableRecord
  2
13
 70
     0
 62
     1
  6
CONTINUOUS
  0
LAYER
  5
16C
330
2
100
AcDbSymbolTableRecord
100
AcDbLayerTableRecord
  2
NEGATIVO
 70
     0
 62
    18
  6
CONTINUOUS
  0
ENDTAB
  0
TABLE
  2
STYLE
  5
3
330
0
100
AcDbSymbolTable
 70
     1
  0
STYLE
  5
11
330
3
100
AcDbSymbolTableRecord
100
AcDbTextStyleTableRecord
  2
STANDARD
 70
     0
 40
0.0
 41
1.0
 50
0.0
 71
     0
 42
0.2
  3
txt
  4

  0
ENDTAB
  0
TABLE
  2
VIEW
  5
6
330
0
100
AcDbSymbolTable
 70
     0
  0
ENDTAB
  0
TABLE
  2
UCS
  5
7
330
0
100
AcDbSymbolTable
 70
     0
  0
ENDTAB
  0
TABLE
  2
APPID
  5
9
330
0
100
AcDbSymbolTable
 70
     2
  0
APPID
  5
12
330
9
100
AcDbSymbolTableRecord
100
AcDbRegAppTableRecord
  2
ACAD
 70
     0
  0
APPID
  5
1C8
330
9
100
AcDbSymbolTableRecord
100
AcDbRegAppTableRecord
  2
ACAD_MLEADERVER
 70
     0
  0
ENDTAB
  0
TABLE
  2
DIMSTYLE
  5
A
330
0
100
AcDbSymbolTable
 70
     1
  0
DIMSTYLE
105
27
330
A
100
AcDbSymbolTableRecord
100
AcDbDimStyleTableRecord
  2
STANDARD_ACAD
 70
     0
  3

  4

  5

  6

  7

 40
1.0
 41
0.18
 42
0.0625
 43
0.38
 44
0.18
 45
0.0
 46
0.0
 47
0.0
 48
0.0
140
0.18
141
0.09
142
0.0
143
25.4
144
1.0
145
0.0
146
1.0
147
0.09
 71
     0
 72
     0
 73
     1
 74
     1
 75
     0
 76
     0
 77
     0
 78
     0
170
     0
171
     2
172
     0
173
     0
174
     0
175
     0
176
     0
177
     0
178
     0
270
     2
271
     4
272
     4
273
     2
274
     2
340
11
275
     0
280
     0
281
     0
282
     0
283
     1
284
     0
285
     0
286
     0
287
     3
288
     0
  0
ENDTAB
  0
TABLE
  2
BLOCK_RECORD
  5
1
330
0
100
AcDbSymbolTable
 70
     0
  0
BLOCK_RECORD
  5
1F
330
1
100
AcDbSymbolTableRecord
100
AcDbBlockTableRecord
  2
*MODEL_SPACE
  0
BLOCK_RECORD
  5
1B
330
1
100
AcDbSymbolTableRecord
100
AcDbBlockTableRecord
  2
*PAPER_SPACE
  0
ENDTAB
  0
ENDSEC
  0
SECTION
  2
BLOCKS
  0
BLOCK
  5
20
330
1F
100
AcDbEntity
  8
0
100
AcDbBlockBegin
  2
*MODEL_SPACE
 70
     0
 10
0.0
 20
0.0
 30
0.0
  3
*MODEL_SPACE
  1

  0
ENDBLK
  5
21
330
1F
100
AcDbEntity
  8
0
100
AcDbBlockEnd
  0
BLOCK
  5
1C
330
1B
100
AcDbEntity
 67
     1
  8
0
100
AcDbBlockBegin
  2
*PAPER_SPACE
 70
     0
 10
0.0
 20
0.0
 30
0.0
  3
*PAPER_SPACE
  1

  0
ENDBLK
  5
1D
330
1B
100
AcDbEntity
 67
     1
  8
0
100
AcDbBlockEnd
  0
ENDSEC
  0
SECTION
  2
ENTITIES
  0
POLYLINE
  5
6F
330
1F
100
AcDbEntity
  8
3
100
AcDb2dPolyline
 66
     1
 10
0.0
 20
0.0
 30
0.0
  0
VERTEX
  5
70
330
6F
100
AcDbEntity
  8
3
100
AcDbVertex
100
AcDb2dVertex
 10
156.871392317283
 20
-68.40294885106755
 30
0.0
  0
VERTEX
  5
71
330
6F
100
AcDbEntity
  8
3
100
AcDbVertex
100
AcDb2dVertex
 10
156.871392317283
 20
4.683163653442286
 30
0.0
 42
0.2350920765538537
  0
VERTEX
  5
72
330
6F
100
AcDbEntity
  8
3
100
AcDbVertex
100
AcDb2dVertex
 10
156.0773014612265
 20
6.278714698239369
 30
0.0
  0
VERTEX
  5
73
330
6F
100
AcDbEntity
  8
3
100
AcDbVertex
100
AcDb2dVertex
 10
154.3957741585558
 20
7.549604248714096
 30
0.0
 42
0.2917952270254873
  0
VERTEX
  5
74
330
6F
100
AcDbEntity
  8
3
100
AcDbVertex
100
AcDb2dVertex
 10
152.2513480384656
 20
7.720174911356061
 30
0.0
 42
-2.45100908533044
  0
VERTEX
  5
75
330
6F
100
AcDbEntity
  8
3
100
AcDbVertex
100
AcDb2dVertex
 10
153.0096694734883
 20
10.10732735828568
 30
0.0
 42
0.1146036413864218
  0
VERTEX
  5
76
330
6F
100
AcDbEntity
  8
3
100
AcDbVertex
100
AcDb2dVertex
 10
153.5894498833298
 20
9.41250536126176
 30
0.0
  0
VERTEX
  5
77
330
6F
100
AcDbEntity
  8
3
100
AcDbVertex
100
AcDb2dVertex
 10
156.9725510344165
 20
6.855575185768182
 30
0.0
 42
-0.2350920765537667
  0
VERTEX
  5
78
330
6F
100
AcDbEntity
  8
3
100
AcDbVertex
100
AcDb2dVertex
 10
157.7666418904728
 20
5.260024140971151
 30
0.0
  0
VERTEX
  5
79
330
6F
100
AcDbEntity
  8
3
100
AcDbVertex
100
AcDb2dVertex
 10
157.7666418904724
 20
-63.61042931937521
 30
0.0
 42
0.3324086572991036
  0
VERTEX
  5
7A
330
6F
100
AcDbEntity
  8
3
100
AcDbVertex
100
AcDb2dVertex
 10
159.2002518739764
 20
-65.52855401532521
 30
0.0
  0
SEQEND
  5
7B
330
6F
100
AcDbEntity
  8
3
  0
POLYLINE
  5
7C
330
1F
100
AcDbEntity
  8
3
100
AcDb2dPolyline
 66
     1
 10
0.0
 20
0.0
 30
0.0
  0
VERTEX
  5
7D
330
7C
100
AcDbEntity
  8
3
100
AcDbVertex
100
AcDb2dVertex
 10
159.2002518739764
 20
-65.52855401532521
 30
0.0
  0
VERTEX
  5
7E
330
7C
100
AcDbEntity
  8
3
100
AcDbVertex
100
AcDb2dVertex
 10
159.277535456306
 20
-65.53989230610998
 30
0.0
  0
VERTEX
  5
7F
330
7C
100
AcDbEntity
  8
3
100
AcDbVertex
100
AcDb2dVertex
 10
159.3547449996403
 20
-65.55273211944997
 30
0.0
  0
VERTEX
  5
80
330
7C
100
AcDbEntity
  8
3
100
AcDbVertex
100
AcDb2dVertex
 10
159.4316915540116
 20
-65.56709501492512
 30
0.0
  0
VERTEX
  5
81
330
7C
100
AcDbEntity
  8
3
100
AcDbVertex
100
AcDb2dVertex
 10
159.5081788522118
 20
-65.58299610621162
 30
0.0
  0
VERTEX
  5
82
330
7C
100
AcDbEntity
  8
3
100
AcDbVertex
100
AcDb2dVertex
 10
159.5840045147617
 20
-65.60044358013468
 30
0.0
  0
VERTEX
  5
83
330
7C
100
AcDbEntity
  8
3
100
AcDbVertex
100
AcDb2dVertex
 10
159.6589614085284
 20
-65.61943827066
 30
0.0
  0
VERTEX
  5
84
330
7C
100
AcDbEntity
  8
3
100
AcDbVertex
100
AcDb2dVertex
 10
159.7328391464072
 20
-65.63997329929528
 30
0.0
  0
VERTEX
  5
85
330
7C
100
AcDbEntity
  8
3
100
AcDbVertex
100
AcDb2dVertex
 10
159.8054257111531
 20
-65.66203379273638
 30
0.0
  0
VERTEX
  5
86
330
7C
100
AcDbEntity
  8
3
100
AcDbVertex
100
AcDb2dVertex
 10
159.8765091822461
 20
-65.68559668757015
 30
0.0
  0
VERTEX
  5
87
330
7C
100
AcDbEntity
  8
3
100
AcDbVertex
100
AcDb2dVertex
 10
159.9458795407905
 20
-65.71063063044139
 30
0.0
  0
VERTEX
  5
88
330
7C
100
AcDbEntity
  8
3
100
AcDbVertex
100
AcDb2dVertex
 10
160.0133305240429
 20
-65.73709598032505
 30
0.0
  0
VERTEX
  5
89
330
7C
100
AcDbEntity
  8
3
100
AcDbVertex
100
AcDb2dVertex
 10
160.0786614984128
 20
-65.76494491745896
 30
0.0
  0
VERTEX
  5
8A
330
7C
100
AcDbEntity
  8
3
100
AcDbVertex
100
AcDb2dVertex
 10
160.1416793178379
 20
-65.79412166114278
 30
0.0
  0
VERTEX
  5
8B
330
7C
100
AcDbEntity
  8
3
100
AcDbVertex
100
AcDb2dVertex
 10
160.2022001334161
 20
-65.82456279607366
 30
0.0
  0
VERTEX
  5
8C
330
7C
100
AcDbEntity
  8
3
100
AcDbVertex
100
AcDb2dVertex
 10
160.2314696813587
 20
-65.84023570959555
 30
0.0
  0
VERTEX
  5
8D
330
7C
100
AcDbEntity
  8
3
100
AcDbVertex
100
AcDb2dVertex
 10
160.2600511201796
 20
-65.85619770425575
 30
0.0
  0
VERTEX
  5
8E
330
7C
100
AcDbEntity
  8
3
100
AcDbVertex
100
AcDb2dVertex
 10
160.287924833617
 20
-65.87243891467304
 30
0.0
  0
VERTEX
  5
8F
330
7C
100
AcDbEntity
  8
3
100
AcDbVertex
100
AcDb2dVertex
 10
160.3150720879538
 20
-65.88894909688585
 30
0.0
  0
VERTEX
  5
90
330
7C
100
AcDbEntity
  8
3
100
AcDbVertex
100
AcDb2dVertex
 10
160.3414750738711
 20
-65.90571764984468
 30
0.0
  0
VERTEX
  5
91
330
7C
100
AcDbEntity
  8
3
100
AcDbVertex
100
AcDb2dVertex
 10
160.3671169453643
 20
-65.92273363808805
 30
0.0
  0
VERTEX
  5
92
330
7C
100
AcDbEntity
  8
3
100
AcDbVertex
100
AcDb2dVertex
 10
160.3919818555444
 20
-65.93998581549978
 30
0.0
  0
VERTEX
  5
93
330
7C
100
AcDbEntity
  8
3
100
AcDbVertex
100
AcDb2dVertex
 10
160.4160549891646
 20
-65.9574626500396
 30
0.0
  0
VERTEX
  5
94
330
7C
100
AcDbEntity
  8
3
100
AcDbVertex
100
AcDb2dVertex
 10
160.4393225917309
 20
-65.97515234933287
 30
0.0
  0
VERTEX
  5
95
330
7C
100
AcDbEntity
  8
3
100
AcDbVertex
100
AcDb2dVertex
 10
160.4617719950811
 20
-65.99304288700081
 30
0.0
  0
VERTEX
  5
96
330
7C
100
AcDbEntity
  8
3
100
AcDbVertex
100
AcDb2dVertex
 10
160.4833916393327
 20
-66.01112202960857
 30
0.0
  0
VERTEX
  5
97
330
7C
100
AcDbEntity
  8
3
100
AcDbVertex
100
AcDb2dVertex
 10
160.5041710911275
 20
-66.02937736410584
 30
0.0
  0
VERTEX
  5
98
330
7C
100
AcDbEntity
  8
3
100
AcDbVertex
100
AcDb2dVertex
 10
160.5241010581194
 20
-66.04779632563226
 30
0.0
  0
VERTEX
  5
99
330
7C
100
AcDbEntity
  8
3
100
AcDbVertex
100
AcDb2dVertex
 10
160.5431733996794
 20
-66.06636622556
 30
0.0
  0
VERTEX
  5
9A
330
7C
100
AcDbEntity
  8
3
100
AcDbVertex
100
AcDb2dVertex
 10
160.5613811338097
 20
-66.08507427964477
 30
0.0
  0
VERTEX
  5
9B
330
7C
100
AcDbEntity
  8
3
100
AcDbVertex
100
AcDb2dVertex
 10
160.5787184402858
 20
-66.10390763615882
 30
0.0
  0
VERTEX
  5
9C
330
7C
100
AcDbEntity
  8
3
100
AcDbVertex
100
AcDb2dVertex
 10
160.5951806600653
 20
-66.12285340388061
 30
0.0
  0
VERTEX
  5
9D
330
7C
100
AcDbEntity
  8
3
100
AcDbVertex
100
AcDb2dVertex
 10
160.6107642910229
 20
-66.14189867981929
 30
0.0
  0
VERTEX
  5
9E
330
7C
100
AcDbEntity
  8
3
100
AcDbVertex
100
AcDb2dVertex
 10
160.625466980095
 20
-66.1610305765557
 30
0.0
  0
VERTEX
  5
9F
330
7C
100
AcDbEntity
  8
3
100
AcDbVertex
100
AcDb2dVertex
 10
160.6392875119321
 20
-66.18023624908663
 30
0.0
  0
VERTEX
  5
A0
330
7C
100
AcDbEntity
  8
3
100
AcDbVertex
100
AcDb2dVertex
 10
160.6522257941801
 20
-66.19950292106387
 30
0.0
  0
VERTEX
  5
A1
330
7C
100
AcDbEntity
  8
3
100
AcDbVertex
100
AcDb2dVertex
 10
160.6642828395247
 20
-66.21881791032617
 30
0.0
  0
VERTEX
  5
A2
330
7C
100
AcDbEntity
  8
3
100
AcDbVertex
100
AcDb2dVertex
 10
160.6754607446504
 20
-66.23816865362843
 30
0.0
  0
VERTEX
  5
A3
330
7C
100
AcDbEntity
  8
3
100
AcDbVertex
100
AcDb2dVertex
 10
160.6807209654117
 20
-66.24785354543273
 30
0.0
  0
VERTEX
  5
A4
330
7C
100
AcDbEntity
  8
3
100
AcDbVertex
100
AcDb2dVertex
 10
160.6857626662809
 20
-66.25754273048034
 30
0.0
  0
VERTEX
  5
A5
330
7C
100
AcDbEntity
  8
3
100
AcDbVertex
100
AcDb2dVertex
 10
160.6905864030977
 20
-66.2672346822672
 30
0.0
  0
VERTEX
  5
A6
330
7C
100
AcDbEntity
  8
3
100
AcDbVertex
100
AcDb2dVertex
 10
160.6951927944754
 20
-66.2769278860132
 30
0.0
  0
VERTEX
  5
A7
330
7C
100
AcDbEntity
  8
3
100
AcDbVertex
100
AcDb2dVertex
 10
160.6995825208296
 20
-66.28662083931857
 30
0.0
  0
VERTEX
  5
A8
330
7C
100
AcDbEntity
  8
3
100
AcDbVertex
100
AcDb2dVertex
 10
160.7037563233714
 20
-66.29631205280263
 30
0.0
  0
VERTEX
  5
A9
330
7C
100
AcDbEntity
  8
3
100
AcDbVertex
100
AcDb2dVertex
 10
160.7077150030678
 20
-66.3060000507241
 30
0.0
  0
VERTEX
  5
AA
330
7C
100
AcDbEntity
  8
3
100
AcDbVertex
100
AcDb2dVertex
 10
160.7114594195688
 20
-66.31568337158286
 30
0.0
  0
VERTEX
  5
AB
330
7C
100
AcDbEntity
  8
3
100
AcDbVertex
100
AcDb2dVertex
 10
160.7149904901059
 20
-66.32536056870293
 30
0.0
  0
VERTEX
  5
AC
330
7C
100
AcDbEntity
  8
3
100
AcDbVertex
100
AcDb2dVertex
 10
160.7183091883597
 20
-66.33503021079589
 30
0.0
  0
VERTEX
  5
AD
330
7C
100
AcDbEntity
  8
3
100
AcDbVertex
100
AcDb2dVertex
 10
160.7214165433022
 20
-66.34469088250486
 30
0.0
  0
VERTEX
  5
AE
330
7C
100
AcDbEntity
  8
3
100
AcDbVertex
100
AcDb2dVertex
 10
160.7243136380127
 20
-66.3543411849287
 30
0.0
  0
VERTEX
  5
AF
330
7C
100
AcDbEntity
  8
3
100
AcDbVertex
100
AcDb2dVertex
 10
160.7270016084702
 20
-66.36397973612603
 30
0.0
  0
VERTEX
  5
B0
330
7C
100
AcDbEntity
  8
3
100
AcDbVertex
100
AcDb2dVertex
 10
160.7294816423242
 20
-66.37360517159902
 30
0.0
  0
VERTEX
  5
B1
330
7C
100
AcDbEntity
  8
3
100
AcDbVertex
100
AcDb2dVertex
 10
160.7317549776442
 20
-66.38321614475699
 30
0.0
  0
VERTEX
  5
B2
330
7C
100
AcDbEntity
  8
3
100
AcDbVertex
100
AcDb2dVertex
 10
160.7338229016515
 20
-66.3928113273591
 30
0.0
  0
VERTEX
  5
B3
330
7C
100
AcDbEntity
  8
3
100
AcDbVertex
100
AcDb2dVertex
 10
160.7356867494331
 20
-66.40238940993683
 30
0.0
  0
VERTEX
  5
B4
330
7C
100
AcDbEntity
  8
3
100
AcDbVertex
100
AcDb2dVertex
 10
160.7373479026411
 20
-66.41194910219544
 30
0.0
  0
VERTEX
  5
B5
330
7C
100
AcDbEntity
  8
3
100
AcDbVertex
100
AcDb2dVertex
 10
160.7388077881774
 20
-66.42148913339484
 30
0.0
  0
VERTEX
  5
B6
330
7C
100
AcDbEntity
  8
3
100
AcDbVertex
100
AcDb2dVertex
 10
160.7400678768672
 20
-66.43100825270987
 30
0.0
  0
VERTEX
  5
B7
330
7C
100
AcDbEntity
  8
3
100
AcDbVertex
100
AcDb2dVertex
 10
160.7411296821212
 20
-66.44050522956957
 30
0.0
  0
VERTEX
  5
B8
330
7C
100
AcDbEntity
  8
3
100
AcDbVertex
100
AcDb2dVertex
 10
160.7419947585896
 20
-66.44997885397612
 30
0.0
  0
VERTEX
  5
B9
330
7C
100
AcDbEntity
  8
3
100
AcDbVertex
100
AcDb2dVertex
 10
160.7426647008083
 20
-66.45942793680294
 30
0.0
  0
VERTEX
  5
BA
330
7C
100
AcDbEntity
  8
3
100
AcDbVertex
100
AcDb2dVertex
 10
160.7431411418391
 20
-66.46885131007261
 30
0.0
  0
VERTEX
  5
BB
330
7C
100
AcDbEntity
  8
3
100
AcDbVertex
100
AcDb2dVertex
 10
160.7434257519062
 20
-66.47824782721413
 30
0.0
  0
VERTEX
  5
BC
330
7C
100
AcDbEntity
  8
3
100
AcDbVertex
100
AcDb2dVertex
 10
160.7435202370295
 20
-66.48761636330025
 30
0.0
  0
VERTEX
  5
BD
330
7C
100
AcDbEntity
  8
3
100
AcDbVertex
100
AcDb2dVertex
 10
160.7435202370308
 20
-67.40294885106746
 30
0.0
 42
0.4142135623731616
  0
VERTEX
  5
BE
330
7C
100
AcDbEntity
  8
3
100
AcDbVertex
100
AcDb2dVertex
 10
161.7435202370309
 20
-68.40294885106758
 30
0.0
  0
VERTEX
  5
BF
330
7C
100
AcDbEntity
  8
3
100
AcDbVertex
100
AcDb2dVertex
 10
177.9678725140845
 20
-68.40294885106755
 30
0.0
  0
SEQEND
  5
C0
330
7C
100
AcDbEntity
  8
3
  0
LINE
  5
C1
330
1F
100
AcDbEntity
  8
3
100
AcDbLine
 10
177.9678725140845
 20
-68.40294885106755
 30
0.0
 11
177.9678725140845
 21
-69.40294885106755
 31
0.0
  0
LINE
  5
C2
330
1F
100
AcDbEntity
  8
3
100
AcDbLine
 10
177.9678725140845
 20
-69.40294885106755
 30
0.0
 11
156.871392317283
 21
-69.40294885106755
 31
0.0
  0
LINE
  5
C3
330
1F
100
AcDbEntity
  8
3
100
AcDbLine
 10
156.871392317283
 20
-69.40294885106755
 30
0.0
 11
156.871392317283
 21
-68.40294885106755
 31
0.0
  0
POLYLINE
  5
C5
330
1F
100
AcDbEntity
  8
12
100
AcDb2dPolyline
 66
     1
 10
0.0
 20
0.0
 30
0.0
  0
VERTEX
  5
C6
330
C5
100
AcDbEntity
  8
12
100
AcDbVertex
100
AcDb2dVertex
 10
159.889385486768
 20
-60.65094663602627
 30
0.0
  0
VERTEX
  5
C7
330
C5
100
AcDbEntity
  8
12
100
AcDbVertex
100
AcDb2dVertex
 10
159.8893854867682
 20
8.660735409855405
 30
0.0
 42
0.2405744641247698
  0
VERTEX
  5
C8
330
C5
100
AcDbEntity
  8
12
100
AcDbVertex
100
AcDb2dVertex
 10
159.0619208390295
 20
10.28097022237405
 30
0.0
  0
VERTEX
  5
C9
330
C5
100
AcDbEntity
  8
12
100
AcDbVertex
100
AcDb2dVertex
 10
154.1093890399531
 20
13.86503012082056
 30
0.0
 42
0.2727123874484521
  0
VERTEX
  5
CA
330
C5
100
AcDbEntity
  8
12
100
AcDbVertex
100
AcDb2dVertex
 10
152.0876740377547
 20
14.05556694551419
 30
0.0
 42
-2.297691725879773
  0
VERTEX
  5
CB
330
C5
100
AcDbEntity
  8
12
100
AcDbVertex
100
AcDb2dVertex
 10
152.8018670132116
 20
16.27521474682947
 30
0.0
 42
0.1086473704152993
  0
VERTEX
  5
CC
330
C5
100
AcDbEntity
  8
12
100
AcDbVertex
100
AcDb2dVertex
 10
153.3751223111206
 20
15.63079498122224
 30
0.0
  0
VERTEX
  5
CD
330
C5
100
AcDbEntity
  8
12
100
AcDbVertex
100
AcDb2dVertex
 10
159.9571704122191
 20
10.86748288028997
 30
0.0
 42
-0.2405744641247199
  0
VERTEX
  5
CE
330
C5
100
AcDbEntity
  8
12
100
AcDbVertex
100
AcDb2dVertex
 10
160.7846350599579
 20
9.247248067771263
 30
0.0
  0
VERTEX
  5
CF
330
C5
100
AcDbEntity
  8
12
100
AcDbVertex
100
AcDb2dVertex
 10
160.7846350599578
 20
-55.55510101145359
 30
0.0
 42
0.3324086572990924
  0
VERTEX
  5
D0
330
C5
100
AcDbEntity
  8
12
100
AcDbVertex
100
AcDb2dVertex
 10
162.2182450434623
 20
-57.47322570740376
 30
0.0
  0
SEQEND
  5
D1
330
C5
100
AcDbEntity
  8
12
  0
POLYLINE
  5
D2
330
1F
100
AcDbEntity
  8
12
100
AcDb2dPolyline
 66
     1
 10
0.0
 20
0.0
 30
0.0
  0
VERTEX
  5
D3
330
D2
100
AcDbEntity
  8
12
100
AcDbVertex
100
AcDb2dVertex
 10
162.2182450434623
 20
-57.47322570740376
 30
0.0
  0
VERTEX
  5
D4
330
D2
100
AcDbEntity
  8
12
100
AcDbVertex
100
AcDb2dVertex
 10
162.3017234029554
 20
-57.48456399818854
 30
0.0
  0
VERTEX
  5
D5
330
D2
100
AcDbEntity
  8
12
100
AcDbVertex
100
AcDb2dVertex
 10
162.3851217887507
 20
-57.49740381152856
 30
0.0
  0
VERTEX
  5
D6
330
D2
100
AcDbEntity
  8
12
100
AcDbVertex
100
AcDb2dVertex
 10
162.4682361053227
 20
-57.51176670700374
 30
0.0
  0
VERTEX
  5
D7
330
D2
100
AcDbEntity
  8
12
100
AcDbVertex
100
AcDb2dVertex
 10
162.5508543533819
 20
-57.52766779829026
 30
0.0
  0
VERTEX
  5
D8
330
D2
100
AcDbEntity
  8
12
100
AcDbVertex
100
AcDb2dVertex
 10
162.6327579314297
 20
-57.54511527221334
 30
0.0
  0
VERTEX
  5
D9
330
D2
100
AcDbEntity
  8
12
100
AcDbVertex
100
AcDb2dVertex
 10
162.7137231032777
 20
-57.56410996273869
 30
0.0
  0
VERTEX
  5
DA
330
D2
100
AcDbEntity
  8
12
100
AcDbVertex
100
AcDb2dVertex
 10
162.793522617939
 20
-57.58464499137398
 30
0.0
  0
VERTEX
  5
DB
330
D2
100
AcDbEntity
  8
12
100
AcDbVertex
100
AcDb2dVertex
 10
162.87192746362
 20
-57.60670548481507
 30
0.0
  0
VERTEX
  5
DC
330
D2
100
AcDbEntity
  8
12
100
AcDbVertex
100
AcDb2dVertex
 10
162.9487087330053
 20
-57.63026837964886
 30
0.0
  0
VERTEX
  5
DD
330
D2
100
AcDbEntity
  8
12
100
AcDbVertex
100
AcDb2dVertex
 10
163.0236395728315
 20
-57.65530232252009
 30
0.0
  0
VERTEX
  5
DE
330
D2
100
AcDbEntity
  8
12
100
AcDbVertex
100
AcDb2dVertex
 10
163.0964971870669
 20
-57.68176767240375
 30
0.0
  0
VERTEX
  5
DF
330
D2
100
AcDbEntity
  8
12
100
AcDbVertex
100
AcDb2dVertex
 10
163.167064860046
 20
-57.70961660953767
 30
0.0
  0
VERTEX
  5
E0
330
D2
100
AcDbEntity
  8
12
100
AcDbVertex
100
AcDb2dVertex
 10
163.2351339638047
 20
-57.73879335322147
 30
0.0
  0
VERTEX
  5
E1
330
D2
100
AcDbEntity
  8
12
100
AcDbVertex
100
AcDb2dVertex
 10
163.3005059127668
 20
-57.76923448815238
 30
0.0
  0
VERTEX
  5
E2
330
D2
100
AcDbEntity
  8
12
100
AcDbVertex
100
AcDb2dVertex
 10
163.3629940289293
 20
-57.80086939633443
 30
0.0
  0
VERTEX
  5
E3
330
D2
100
AcDbEntity
  8
12
100
AcDbVertex
100
AcDb2dVertex
 10
163.3931020001257
 20
-57.81711060675173
 30
0.0
  0
VERTEX
  5
E4
330
D2
100
AcDbEntity
  8
12
100
AcDbVertex
100
AcDb2dVertex
 10
163.4224252818432
 20
-57.83362078896453
 30
0.0
  0
VERTEX
  5
E5
330
D2
100
AcDbEntity
  8
12
100
AcDbVertex
100
AcDb2dVertex
 10
163.4509446372309
 20
-57.85038934192335
 30
0.0
  0
VERTEX
  5
E6
330
D2
100
AcDbEntity
  8
12
100
AcDbVertex
100
AcDb2dVertex
 10
163.4786418699686
 20
-57.8674053301667
 30
0.0
  0
VERTEX
  5
E7
330
D2
100
AcDbEntity
  8
12
100
AcDbVertex
100
AcDb2dVertex
 10
163.505499862937
 20
-57.88465750757844
 30
0.0
  0
VERTEX
  5
E8
330
D2
100
AcDbEntity
  8
12
100
AcDbVertex
100
AcDb2dVertex
 10
163.5315026133516
 20
-57.90213434211826
 30
0.0
  0
VERTEX
  5
E9
330
D2
100
AcDbEntity
  8
12
100
AcDbVertex
100
AcDb2dVertex
 10
163.5566352642074
 20
-57.91982404141152
 30
0.0
  0
VERTEX
  5
EA
330
D2
100
AcDbEntity
  8
12
100
AcDbVertex
100
AcDb2dVertex
 10
163.5808841319071
 20
-57.93771457907944
 30
0.0
  0
VERTEX
  5
EB
330
D2
100
AcDbEntity
  8
12
100
AcDbVertex
100
AcDb2dVertex
 10
163.6042367299693
 20
-57.95579372168721
 30
0.0
  0
VERTEX
  5
EC
330
D2
100
AcDbEntity
  8
12
100
AcDbVertex
100
AcDb2dVertex
 10
163.6266817887347
 20
-57.97404905618445
 30
0.0
  0
VERTEX
  5
ED
330
D2
100
AcDbEntity
  8
12
100
AcDbVertex
100
AcDb2dVertex
 10
163.6482092710161
 20
-57.99246801771086
 30
0.0
  0
VERTEX
  5
EE
330
D2
100
AcDbEntity
  8
12
100
AcDbVertex
100
AcDb2dVertex
 10
163.6688103836603
 20
-58.01103791763859
 30
0.0
  0
VERTEX
  5
EF
330
D2
100
AcDbEntity
  8
12
100
AcDbVertex
100
AcDb2dVertex
 10
163.6884775850175
 20
-58.02974597172335
 30
0.0
  0
VERTEX
  5
F0
330
D2
100
AcDbEntity
  8
12
100
AcDbVertex
100
AcDb2dVertex
 10
163.7072045883348
 20
-58.0485793282374
 30
0.0
  0
VERTEX
  5
F1
330
D2
100
AcDbEntity
  8
12
100
AcDbVertex
100
AcDb2dVertex
 10
163.7249863611173
 20
-58.0675250959592
 30
0.0
  0
VERTEX
  5
F2
330
D2
100
AcDbEntity
  8
12
100
AcDbVertex
100
AcDb2dVertex
 10
163.7418191205221
 20
-58.08657037189786
 30
0.0
  0
VERTEX
  5
F3
330
D2
100
AcDbEntity
  8
12
100
AcDbVertex
100
AcDb2dVertex
 10
163.7577003248719
 20
-58.10570226863425
 30
0.0
  0
VERTEX
  5
F4
330
D2
100
AcDbEntity
  8
12
100
AcDbVertex
100
AcDb2dVertex
 10
163.7726286613997
 20
-58.12490794116517
 30
0.0
  0
VERTEX
  5
F5
330
D2
100
AcDbEntity
  8
12
100
AcDbVertex
100
AcDb2dVertex
 10
163.7866040303483
 20
-58.14417461314243
 30
0.0
  0
VERTEX
  5
F6
330
D2
100
AcDbEntity
  8
12
100
AcDbVertex
100
AcDb2dVertex
 10
163.7996275255766
 20
-58.1634896024047
 30
0.0
  0
VERTEX
  5
F7
330
D2
100
AcDbEntity
  8
12
100
AcDbVertex
100
AcDb2dVertex
 10
163.8057829832283
 20
-58.17316128470019
 30
0.0
  0
VERTEX
  5
F8
330
D2
100
AcDbEntity
  8
12
100
AcDbVertex
100
AcDb2dVertex
 10
163.8117014118321
 20
-58.18284034570695
 30
0.0
  0
VERTEX
  5
F9
330
D2
100
AcDbEntity
  8
12
100
AcDbVertex
100
AcDb2dVertex
 10
163.817383273186
 20
-58.19252523751126
 30
0.0
  0
VERTEX
  5
FA
330
D2
100
AcDbEntity
  8
12
100
AcDbVertex
100
AcDb2dVertex
 10
163.82282909887
 20
-58.20221442255885
 30
0.0
  0
VERTEX
  5
FB
330
D2
100
AcDbEntity
  8
12
100
AcDbVertex
100
AcDb2dVertex
 10
163.8280394892783
 20
-58.21190637434571
 30
0.0
  0
VERTEX
  5
FC
330
D2
100
AcDbEntity
  8
12
100
AcDbVertex
100
AcDb2dVertex
 10
163.8330151126101
 20
-58.22159957809169
 30
0.0
  0
VERTEX
  5
FD
330
D2
100
AcDbEntity
  8
12
100
AcDbVertex
100
AcDb2dVertex
 10
163.8377567038203
 20
-58.23129253139707
 30
0.0
  0
VERTEX
  5
FE
330
D2
100
AcDbEntity
  8
12
100
AcDbVertex
100
AcDb2dVertex
 10
163.8422650635332
 20
-58.24098374488111
 30
0.0
  0
VERTEX
  5
FF
330
D2
100
AcDbEntity
  8
12
100
AcDbVertex
100
AcDb2dVertex
 10
163.8465410569182
 20
-58.25067174280257
 30
0.0
  0
VERTEX
  5
100
330
D2
100
AcDbEntity
  8
12
100
AcDbVertex
100
AcDb2dVertex
 10
163.850585612532
 20
-58.26035506366132
 30
0.0
  0
VERTEX
  5
101
330
D2
100
AcDbEntity
  8
12
100
AcDbVertex
100
AcDb2dVertex
 10
163.8543997211279
 20
-58.2700322607814
 30
0.0
  0
VERTEX
  5
102
330
D2
100
AcDbEntity
  8
12
100
AcDbVertex
100
AcDb2dVertex
 10
163.8579844344335
 20
-58.27970190287435
 30
0.0
  0
VERTEX
  5
103
330
D2
100
AcDbEntity
  8
12
100
AcDbVertex
100
AcDb2dVertex
 10
163.8613408638994
 20
-58.28936257458332
 30
0.0
  0
VERTEX
  5
104
330
D2
100
AcDbEntity
  8
12
100
AcDbVertex
100
AcDb2dVertex
 10
163.8644701794207
 20
-58.29901287700715
 30
0.0
  0
VERTEX
  5
105
330
D2
100
AcDbEntity
  8
12
100
AcDbVertex
100
AcDb2dVertex
 10
163.8673736080326
 20
-58.30865142820446
 30
0.0
  0
VERTEX
  5
106
330
D2
100
AcDbEntity
  8
12
100
AcDbVertex
100
AcDb2dVertex
 10
163.870052432582
 20
-58.31827686367744
 30
0.0
  0
VERTEX
  5
107
330
D2
100
AcDbEntity
  8
12
100
AcDbVertex
100
AcDb2dVertex
 10
163.872507990378
 20
-58.32788783683539
 30
0.0
  0
VERTEX
  5
108
330
D2
100
AcDbEntity
  8
12
100
AcDbVertex
100
AcDb2dVertex
 10
163.8747416718209
 20
-58.33748301943752
 30
0.0
  0
VERTEX
  5
109
330
D2
100
AcDbEntity
  8
12
100
AcDbVertex
100
AcDb2dVertex
 10
163.8767549190134
 20
-58.34706110201525
 30
0.0
  0
VERTEX
  5
10A
330
D2
100
AcDbEntity
  8
12
100
AcDbVertex
100
AcDb2dVertex
 10
163.878549224356
 20
-58.35662079427383
 30
0.0
  0
VERTEX
  5
10B
330
D2
100
AcDbEntity
  8
12
100
AcDbVertex
100
AcDb2dVertex
 10
163.880126129126
 20
-58.36616082547324
 30
0.0
  0
VERTEX
  5
10C
330
D2
100
AcDbEntity
  8
12
100
AcDbVertex
100
AcDb2dVertex
 10
163.8814872220447
 20
-58.37567994478824
 30
0.0
  0
VERTEX
  5
10D
330
D2
100
AcDbEntity
  8
12
100
AcDbVertex
100
AcDb2dVertex
 10
163.8826341378324
 20
-58.38517692164794
 30
0.0
  0
VERTEX
  5
10E
330
D2
100
AcDbEntity
  8
12
100
AcDbVertex
100
AcDb2dVertex
 10
163.8835685557546
 20
-58.39465054605446
 30
0.0
  0
VERTEX
  5
10F
330
D2
100
AcDbEntity
  8
12
100
AcDbVertex
100
AcDb2dVertex
 10
163.8842921981594
 20
-58.40409962888131
 30
0.0
  0
VERTEX
  5
110
330
D2
100
AcDbEntity
  8
12
100
AcDbVertex
100
AcDb2dVertex
 10
163.8848068290091
 20
-58.41352300215097
 30
0.0
  0
VERTEX
  5
111
330
D2
100
AcDbEntity
  8
12
100
AcDbVertex
100
AcDb2dVertex
 10
163.8851142524073
 20
-58.42291951929249
 30
0.0
  0
VERTEX
  5
112
330
D2
100
AcDbEntity
  8
12
100
AcDbVertex
100
AcDb2dVertex
 10
163.8852163111221
 20
-58.4322880553786
 30
0.0
  0
VERTEX
  5
113
330
D2
100
AcDbEntity
  8
12
100
AcDbVertex
100
AcDb2dVertex
 10
163.8852163111234
 20
-59.65094663602628
 30
0.0
 42
0.4142135623731129
  0
VERTEX
  5
114
330
D2
100
AcDbEntity
  8
12
100
AcDbVertex
100
AcDb2dVertex
 10
164.8852163111235
 20
-60.65094663602628
 30
0.0
  0
VERTEX
  5
115
330
D2
100
AcDbEntity
  8
12
100
AcDbVertex
100
AcDb2dVertex
 10
180.9858656835695
 20
-60.65094663602629
 30
0.0
  0
SEQEND
  5
116
330
D2
100
AcDbEntity
  8
12
  0
LINE
  5
117
330
1F
100
AcDbEntity
  8
12
100
AcDbLine
 10
180.9858656835695
 20
-60.65094663602629
 30
0.0
 11
180.9858656835695
 21
-61.65094663602629
 31
0.0
  0
LINE
  5
118
330
1F
100
AcDbEntity
  8
12
100
AcDbLine
 10
180.9858656835695
 20
-61.65094663602629
 30
0.0
 11
159.889385486768
 21
-61.65094663602629
 31
0.0
  0
LINE
  5
119
330
1F
100
AcDbEntity
  8
12
100
AcDbLine
 10
159.889385486768
 20
-61.65094663602629
 30
0.0
 11
159.889385486768
 21
-60.65094663602627
 31
0.0
  0
POLYLINE
  5
11B
330
1F
100
AcDbEntity
  8
13
100
AcDb2dPolyline
 66
     1
 10
0.0
 20
0.0
 30
0.0
  0
VERTEX
  5
11C
330
11B
100
AcDbEntity
  8
13
100
AcDbVertex
100
AcDb2dVertex
 10
162.6986645790695
 20
-50.96694446185898
 30
0.0
  0
VERTEX
  5
11D
330
11B
100
AcDbEntity
  8
13
100
AcDbVertex
100
AcDb2dVertex
 10
162.6986645790695
 20
16.6763902508809
 30
0.0
 42
0.2211247735573593
  0
VERTEX
  5
11E
330
11B
100
AcDbEntity
  8
13
100
AcDbVertex
100
AcDb2dVertex
 10
161.9875660348467
 20
18.20568192917367
 30
0.0
  0
VERTEX
  5
11F
330
11B
100
AcDbEntity
  8
13
100
AcDbVertex
100
AcDb2dVertex
 10
153.9715168958139
 20
24.9616837773072
 30
0.0
 42
0.2734137747245216
  0
VERTEX
  5
120
330
11B
100
AcDbEntity
  8
13
100
AcDbVertex
100
AcDb2dVertex
 10
151.9644984536403
 20
25.29902221605666
 30
0.0
 42
-2.213600335323359
  0
VERTEX
  5
121
330
11B
100
AcDbEntity
  8
13
100
AcDbVertex
100
AcDb2dVertex
 10
152.7680619891106
 20
27.46724118930423
 30
0.0
 42
0.0944763027478288
  0
VERTEX
  5
122
330
11B
100
AcDbEntity
  8
13
100
AcDbVertex
100
AcDb2dVertex
 10
153.2403270293768
 20
26.88573248892062
 30
0.0
  0
VERTEX
  5
123
330
11B
100
AcDbEntity
  8
13
100
AcDbVertex
100
AcDb2dVertex
 10
162.8828156080364
 20
18.75895213514016
 30
0.0
 42
-0.2211247735573645
  0
VERTEX
  5
124
330
11B
100
AcDbEntity
  8
13
100
AcDbVertex
100
AcDb2dVertex
 10
163.5939141522592
 20
17.22966045684743
 30
0.0
  0
VERTEX
  5
125
330
11B
100
AcDbEntity
  8
13
100
AcDbVertex
100
AcDb2dVertex
 10
163.5939141522589
 20
-46.00275369531881
 30
0.0
 42
0.3324086572991916
  0
VERTEX
  5
126
330
11B
100
AcDbEntity
  8
13
100
AcDbVertex
100
AcDb2dVertex
 10
165.0275241357631
 20
-47.92087839126875
 30
0.0
  0
SEQEND
  5
127
330
11B
100
AcDbEntity
  8
13
  0
POLYLINE
  5
128
330
1F
100
AcDbEntity
  8
13
100
AcDb2dPolyline
 66
     1
 10
0.0
 20
0.0
 30
0.0
  0
VERTEX
  5
129
330
128
100
AcDbEntity
  8
13
100
AcDbVertex
100
AcDb2dVertex
 10
165.0275241357631
 20
-47.92087839126876
 30
0.0
  0
VERTEX
  5
12A
330
128
100
AcDbEntity
  8
13
100
AcDbVertex
100
AcDb2dVertex
 10
165.0958302310063
 20
-47.93221668205352
 30
0.0
  0
VERTEX
  5
12B
330
128
100
AcDbEntity
  8
13
100
AcDbVertex
100
AcDb2dVertex
 10
165.1640708878407
 20
-47.94505649539353
 30
0.0
  0
VERTEX
  5
12C
330
128
100
AcDbEntity
  8
13
100
AcDbVertex
100
AcDb2dVertex
 10
165.2320791052795
 20
-47.9594193908687
 30
0.0
  0
VERTEX
  5
12D
330
128
100
AcDbEntity
  8
13
100
AcDbVertex
100
AcDb2dVertex
 10
165.299681415088
 20
-47.9753204821552
 30
0.0
  0
VERTEX
  5
12E
330
128
100
AcDbEntity
  8
13
100
AcDbVertex
100
AcDb2dVertex
 10
165.3666989467796
 20
-47.99276795607827
 30
0.0
  0
VERTEX
  5
12F
330
128
100
AcDbEntity
  8
13
100
AcDbVertex
100
AcDb2dVertex
 10
165.4329486284122
 20
-48.01176264660361
 30
0.0
  0
VERTEX
  5
130
330
128
100
AcDbEntity
  8
13
100
AcDbVertex
100
AcDb2dVertex
 10
165.498244512063
 20
-48.03229767523889
 30
0.0
  0
VERTEX
  5
131
330
128
100
AcDbEntity
  8
13
100
AcDbVertex
100
AcDb2dVertex
 10
165.5623992090304
 20
-48.05435816867998
 30
0.0
  0
VERTEX
  5
132
330
128
100
AcDbEntity
  8
13
100
AcDbVertex
100
AcDb2dVertex
 10
165.6252254161022
 20
-48.07792106351377
 30
0.0
  0
VERTEX
  5
133
330
128
100
AcDbEntity
  8
13
100
AcDbVertex
100
AcDb2dVertex
 10
165.6865375107924
 20
-48.10295500638501
 30
0.0
  0
VERTEX
  5
134
330
128
100
AcDbEntity
  8
13
100
AcDbVertex
100
AcDb2dVertex
 10
165.7461531904414
 20
-48.12942035626868
 30
0.0
  0
VERTEX
  5
135
330
128
100
AcDbEntity
  8
13
100
AcDbVertex
100
AcDb2dVertex
 10
165.8038951276436
 20
-48.15726929340259
 30
0.0
  0
VERTEX
  5
136
330
128
100
AcDbEntity
  8
13
100
AcDbVertex
100
AcDb2dVertex
 10
165.8595926127487
 20
-48.18644603708641
 30
0.0
  0
VERTEX
  5
137
330
128
100
AcDbEntity
  8
13
100
AcDbVertex
100
AcDb2dVertex
 10
165.8866235435201
 20
-48.2015128062197
 30
0.0
  0
VERTEX
  5
138
330
128
100
AcDbEntity
  8
13
100
AcDbVertex
100
AcDb2dVertex
 10
165.913083153281
 20
-48.21688717201731
 30
0.0
  0
VERTEX
  5
139
330
128
100
AcDbEntity
  8
13
100
AcDbVertex
100
AcDb2dVertex
 10
165.9389526648801
 20
-48.23256008553918
 30
0.0
  0
VERTEX
  5
13A
330
128
100
AcDbEntity
  8
13
100
AcDbVertex
100
AcDb2dVertex
 10
165.9642140001266
 20
-48.24852208019936
 30
0.0
  0
VERTEX
  5
13B
330
128
100
AcDbEntity
  8
13
100
AcDbVertex
100
AcDb2dVertex
 10
165.9888498214414
 20
-48.26476329061668
 30
0.0
  0
VERTEX
  5
13C
330
128
100
AcDbEntity
  8
13
100
AcDbVertex
100
AcDb2dVertex
 10
166.0128435712707
 20
-48.28127347282948
 30
0.0
  0
VERTEX
  5
13D
330
128
100
AcDbEntity
  8
13
100
AcDbVertex
100
AcDb2dVertex
 10
166.0361795090781
 20
-48.29804202578831
 30
0.0
  0
VERTEX
  5
13E
330
128
100
AcDbEntity
  8
13
100
AcDbVertex
100
AcDb2dVertex
 10
166.0588427457401
 20
-48.31505801403167
 30
0.0
  0
VERTEX
  5
13F
330
128
100
AcDbEntity
  8
13
100
AcDbVertex
100
AcDb2dVertex
 10
166.080819275189
 20
-48.33231019144341
 30
0.0
  0
VERTEX
  5
140
330
128
100
AcDbEntity
  8
13
100
AcDbVertex
100
AcDb2dVertex
 10
166.1020960031601
 20
-48.34978702598324
 30
0.0
  0
VERTEX
  5
141
330
128
100
AcDbEntity
  8
13
100
AcDbVertex
100
AcDb2dVertex
 10
166.1226607729219
 20
-48.36747672527651
 30
0.0
  0
VERTEX
  5
142
330
128
100
AcDbEntity
  8
13
100
AcDbVertex
100
AcDb2dVertex
 10
166.1425023878828
 20
-48.38536726294443
 30
0.0
  0
VERTEX
  5
143
330
128
100
AcDbEntity
  8
13
100
AcDbVertex
100
AcDb2dVertex
 10
166.1616106309904
 20
-48.40344640555221
 30
0.0
  0
VERTEX
  5
144
330
128
100
AcDbEntity
  8
13
100
AcDbVertex
100
AcDb2dVertex
 10
166.1799762808556
 20
-48.42170174004946
 30
0.0
  0
VERTEX
  5
145
330
128
100
AcDbEntity
  8
13
100
AcDbVertex
100
AcDb2dVertex
 10
166.1975911245587
 20
-48.44012070157589
 30
0.0
  0
VERTEX
  5
146
330
128
100
AcDbEntity
  8
13
100
AcDbVertex
100
AcDb2dVertex
 10
166.2144479671097
 20
-48.45869060150362
 30
0.0
  0
VERTEX
  5
147
330
128
100
AcDbEntity
  8
13
100
AcDbVertex
100
AcDb2dVertex
 10
166.2305406375602
 20
-48.47739865558839
 30
0.0
  0
VERTEX
  5
148
330
128
100
AcDbEntity
  8
13
100
AcDbVertex
100
AcDb2dVertex
 10
166.2458639917801
 20
-48.49623201210245
 30
0.0
  0
VERTEX
  5
149
330
128
100
AcDbEntity
  8
13
100
AcDbVertex
100
AcDb2dVertex
 10
166.2604139119348
 20
-48.51517777982425
 30
0.0
  0
VERTEX
  5
14A
330
128
100
AcDbEntity
  8
13
100
AcDbVertex
100
AcDb2dVertex
 10
166.2741873027164
 20
-48.53422305576292
 30
0.0
  0
VERTEX
  5
14B
330
128
100
AcDbEntity
  8
13
100
AcDbVertex
100
AcDb2dVertex
 10
166.2871820843998
 20
-48.55335495249933
 30
0.0
  0
VERTEX
  5
14C
330
128
100
AcDbEntity
  8
13
100
AcDbVertex
100
AcDb2dVertex
 10
166.2993971828143
 20
-48.57256062503026
 30
0.0
  0
VERTEX
  5
14D
330
128
100
AcDbEntity
  8
13
100
AcDbVertex
100
AcDb2dVertex
 10
166.3108325163338
 20
-48.59182729700751
 30
0.0
  0
VERTEX
  5
14E
330
128
100
AcDbEntity
  8
13
100
AcDbVertex
100
AcDb2dVertex
 10
166.3214889800074
 20
-48.6111422862698
 30
0.0
  0
VERTEX
  5
14F
330
128
100
AcDbEntity
  8
13
100
AcDbVertex
100
AcDb2dVertex
 10
166.3313684269626
 20
-48.63049302957207
 30
0.0
  0
VERTEX
  5
150
330
128
100
AcDbEntity
  8
13
100
AcDbVertex
100
AcDb2dVertex
 10
166.3404736472289
 20
-48.64986710642399
 30
0.0
  0
VERTEX
  5
151
330
128
100
AcDbEntity
  8
13
100
AcDbVertex
100
AcDb2dVertex
 10
166.348808344136
 20
-48.66925226195683
 30
0.0
  0
VERTEX
  5
152
330
128
100
AcDbEntity
  8
13
100
AcDbVertex
100
AcDb2dVertex
 10
166.3563771084551
 20
-48.68863642874626
 30
0.0
  0
VERTEX
  5
153
330
128
100
AcDbEntity
  8
13
100
AcDbVertex
100
AcDb2dVertex
 10
166.3631853904558
 20
-48.70800774752649
 30
0.0
  0
VERTEX
  5
154
330
128
100
AcDbEntity
  8
13
100
AcDbVertex
100
AcDb2dVertex
 10
166.3692394700588
 20
-48.72735458673952
 30
0.0
  0
VERTEX
  5
155
330
128
100
AcDbEntity
  8
13
100
AcDbVertex
100
AcDb2dVertex
 10
166.3719858655577
 20
-48.7370152584485
 30
0.0
  0
VERTEX
  5
156
330
128
100
AcDbEntity
  8
13
100
AcDbVertex
100
AcDb2dVertex
 10
166.3745464252686
 20
-48.74666556087234
 30
0.0
  0
VERTEX
  5
157
330
128
100
AcDbEntity
  8
13
100
AcDbVertex
100
AcDb2dVertex
 10
166.3769221532117
 20
-48.75630411206964
 30
0.0
  0
VERTEX
  5
158
330
128
100
AcDbEntity
  8
13
100
AcDbVertex
100
AcDb2dVertex
 10
166.3791140990756
 20
-48.76592954754264
 30
0.0
  0
VERTEX
  5
159
330
128
100
AcDbEntity
  8
13
100
AcDbVertex
100
AcDb2dVertex
 10
166.3811233571121
 20
-48.77554052070059
 30
0.0
  0
VERTEX
  5
15A
330
128
100
AcDbEntity
  8
13
100
AcDbVertex
100
AcDb2dVertex
 10
166.3829510650152
 20
-48.78513570330272
 30
0.0
  0
VERTEX
  5
15B
330
128
100
AcDbEntity
  8
13
100
AcDbVertex
100
AcDb2dVertex
 10
166.3845984027841
 20
-48.79471378588045
 30
0.0
  0
VERTEX
  5
15C
330
128
100
AcDbEntity
  8
13
100
AcDbVertex
100
AcDb2dVertex
 10
166.3860665915742
 20
-48.80427347813905
 30
0.0
  0
VERTEX
  5
15D
330
128
100
AcDbEntity
  8
13
100
AcDbVertex
100
AcDb2dVertex
 10
166.3873568925344
 20
-48.81381350933845
 30
0.0
  0
VERTEX
  5
15E
330
128
100
AcDbEntity
  8
13
100
AcDbVertex
100
AcDb2dVertex
 10
166.3884706056344
 20
-48.82333262865348
 30
0.0
  0
VERTEX
  5
15F
330
128
100
AcDbEntity
  8
13
100
AcDbVertex
100
AcDb2dVertex
 10
166.3894090684829
 20
-48.83282960551318
 30
0.0
  0
VERTEX
  5
160
330
128
100
AcDbEntity
  8
13
100
AcDbVertex
100
AcDb2dVertex
 10
166.3901736551372
 20
-48.84230322991971
 30
0.0
  0
VERTEX
  5
161
330
128
100
AcDbEntity
  8
13
100
AcDbVertex
100
AcDb2dVertex
 10
166.3907657749072
 20
-48.85175231274655
 30
0.0
  0
VERTEX
  5
162
330
128
100
AcDbEntity
  8
13
100
AcDbVertex
100
AcDb2dVertex
 10
166.3911868711536
 20
-48.86117568601622
 30
0.0
  0
VERTEX
  5
163
330
128
100
AcDbEntity
  8
13
100
AcDbVertex
100
AcDb2dVertex
 10
166.3914384200824
 20
-48.87057220315772
 30
0.0
  0
VERTEX
  5
164
330
128
100
AcDbEntity
  8
13
100
AcDbVertex
100
AcDb2dVertex
 10
166.3915219295373
 20
-48.87994073924386
 30
0.0
  0
VERTEX
  5
165
330
128
100
AcDbEntity
  8
13
100
AcDbVertex
100
AcDb2dVertex
 10
166.3915219295387
 20
-49.96694446185892
 30
0.0
 42
0.414213562373075
  0
VERTEX
  5
166
330
128
100
AcDbEntity
  8
13
100
AcDbVertex
100
AcDb2dVertex
 10
167.3915219295387
 20
-50.96694446185901
 30
0.0
  0
VERTEX
  5
167
330
128
100
AcDbEntity
  8
13
100
AcDbVertex
100
AcDb2dVertex
 10
183.795144775871
 20
-50.966944461859
 30
0.0
  0
SEQEND
  5
168
330
128
100
AcDbEntity
  8
13
  0
LINE
  5
169
330
1F
100
AcDbEntity
  8
13
100
AcDbLine
 10
183.795144775871
 20
-50.966944461859
 30
0.0
 11
183.795144775871
 21
-51.966944461859
 31
0.0
  0
LINE
  5
16A
330
1F
100
AcDbEntity
  8
13
100
AcDbLine
 10
183.795144775871
 20
-51.966944461859
 30
0.0
 11
162.6986645790695
 21
-51.966944461859
 31
0.0
  0
LINE
  5
16B
330
1F
100
AcDbEntity
  8
13
100
AcDbLine
 10
162.6986645790695
 20
-51.966944461859
 30
0.0
 11
162.6986645790695
 21
-50.96694446185898
 31
0.0
  0
LINE
  5
16D
330
1F
100
AcDbEntity
  8
NEGATIVO
100
AcDbLine
 10
133.4580178250548
 20
8.301066435656155
 30
0.0
 11
143.1566396980869
 21
8.301066435656214
 31
0.0
  0
ARC
  5
16E
330
1F
100
AcDbEntity
  8
NEGATIVO
100
AcDbCircle
 10
-143.1566396980869
 20
7.301066435656214
 30
0.0
 40
1.0
210
0.0
220
0.0
230
-1.0
100
AcDbArc
 50
90.0
 51
129.2065878298972
  0
ARC
  5
16F
330
1F
100
AcDbEntity
  8
NEGATIVO
100
AcDbCircle
 10
144.7881828520502
 20
9.301066435656205
 30
0.0
 40
1.581072076336605
100
AcDbArc
 50
230.7934121701098
 51
50.76650433450062
  0
ARC
  5
170
330
1F
100
AcDbEntity
  8
NEGATIVO
100
AcDbCircle
 10
144.7881828520502
 20
9.301066435656193
 30
0.0
 40
1.581072076336598
100
AcDbArc
 50
50.7665043345003
 51
151.7455228205676
  0
ARC
  5
171
330
1F
100
AcDbEntity
  8
NEGATIVO
100
AcDbCircle
 10
-142.5146358356297
 20
10.52291627396298
 30
0.0
 40
1.0
210
0.0
220
0.0
230
-1.0
100
AcDbArc
 50
208.2544771794312
 51
270.0000000000016
  0
LINE
  5
172
330
1F
100
AcDbEntity
  8
NEGATIVO
100
AcDbLine
 10
142.5146358356297
 20
9.522916273962975
 30
0.0
 11
135.6798676633616
 21
9.522916273963002
 31
0.0
  0
ARC
  5
173
330
1F
100
AcDbEntity
  8
NEGATIVO
100
AcDbCircle
 10
-135.6798676633616
 20
11.522916273963
 30
0.0
 40
2.0
210
0.0
220
0.0
230
-1.0
100
AcDbArc
 50
270.0000000000008
 51
359.9999999999998
  0
LINE
  5
174
330
1F
100
AcDbEntity
  8
NEGATIVO
100
AcDbLine
 10
133.6798676633616
 20
11.52291627396299
 30
0.0
 11
133.6798676633616
 21
17.6687760727013
 31
0.0
  0
ARC
  5
175
330
1F
100
AcDbEntity
  8
NEGATIVO
100
AcDbCircle
 10
-134.6798676633616
 20
17.6687760727013
 30
0.0
 40
1.0
210
0.0
220
0.0
230
-1.0
100
AcDbArc
 50
359.9999999999998
 51
90.00000000000162
  0
ARC
  5
176
330
1F
100
AcDbEntity
  8
NEGATIVO
100
AcDbCircle
 10
134.6798676633616
 20
20.52071933909572
 30
0.0
 40
1.851943266394425
100
AcDbArc
 50
270.0
 51
57.31817566771241
  0
ARC
  5
177
330
1F
100
AcDbEntity
  8
NEGATIVO
100
AcDbCircle
 10
134.6798676633574
 20
20.52071933908906
 30
0.0
 40
1.851943266402304
100
AcDbArc
 50
57.31817566771325
 51
89.99999999981974
  0
ARC
  5
178
330
1F
100
AcDbEntity
  8
NEGATIVO
100
AcDbCircle
 10
-134.6798676633652
 20
23.37266260549136
 30
0.0
 40
1.0
210
0.0
220
0.0
230
-1.0
100
AcDbArc
 50
270.0000000001123
 51
0.0000000001829964
  0
LINE
  5
179
330
1F
100
AcDbEntity
  8
NEGATIVO
100
AcDbLine
 10
133.6798676633652
 20
23.37266260549456
 30
0.0
 11
133.6798676633623
 21
28.96319662005563
 31
0.0
  0
ARC
  5
17A
330
1F
100
AcDbEntity
  8
NEGATIVO
100
AcDbCircle
 10
-134.6798676633623
 20
28.96319662005545
 30
0.0
 40
1.0
210
0.0
220
0.0
230
-1.0
100
AcDbArc
 50
0.0000000000103813
 51
89.99999999998535
  0
ARC
  5
17B
330
1F
100
AcDbEntity
  8
NEGATIVO
100
AcDbCircle
 10
134.6798676633616
 20
31.75985815364415
 30
0.0
 40
1.796661533588694
100
AcDbArc
 50
270.0000000000145
 51
33.82015249232306
  0
ARC
  5
17C
330
1F
100
AcDbEntity
  8
NEGATIVO
100
AcDbCircle
 10
134.6798676633616
 20
31.7598581536441
 30
0.0
 40
1.796661533588742
100
AcDbArc
 50
33.82015249232406
 51
134.3454589053832
  0
ARC
  5
17D
330
1F
100
AcDbEntity
  8
NEGATIVO
100
AcDbCircle
 10
-132.7250490698715
 20
33.75985815364416
 30
0.0
 40
1.000000000000021
210
0.0
220
0.0
230
-1.0
100
AcDbArc
 50
225.6545410946204
 51
248.5010375779406
  0
ARC
  5
17E
330
1F
100
AcDbEntity
  8
NEGATIVO
100
AcDbCircle
 10
133.4580178250548
 20
31.89900974393286
 30
0.0
 40
1.0
100
AcDbArc
 50
111.498962422058
 51
179.9999999999976
  0
LINE
  5
17F
330
1F
100
AcDbEntity
  8
NEGATIVO
100
AcDbLine
 10
132.4580178250548
 20
31.8990097439329
 30
0.0
 11
132.4580178250548
 21
9.522916273963009
 31
0.0
  0
LINE
  5
180
330
1F
100
AcDbEntity
  8
NEGATIVO
100
AcDbLine
 10
132.4580178250548
 20
9.522916273963007
 30
0.0
 11
132.4580178250548
 21
9.30106643565604
 31
0.0
  0
ARC
  5
181
330
1F
100
AcDbEntity
  8
NEGATIVO
100
AcDbCircle
 10
133.4580178250548
 20
9.301066435656155
 30
0.0
 40
1.0
100
AcDbArc
 50
180.0000000000066
 51
269.9999999999984
  0
LINE
  5
182
330
1F
100
AcDbEntity
  8
NEGATIVO
100
AcDbLine
 10
148.795777658841
 20
32.20748294023904
 30
0.0
 11
146.4603826106732
 21
32.20748294023902
 31
0.0
  0
ARC
  5
183
330
1F
100
AcDbEntity
  8
NEGATIVO
100
AcDbCircle
 10
-146.4603826106732
 20
34.20748294023902
 30
0.0
 40
2.0
210
0.0
220
0.0
230
-1.0
100
AcDbArc
 50
270.0000000000008
 51
316.9932967153795
  0
ARC
  5
184
330
1F
100
AcDbEntity
  8
NEGATIVO
100
AcDbCircle
 10
143.8362419616343
 20
31.75985815363957
 30
0.0
 40
1.588451092311822
100
AcDbArc
 50
43.00670328463805
 51
50.98350555244436
  0
ARC
  5
185
330
1F
100
AcDbEntity
  8
NEGATIVO
100
AcDbCircle
 10
143.8362419616385
 20
31.75985815364417
 30
0.0
 40
1.58845109230562
100
AcDbArc
 50
50.98350555245705
 51
316.993296715379
  0
ARC
  5
186
330
1F
100
AcDbEntity
  8
NEGATIVO
100
AcDbCircle
 10
-146.4603826106732
 20
29.31223336704929
 30
0.0
 40
2.0
210
0.0
220
0.0
230
-1.0
100
AcDbArc
 50
43.00670328461963
 51
90.0
  0
LINE
  5
187
330
1F
100
AcDbEntity
  8
NEGATIVO
100
AcDbLine
 10
146.4603826106732
 20
31.31223336704929
 30
0.0
 11
148.795777658841
 21
31.31223336704928
 31
0.0
  0
ARC
  5
188
330
1F
100
AcDbEntity
  8
NEGATIVO
100
AcDbCircle
 10
-148.795777658841
 20
29.31223336704928
 30
0.0
 40
2.0
210
0.0
220
0.0
230
-1.0
100
AcDbArc
 50
90.0
 51
136.8988615295847
  0
ARC
  5
189
330
1F
100
AcDbEntity
  8
NEGATIVO
100
AcDbCircle
 10
151.4112623712368
 20
31.75985815364416
 30
0.0
 40
1.582126097268174
100
AcDbArc
 50
223.1011384704148
 51
67.42148981666665
  0
ARC
  5
18A
330
1F
100
AcDbEntity
  8
NEGATIVO
100
AcDbCircle
 10
151.4112623712368
 20
31.75985815364404
 30
0.0
 40
1.582126097268301
100
AcDbArc
 50
67.42148981666863
 51
136.8988615295819
  0
ARC
  5
18B
330
1F
100
AcDbEntity
  8
NEGATIVO
100
AcDbCircle
 10
-148.795777658841
 20
34.20748294023904
 30
0.0
 40
2.0
210
0.0
220
0.0
230
-1.0
100
AcDbArc
 50
223.1011384704146
 51
270.0
  0
ARC
  5
18C
330
1F
100
AcDbEntity
  8
NEGATIVO
100
AcDbCircle
 10
-143.8362419616385
 20
20.52071933909572
 30
0.0
 40
1.638727856146671
210
0.0
220
0.0
230
-1.0
100
AcDbArc
 50
222.272658050951
 51
89.999999999999
  0
ARC
  5
18D
330
1F
100
AcDbEntity
  8
NEGATIVO
100
AcDbCircle
 10
-143.8362419616386
 20
20.52071933909588
 30
0.0
 40
1.638727856146502
210
0.0
220
0.0
230
-1.0
100
AcDbArc
 50
89.99999999999801
 51
137.7273419490521
  0
ARC
  5
18E
330
1F
100
AcDbEntity
  8
NEGATIVO
100
AcDbCircle
 10
146.528726560507
 20
22.96834412569057
 30
0.0
 40
2.0
100
AcDbArc
 50
222.2726580509486
 51
269.9999999999992
  0
LINE
  5
18F
330
1F
100
AcDbEntity
  8
NEGATIVO
100
AcDbLine
 10
146.528726560507
 20
20.96834412569057
 30
0.0
 11
148.7607871104835
 21
20.96834412569057
 31
0.0
  0
ARC
  5
190
330
1F
100
AcDbEntity
  8
NEGATIVO
100
AcDbCircle
 10
148.7607871104835
 20
22.96834412569057
 30
0.0
 40
2.0
100
AcDbArc
 50
270.0
 51
317.2785642085373
  0
ARC
  5
191
330
1F
100
AcDbEntity
  8
NEGATIVO
100
AcDbCircle
 10
-151.4112623712368
 20
20.52071933909573
 30
0.0
 40
1.607753622937528
210
0.0
220
0.0
230
-1.0
100
AcDbArc
 50
42.72143579146124
 51
128.4612970539467
  0
ARC
  5
192
330
1F
100
AcDbEntity
  8
NEGATIVO
100
AcDbCircle
 10
-151.4112623712368
 20
20.52071933909572
 30
0.0
 40
1.607753622937522
210
0.0
220
0.0
230
-1.0
100
AcDbArc
 50
128.4612970539467
 51
317.2785642085375
  0
ARC
  5
193
330
1F
100
AcDbEntity
  8
NEGATIVO
100
AcDbCircle
 10
148.7607871104834
 20
18.07309455250084
 30
0.0
 40
2.0
100
AcDbArc
 50
42.72143579146177
 51
89.99999999999919
  0
LINE
  5
194
330
1F
100
AcDbEntity
  8
NEGATIVO
100
AcDbLine
 10
148.7607871104835
 20
20.07309455250085
 30
0.0
 11
146.5287265605071
 21
20.07309455250084
 31
0.0
  0
ARC
  5
195
330
1F
100
AcDbEntity
  8
NEGATIVO
100
AcDbCircle
 10
146.528726560507
 20
18.07309455250084
 30
0.0
 40
2.0
100
AcDbArc
 50
90.0
 51
137.7273419490511
  0
ENDSEC
  0
SECTION
  2
OBJECTS
  0
DICTIONARY
  5
C
330
0
100
AcDbDictionary
  3
ACAD_GROUP
350
D
  3
ACAD_LAYOUT
350
1A
  3
ACAD_MATERIAL
350
43
  3
ACAD_MLEADERSTYLE
350
6B
  3
ACAD_MLINESTYLE
350
17
  3
ACAD_PLOTSETTINGS
350
19
  3
ACAD_SCALELIST
350
47
  3
ACAD_VISUALSTYLE
350
2A
  3
ACDBHEADERROUNDTRIPXREC
350
196
  3
ACDBVARIABLEDICTIONARY
350
1B7
  0
DICTIONARY
  5
1BE
330
8
100
AcDbDictionary
280
     1
  3
ACAD_XREC_ROUNDTRIP
360
1BF
  0
DICTIONARY
  5
D
102
{ACAD_REACTORS
330
C
102
}
330
C
100
AcDbDictionary
  0
DICTIONARY
  5
1A
102
{ACAD_REACTORS
330
C
102
}
330
C
100
AcDbDictionary
  0
DICTIONARY
  5
43
102
{ACAD_REACTORS
330
C
102
}
330
C
100
AcDbDictionary
  3
BYBLOCK
350
45
  3
BYLAYER
350
44
  3
GLOBAL
350
46
  0
DICTIONARY
  5
6B
102
{ACAD_REACTORS
330
C
102
}
330
C
100
AcDbDictionary
  3
STANDARD
350
6C
  0
DICTIONARY
  5
17
102
{ACAD_REACTORS
330
C
102
}
330
C
100
AcDbDictionary
  3
STANDARD
350
18
  0
DICTIONARY
  5
19
102
{ACAD_REACTORS
330
C
102
}
330
C
100
AcDbDictionary
  0
DICTIONARY
  5
47
102
{ACAD_REACTORS
330
C
102
}
330
C
100
AcDbDictionary
  3
A0
350
48
  3
A1
350
49
  3
A2
350
4A
  3
A3
350
4B
  3
A4
350
4C
  3
A5
350
4D
  3
A6
350
4E
  3
A7
350
4F
  3
A8
350
50
  3
A9
350
51
  3
B0
350
52
  3
B1
350
53
  3
B2
350
54
  3
B3
350
55
  3
B4
350
56
  3
B5
350
57
  3
B6
350
58
  3
B7
350
59
  3
B8
350
5A
  3
B9
350
5B
  3
C0
350
5C
  3
C1
350
5D
  3
C2
350
5E
  3
C3
350
5F
  3
C4
350
60
  3
C5
350
61
  3
C6
350
62
  3
C7
350
63
  3
C8
350
64
  3
C9
350
65
  3
D0
350
66
  3
D1
350
67
  3
D2
350
68
  0
DICTIONARY
  5
2A
102
{ACAD_REACTORS
330
C
102
}
330
C
100
AcDbDictionary
  3
2DWIREFRAME
350
2F
  3
BASIC
350
32
  3
BRIGHTEN
350
36
  3
COLORCHANGE
350
3A
  3
CONCEPTUAL
350
34
  3
DIM
350
35
  3
EDGECOLOROFF
350
3D
  3
FACEPATTERN
350
39
  3
FLAT
350
2B
  3
FLATWITHEDGES
350
2C
  3
GOURAUD
350
2D
  3
GOURAUDWITHEDGES
350
2E
  3
HIDDEN
350
31
  3
JITTEROFF
350
3B
  3
LINEPATTERN
350
38
  3
OVERHANGOFF
350
3C
  3
REALISTIC
350
33
  3
SHADED
350
42
  3
SHADED_WITH_EDGES
350
41
  3
SHADES_OF_GRAY
350
3E
  3
SKETCHY
350
3F
  3
THICKEN
350
37
  3
WIREFRAME
350
30
  3
X-RAY
350
40
  0
DICTIONARY
  5
196
102
{ACAD_REACTORS
330
C
102
}
330
C
100
AcDbDictionary
  3
CEPSNID
350
1A0
  3
CEPSNTYPE
350
19F
  3
DIMSTYLEDATA
350
1B6
  3
FINGERPRINTGUID
350
1A1
  3
HYPERLINKBASE
350
199
  3
INSUNITS
350
19E
  3
LAYOUTDICT
350
19B
  3
LWETCUNION
350
19D
  3
PLOTSETDICT
350
19C
  3
PSVPSCALE
350
1A3
  3
PUCSBASE
350
1A6
  3
PUCSORGBACK
350
1AC
  3
PUCSORGBOTTOM
350
1A8
  3
PUCSORGFRONT
350
1AB
  3
PUCSORGLEFT
350
1A9
  3
PUCSORGRIGHT
350
1AA
  3
PUCSORGTOP
350
1A7
  3
PUCSORTHOREF
350
1A4
  3
PUCSORTHOVIEW
350
1A5
  3
STYLESHEET
350
19A
  3
TSTACKALIGN
350
197
  3
TSTACKSIZE
350
198
  3
UCSBASE
350
1AF
  3
UCSORGBACK
350
1B5
  3
UCSORGBOTTOM
350
1B1
  3
UCSORGFRONT
350
1B4
  3
UCSORGLEFT
350
1B2
  3
UCSORGRIGHT
350
1B3
  3
UCSORGTOP
350
1B0
  3
UCSORTHOREF
350
1AD
  3
UCSORTHOVIEW
350
1AE
  3
VERSIONGUID
350
1A2
  0
DICTIONARY
  5
1B7
102
{ACAD_REACTORS
330
C
102
}
330
C
100
AcDbDictionary
  3
CANNOSCALE
350
1C0
  3
CMLEADERSTYLE
350
1B9
  3
CTABLESTYLE
350
1B8
  3
DIMASSOC
350
1BC
  3
HIDETEXT
350
1BD
  3
MSLTSCALE
350
1C1
  0
XRECORD
  5
1BF
102
{ACAD_REACTORS
330
1BE
102
}
330
1BE
100
AcDbXrecord
102
VTR_0.000_0.000_1.000_1.000_VISUALSTYLE
340
2F
102
VTR_0.000_0.000_1.000_1.000_GRIDDISPLAY
 70
     3
102
VTR_0.000_0.000_1.000_1.000_GRIDMAJOR
 70
     5
102
VTR_0.000_0.000_1.000_1.000_DEFAULTLIGHTING
280
     1
102
VTR_0.000_0.000_1.000_1.000_DEFAULTLIGHTINGTYPE
 70
     1
102
VTR_0.000_0.000_1.000_1.000_BRIGHTNESS
141
0.0
102
VTR_0.000_0.000_1.000_1.000_CONTRAST
142
0.0
  0
MATERIAL
  5
45
102
{ACAD_REACTORS
330
43
102
}
102
{ACAD_XDICTIONARY
360
1C4
102
}
330
43
100
AcDbMaterial
  1
BYBLOCK
  0
MATERIAL
  5
44
102
{ACAD_REACTORS
330
43
102
}
102
{ACAD_XDICTIONARY
360
1C2
102
}
330
43
100
AcDbMaterial
  1
BYLAYER
  0
MATERIAL
  5
46
102
{ACAD_REACTORS
330
43
102
}
102
{ACAD_XDICTIONARY
360
1C6
102
}
330
43
100
AcDbMaterial
  1
GLOBAL
  0
ACAD_PROXY_OBJECT
  5
6C
102
{ACAD_REACTORS
330
6B
102
}
330
6B
100
AcDbProxyObject
 90
      499
 91
      505
 93
      610
310
40901902A4063FBFFFFFE056BD1B81E855B9FC0AD7A3703D0AD73F4214DD185B99185C9900AD7A3703D0AC73F90141901A02B5E8DC0F42B1CFC02B5E8DC0F42B1CFE5764000000000000300FC0
340
14
340
0
340
11
340
0
 94
        0
1001
ACAD_MLEADERVER
1070
     2
  0
MLINESTYLE
  5
18
102
{ACAD_REACTORS
330
17
102
}
330
17
100
AcDbMlineStyle
  2
Standard
 70
     0
  3

 62
   256
 51
90.0
 52
90.0
 71
     2
 49
0.5
 62
   256
  6
BYLAYER
 49
-0.5
 62
   256
  6
BYLAYER
  0
ACAD_PROXY_OBJECT
  5
48
102
{ACAD_REACTORS
330
47
102
}
330
47
100
AcDbProxyObject
 90
      499
 91
      503
 93
       41
310
903313A31580
  0
ACAD_PROXY_OBJECT
  5
49
102
{ACAD_REACTORS
330
47
102
}
330
47
100
AcDbProxyObject
 90
      499
 91
      503
 93
      105
310
903313A324000000000000004000
  0
ACAD_PROXY_OBJECT
  5
4A
102
{ACAD_REACTORS
330
47
102
}
330
47
100
AcDbProxyObject
 90
      499
 91
      503
 93
      105
310
903313A344000000000000104000
  0
ACAD_PROXY_OBJECT
  5
4B
102
{ACAD_REACTORS
330
47
102
}
330
47
100
AcDbProxyObject
 90
      499
 91
      503
 93
      105
310
903313A354000000000000144000
  0
ACAD_PROXY_OBJECT
  5
4C
102
{ACAD_REACTORS
330
47
102
}
330
47
100
AcDbProxyObject
 90
      499
 91
      503
 93
      105
310
903313A384000000000000204000
  0
ACAD_PROXY_OBJECT
  5
4D
102
{ACAD_REACTORS
330
47
102
}
330
47
100
AcDbProxyObject
 90
      499
 91
      503
 93
      113
310
904313A31304000000000000244000
  0
ACAD_PROXY_OBJECT
  5
4E
102
{ACAD_REACTORS
330
47
102
}
330
47
100
AcDbProxyObject
 90
      499
 91
      503
 93
      113
310
904313A31364000000000000304000
  0
ACAD_PROXY_OBJECT
  5
4F
102
{ACAD_REACTORS
330
47
102
}
330
47
100
AcDbProxyObject
 90
      499
 91
      503
 93
      113
310
904313A32304000000000000344000
  0
ACAD_PROXY_OBJECT
  5
50
102
{ACAD_REACTORS
330
47
102
}
330
47
100
AcDbProxyObject
 90
      499
 91
      503
 93
      113
310
904313A333040000000000003E4000
  0
ACAD_PROXY_OBJECT
  5
51
102
{ACAD_REACTORS
330
47
102
}
330
47
100
AcDbProxyObject
 90
      499
 91
      503
 93
      113
310
904313A34304000000000000444000
  0
ACAD_PROXY_OBJECT
  5
52
102
{ACAD_REACTORS
330
47
102
}
330
47
100
AcDbProxyObject
 90
      499
 91
      503
 93
      113
310
904313A35304000000000000494000
  0
ACAD_PROXY_OBJECT
  5
53
102
{ACAD_REACTORS
330
47
102
}
330
47
100
AcDbProxyObject
 90
      499
 91
      503
 93
      121
310
905313A3130304000000000000594000
  0
ACAD_PROXY_OBJECT
  5
54
102
{ACAD_REACTORS
330
47
102
}
330
47
100
AcDbProxyObject
 90
      499
 91
      503
 93
      105
310
903323A310000000000000010100
  0
ACAD_PROXY_OBJECT
  5
55
102
{ACAD_REACTORS
330
47
102
}
330
47
100
AcDbProxyObject
 90
      499
 91
      503
 93
      105
310
903343A310000000000000410100
  0
ACAD_PROXY_OBJECT
  5
56
102
{ACAD_REACTORS
330
47
102
}
330
47
100
AcDbProxyObject
 90
      499
 91
      503
 93
      105
310
903383A310000000000000810100
  0
ACAD_PROXY_OBJECT
  5
57
102
{ACAD_REACTORS
330
47
102
}
330
47
100
AcDbProxyObject
 90
      499
 91
      503
 93
      113
310
90431303A310000000000000910100
  0
ACAD_PROXY_OBJECT
  5
58
102
{ACAD_REACTORS
330
47
102
}
330
47
100
AcDbProxyObject
 90
      499
 91
      503
 93
      121
310
9053130303A310000000000001650100
  0
ACAD_PROXY_OBJECT
  5
59
102
{ACAD_REACTORS
330
47
102
}
330
47
100
AcDbProxyObject
 90
      499
 91
      503
 93
      257
310
90E312F31323822203D2031272D3022000000000000200FC000000000000284000
  0
ACAD_PROXY_OBJECT
  5
5A
102
{ACAD_REACTORS
330
47
102
}
330
47
100
AcDbProxyObject
 90
      499
 91
      503
 93
      249
310
90D312F363422203D2031272D3022000000000000240FC000000000000284000
  0
ACAD_PROXY_OBJECT
  5
5B
102
{ACAD_REACTORS
330
47
102
}
330
47
100
AcDbProxyObject
 90
      499
 91
      503
 93
      249
310
90D312F333222203D2031272D3022000000000000280FC000000000000284000
  0
ACAD_PROXY_OBJECT
  5
5C
102
{ACAD_REACTORS
330
47
102
}
330
47
100
AcDbProxyObject
 90
      499
 91
      503
 93
      249
310
90D312F313622203D2031272D30220000000000002C0FC000000000000284000
  0
ACAD_PROXY_OBJECT
  5
5D
102
{ACAD_REACTORS
330
47
102
}
330
47
100
AcDbProxyObject
 90
      499
 91
      503
 93
      249
310
90D332F333222203D2031272D30220000000000002E0FC000000000000284000
  0
ACAD_PROXY_OBJECT
  5
5E
102
{ACAD_REACTORS
330
47
102
}
330
47
100
AcDbProxyObject
 90
      499
 91
      503
 93
      241
310
90C312F3822203D2031272D3022000000000000300FC000000000000284000
  0
ACAD_PROXY_OBJECT
  5
5F
102
{ACAD_REACTORS
330
47
102
}
330
47
100
AcDbProxyObject
 90
      499
 91
      503
 93
      249
310
90D332F313622203D2031272D3022000000000000320FC000000000000284000
  0
ACAD_PROXY_OBJECT
  5
60
102
{ACAD_REACTORS
330
47
102
}
330
47
100
AcDbProxyObject
 90
      499
 91
      503
 93
      241
310
90C312F3422203D2031272D3022000000000000340FC000000000000284000
  0
ACAD_PROXY_OBJECT
  5
61
102
{ACAD_REACTORS
330
47
102
}
330
47
100
AcDbProxyObject
 90
      499
 91
      503
 93
      241
310
90C332F3822203D2031272D3022000000000000360FC000000000000284000
  0
ACAD_PROXY_OBJECT
  5
62
102
{ACAD_REACTORS
330
47
102
}
330
47
100
AcDbProxyObject
 90
      499
 91
      503
 93
      241
310
90C312F3222203D2031272D3022000000000000380FC000000000000284000
  0
ACAD_PROXY_OBJECT
  5
63
102
{ACAD_REACTORS
330
47
102
}
330
47
100
AcDbProxyObject
 90
      499
 91
      503
 93
      241
310
90C332F3422203D2031272D30220000000000003A0FC000000000000284000
  0
ACAD_PROXY_OBJECT
  5
64
102
{ACAD_REACTORS
330
47
102
}
330
47
100
AcDbProxyObject
 90
      499
 91
      503
 93
      161
310
90A3122203D2031272D30224000000000000284000
  0
ACAD_PROXY_OBJECT
  5
65
102
{ACAD_REACTORS
330
47
102
}
330
47
100
AcDbProxyObject
 90
      499
 91
      503
 93
      257
310
90E312D312F3222203D2031272D30220000000000003E0FC000000000000284000
  0
ACAD_PROXY_OBJECT
  5
66
102
{ACAD_REACTORS
330
47
102
}
330
47
100
AcDbProxyObject
 90
      499
 91
      503
 93
      225
310
90A3322203D2031272D302200000000000002100000000000000284000
  0
ACAD_PROXY_OBJECT
  5
67
102
{ACAD_REACTORS
330
47
102
}
330
47
100
AcDbProxyObject
 90
      499
 91
      503
 93
      225
310
90A3622203D2031272D302200000000000006100000000000000284000
  0
ACAD_PROXY_OBJECT
  5
68
102
{ACAD_REACTORS
330
47
102
}
330
47
100
AcDbProxyObject
 90
      499
 91
      503
 93
      249
310
90D31272D3022203D2031272D30220000000000000A100000000000000284000
  0
ACAD_PROXY_OBJECT
  5
2F
102
{ACAD_REACTORS
330
2A
102
}
330
2A
100
AcDbProxyObject
 90
      499
 91
      501
 93
      436
310
42CC9915DA5C99599C985B595049028333333333333E33F0000000000000F90107901411070040501600405405064090741402480A0340
1001
ACAD
1000
AcDbSavedByObjectVersion
1070
     0
  0
ACAD_PROXY_OBJECT
  5
32
102
{ACAD_REACTORS
330
2A
102
}
330
2A
100
AcDbProxyObject
 90
      499
 91
      501
 93
      388
310
4150985CDA58D07406404333333333333E33F0000000000000F90107A41107004050150841D405064090741402480A0350
1001
ACAD
1000
AcDbSavedByObjectVersion
1070
     0
  0
ACAD_PROXY_OBJECT
  5
36
102
{ACAD_REACTORS
330
2A
102
}
330
2A
100
AcDbProxyObject
 90
      499
 91
      501
 93
      428
310
42109C9A59DA1D195B90C409028333333333333E33F0000000000000F9010790141107004050150841D405064090741402480A029950
1001
ACAD
1000
AcDbSavedByObjectVersion
1070
     0
  0
ACAD_PROXY_OBJECT
  5
3A
102
{ACAD_REACTORS
330
2A
102
}
330
2A
100
AcDbProxyObject
 90
      499
 91
      501
 93
      452
310
42D0DBDB1BDC90DA185B99D95104090240C333333333333E33F0000000000000F90108901411070040501508421405064090741402480A0350
1001
ACAD
1000
AcDbSavedByObjectVersion
1070
     0
  0
ACAD_PROXY_OBJECT
  5
34
102
{ACAD_REACTORS
330
2A
102
}
330
2A
100
AcDbProxyObject
 90
      499
 91
      501
 93
      500
310
4290DBDB98D95C1D1D585B10940D028333333333333E33F0000000000000F90107902409070040501000000000018199010841D405064090740C02480A0340
1001
ACAD
1000
AcDbSavedByObjectVersion
1070
     0
  0
ACAD_PROXY_OBJECT
  5
35
102
{ACAD_REACTORS
330
2A
102
}
330
2A
100
AcDbProxyObject
 90
      499
 91
      501
 93
      412
310
40D11A5B50B409028333333333333E33F0000000000000F9010790141107004050150841D405064090741402480A02677FFFFFD0
1001
ACAD
1000
AcDbSavedByObjectVersion
1070
     0
  0
ACAD_PROXY_OBJECT
  5
3D
102
{ACAD_REACTORS
330
2A
102
}
330
2A
100
AcDbProxyObject
 90
      499
 91
      501
 93
      452
310
43115919D950DBDB1BDC93D999916409028333333333333E33F0000000000000F9010790141107004050150841D405064090741402480A0350
1001
ACAD
1000
AcDbSavedByObjectVersion
1070
     0
  0
ACAD_PROXY_OBJECT
  5
39
102
{ACAD_REACTORS
330
2A
102
}
330
2A
100
AcDbProxyObject
 90
      499
 91
      501
 93
      444
310
42D19858D95C185D1D195C9B90F409028333333333333E33F0000000000000F9010790141107004050150841D405064090741402480A0350
1001
ACAD
1000
AcDbSavedByObjectVersion
1070
     0
  0
ACAD_PROXY_OBJECT
  5
2B
102
{ACAD_REACTORS
330
2A
102
}
330
2A
100
AcDbProxyObject
 90
      499
 91
      501
 93
      380
310
41119B185D240901404333333333333E33F0000000000000F9010740A907004050150841D405064090741402480A1B50
1001
ACAD
1000
AcDbSavedByObjectVersion
1070
     0
  0
ACAD_PROXY_OBJECT
  5
2C
102
{ACAD_REACTORS
330
2A
102
}
330
2A
100
AcDbProxyObject
 90
      499
 91
      501
 93
      468
310
43519B185D15DA5D1A115919D95CD0140901404333333333333E33F0000000000000F90107409019070040501600405405064090741402480A1B50
1001
ACAD
1000
AcDbSavedByObjectVersion
1070
     0
  0
ACAD_PROXY_OBJECT
  5
2D
102
{ACAD_REACTORS
330
2A
102
}
330
2A
100
AcDbProxyObject
 90
      499
 91
      501
 93
      404
310
41D1DBDD5C985D5910240902404333333333333E33F0000000000000F9010740A9070040501641D405064090741402480A1B50
1001
ACAD
1000
AcDbSavedByObjectVersion
1070
     0
  0
ACAD_PROXY_OBJECT
  5
2E
102
{ACAD_REACTORS
330
2A
102
}
330
2A
100
AcDbProxyObject
 90
      499
 91
      501
 93
      492
310
4411DBDD5C985D5915DA5D1A115919D95CD0340902404333333333333E33F0000000000000F90107409019070040501600405405064090741402480A1B50
1001
ACAD
1000
AcDbSavedByObjectVersion
1070
     0
  0
ACAD_PROXY_OBJECT
  5
31
102
{ACAD_REACTORS
330
2A
102
}
330
2A
100
AcDbProxyObject
 90
      499
 91
      501
 93
      476
310
41921A5919195B90640502408333333333333E33F0000000000000F901079024090700405020000000000001110200405405064090740C02480A0340
1001
ACAD
1000
AcDbSavedByObjectVersion
1070
     0
  0
ACAD_PROXY_OBJECT
  5
3B
102
{ACAD_REACTORS
330
2A
102
}
330
2A
100
AcDbProxyObject
 90
      499
 91
      501
 93
      428
310
42529A5D1D195C93D999914409028333333333333E33F0000000000000F9010790141107004050150A41D405064090741402480A0350
1001
ACAD
1000
AcDbSavedByObjectVersion
1070
     0
  0
ACAD_PROXY_OBJECT
  5
38
102
{ACAD_REACTORS
330
2A
102
}
330
2A
100
AcDbProxyObject
 90
      499
 91
      501
 93
      444
310
42D31A5B995C185D1D195C9B90E409028333333333333E33F0000000000000F9010790141107004050750841D405064090741402483A0350
1001
ACAD
1000
AcDbSavedByObjectVersion
1070
     0
  0
ACAD_PROXY_OBJECT
  5
3C
102
{ACAD_REACTORS
330
2A
102
}
330
2A
100
AcDbProxyObject
 90
      499
 91
      501
 93
      444
310
42D3DD995C9A185B99D3D999915409028333333333333E33F0000000000000F9010790141107004050150941D405064090741402480A0350
1001
ACAD
1000
AcDbSavedByObjectVersion
1070
     0
  0
ACAD_PROXY_OBJECT
  5
33
102
{ACAD_REACTORS
330
2A
102
}
330
2A
100
AcDbProxyObject
 90
      499
 91
      501
 93
      428
310
425499585B1A5CDD1A58D08409038333333333333E33F0000000000000F9010740A907004050150800405405064090740C02480A1B40
1001
ACAD
1000
AcDbSavedByObjectVersion
1070
     0
  0
ACAD_PROXY_OBJECT
  5
42
102
{ACAD_REACTORS
330
2A
102
}
330
2A
100
AcDbProxyObject
 90
      499
 91
      501
 93
      420
310
4194DA1859195911B40902404333333333333E33F0000000000000F9010740A41107004050150800405405064090840C02480A0B40
1001
ACAD
1000
AcDbSavedByObjectVersion
1070
     0
  0
ACAD_PROXY_OBJECT
  5
41
102
{ACAD_REACTORS
330
2A
102
}
330
2A
100
AcDbProxyObject
 90
      499
 91
      501
 93
      516
310
4454DA18591959081DDA5D1A08195919D95CD1A40902404333333333333E33F0000000000000F901074090142907004050250800405405064090740C02480A0B40
1001
ACAD
1000
AcDbSavedByObjectVersion
1070
     0
  0
ACAD_PROXY_OBJECT
  5
3E
102
{ACAD_REACTORS
330
2A
102
}
330
2A
100
AcDbProxyObject
 90
      499
 91
      501
 93
      532
310
4394DA1859195CC81BD98811DC985E5174090240C333333333333E33F0000000000000F901079024090741D01000000000000111010841D405064090740C02480A0340
1001
ACAD
1000
AcDbSavedByObjectVersion
1070
     0
  0
ACAD_PROXY_OBJECT
  5
3F
102
{ACAD_REACTORS
330
2A
102
}
330
2A
100
AcDbProxyObject
 90
      499
 91
      501
 93
      476
310
41D4DAD95D18DA1E51840502408333333333333E33F0000000000000F901079024090741D01000000000000111010B41D405064090741802480A0340
1001
ACAD
1000
AcDbSavedByObjectVersion
1070
     0
  0
ACAD_PROXY_OBJECT
  5
37
102
{ACAD_REACTORS
330
2A
102
}
330
2A
100
AcDbProxyObject
 90
      499
 91
      501
 93
      412
310
41D51A1A58DAD95B90D409028333333333333E33F0000000000000F9010790141107004050150C41D405064090741402480A0350
1001
ACAD
1000
AcDbSavedByObjectVersion
1070
     0
  0
ACAD_PROXY_OBJECT
  5
30
102
{ACAD_REACTORS
330
2A
102
}
330
2A
100
AcDbProxyObject
 90
      499
 91
      501
 93
      420
310
4255DA5C99599C985B595059028333333333333E33F0000000000000F90107901411070040501600405405064090740C02480A0340
1001
ACAD
1000
AcDbSavedByObjectVersion
1070
     0
  0
ACAD_PROXY_OBJECT
  5
40
102
{ACAD_REACTORS
330
2A
102
}
330
2A
100
AcDbProxyObject
 90
      499
 91
      501
 93
      404
310
41560B54985E51940902404000000000000E03F0000000000000F9010740501907004050150841D405064090740C02480A1B40
1001
ACAD
1000
AcDbSavedByObjectVersion
1070
     0
  0
XRECORD
  5
1A0
102
{ACAD_REACTORS
330
196
102
}
330
196
100
AcDbXrecord
340
0
  0
XRECORD
  5
19F
102
{ACAD_REACTORS
330
196
102
}
330
196
100
AcDbXrecord
 90
        0
  0
XRECORD
  5
1B6
102
{ACAD_REACTORS
330
196
102
}
330
196
100
AcDbXrecord
1000
DSTYLE
1002
{
1070
   279
 70
     2
1070
   340
340
11
1002
}
  0
XRECORD
  5
1A1
102
{ACAD_REACTORS
330
196
102
}
330
196
100
AcDbXrecord
  1
{cd5cb9d7-5788-452c-970c-769877fedbcd}
  0
XRECORD
  5
199
102
{ACAD_REACTORS
330
196
102
}
330
196
100
AcDbXrecord
  1

  0
XRECORD
  5
19E
102
{ACAD_REACTORS
330
196
102
}
330
196
100
AcDbXrecord
 90
        4
  0
XRECORD
  5
19B
102
{ACAD_REACTORS
330
196
102
}
330
196
100
AcDbXrecord
340
1A
  0
XRECORD
  5
19D
102
{ACAD_REACTORS
330
196
102
}
330
196
100
AcDbXrecord
 90
    10781
  0
XRECORD
  5
19C
102
{ACAD_REACTORS
330
196
102
}
330
196
100
AcDbXrecord
340
19
  0
XRECORD
  5
1A3
102
{ACAD_REACTORS
330
196
102
}
330
196
100
AcDbXrecord
 40
0.0
  0
XRECORD
  5
1A6
102
{ACAD_REACTORS
330
196
102
}
330
196
100
AcDbXrecord
340
0
  0
XRECORD
  5
1AC
102
{ACAD_REACTORS
330
196
102
}
330
196
100
AcDbXrecord
 10
0.0
 20
0.0
 30
0.0
  0
XRECORD
  5
1A8
102
{ACAD_REACTORS
330
196
102
}
330
196
100
AcDbXrecord
 10
0.0
 20
0.0
 30
0.0
  0
XRECORD
  5
1AB
102
{ACAD_REACTORS
330
196
102
}
330
196
100
AcDbXrecord
 10
0.0
 20
0.0
 30
0.0
  0
XRECORD
  5
1A9
102
{ACAD_REACTORS
330
196
102
}
330
196
100
AcDbXrecord
 10
0.0
 20
0.0
 30
0.0
  0
XRECORD
  5
1AA
102
{ACAD_REACTORS
330
196
102
}
330
196
100
AcDbXrecord
 10
0.0
 20
0.0
 30
0.0
  0
XRECORD
  5
1A7
102
{ACAD_REACTORS
330
196
102
}
330
196
100
AcDbXrecord
 10
0.0
 20
0.0
 30
0.0
  0
XRECORD
  5
1A4
102
{ACAD_REACTORS
330
196
102
}
330
196
100
AcDbXrecord
340
0
  0
XRECORD
  5
1A5
102
{ACAD_REACTORS
330
196
102
}
330
196
100
AcDbXrecord
 70
     0
  0
XRECORD
  5
19A
102
{ACAD_REACTORS
330
196
102
}
330
196
100
AcDbXrecord
  1

  0
XRECORD
  5
197
102
{ACAD_REACTORS
330
196
102
}
330
196
100
AcDbXrecord
 90
        1
  0
XRECORD
  5
198
102
{ACAD_REACTORS
330
196
102
}
330
196
100
AcDbXrecord
 90
       70
  0
XRECORD
  5
1AF
102
{ACAD_REACTORS
330
196
102
}
330
196
100
AcDbXrecord
340
0
  0
XRECORD
  5
1B5
102
{ACAD_REACTORS
330
196
102
}
330
196
100
AcDbXrecord
 10
0.0
 20
0.0
 30
0.0
  0
XRECORD
  5
1B1
102
{ACAD_REACTORS
330
196
102
}
330
196
100
AcDbXrecord
 10
0.0
 20
0.0
 30
0.0
  0
XRECORD
  5
1B4
102
{ACAD_REACTORS
330
196
102
}
330
196
100
AcDbXrecord
 10
0.0
 20
0.0
 30
0.0
  0
XRECORD
  5
1B2
102
{ACAD_REACTORS
330
196
102
}
330
196
100
AcDbXrecord
 10
0.0
 20
0.0
 30
0.0
  0
XRECORD
  5
1B3
102
{ACAD_REACTORS
330
196
102
}
330
196
100
AcDbXrecord
 10
0.0
 20
0.0
 30
0.0
  0
XRECORD
  5
1B0
102
{ACAD_REACTORS
330
196
102
}
330
196
100
AcDbXrecord
 10
0.0
 20
0.0
 30
0.0
  0
XRECORD
  5
1AD
102
{ACAD_REACTORS
330
196
102
}
330
196
100
AcDbXrecord
340
0
  0
XRECORD
  5
1AE
102
{ACAD_REACTORS
330
196
102
}
330
196
100
AcDbXrecord
 70
     0
  0
XRECORD
  5
1A2
102
{ACAD_REACTORS
330
196
102
}
330
196
100
AcDbXrecord
  1
{FAEB1C32-E019-11D5-929B-00C0DF256EC4}
  0
DICTIONARYVAR
  5
1C0
102
{ACAD_REACTORS
330
1B7
102
}
330
1B7
100
DictionaryVariables
280
     0
  1
1:1
  0
DICTIONARYVAR
  5
1B9
102
{ACAD_REACTORS
330
1B7
102
}
330
1B7
100
DictionaryVariables
280
     0
  1
Standard
  0
DICTIONARYVAR
  5
1B8
102
{ACAD_REACTORS
330
1B7
102
}
330
1B7
100
DictionaryVariables
280
     0
  1
Standard
  0
DICTIONARYVAR
  5
1BC
102
{ACAD_REACTORS
330
1B7
102
}
330
1B7
100
DictionaryVariables
280
     0
  1
2
  0
DICTIONARYVAR
  5
1BD
102
{ACAD_REACTORS
330
1B7
102
}
330
1B7
100
DictionaryVariables
280
     0
  1
1
  0
DICTIONARYVAR
  5
1C1
102
{ACAD_REACTORS
330
1B7
102
}
330
1B7
100
DictionaryVariables
280
     0
  1
1
  0
DICTIONARY
  5
1C4
330
45
100
AcDbDictionary
280
     1
  3
ACAD_XREC_ROUNDTRIP
360
1C5
  0
DICTIONARY
  5
1C2
330
44
100
AcDbDictionary
280
     1
  3
ACAD_XREC_ROUNDTRIP
360
1C3
  0
DICTIONARY
  5
1C6
330
46
100
AcDbDictionary
280
     1
  3
ACAD_XREC_ROUNDTRIP
360
1C7
  0
XRECORD
  5
1C5
102
{ACAD_REACTORS
330
1C4
102
}
330
1C4
100
AcDbXrecord
102
MATERIAL
148
0.0
149
0.0
149
0.0
 93
        0
 94
      127
282
     0
 72
     1
 77
     1
171
     1
175
     1
179
     1
273
     0
  0
XRECORD
  5
1C3
102
{ACAD_REACTORS
330
1C2
102
}
330
1C2
100
AcDbXrecord
102
MATERIAL
148
0.0
149
0.0
149
0.0
 93
        0
 94
      127
282
     0
 72
     1
 77
     1
171
     1
175
     1
179
     1
273
     0
  0
XRECORD
  5
1C7
102
{ACAD_REACTORS
330
1C6
102
}
330
1C6
100
AcDbXrecord
102
MATERIAL
148
0.0
149
0.0
149
0.0
 93
        0
 94
      127
282
     0
 72
     1
 77
     1
171
     1
175
     1
179
     1
273
     0
  0
ENDSEC
  0
EOF
