0
SECTION
2
HEADER
9
$INSUNITS
70
4
9
$ACADVER
1
AC1014
9
$HANDSEED
5
FFFF
0
ENDSEC
0
SECTION
2
TABLES
0
TABLE
2
VPORT
5
8
100
AcDbSymbolTable
0
ENDTAB
0
TABLE
2
LTYPE
5
5
100
AcDbSymbolTable
0
LTYPE
5
14
100
AcDbSymbolTableRecord
100
AcDbLinetypeTableRecord
2
BYBLOCK
70
0
0
LTYPE
5
15
100
AcDbSymbolTableRecord
100
AcDbLinetypeTableRecord
2
BYLAYER
70
0
0
ENDTAB
0
TABLE
2
LAYER
5
2
100
AcDbSymbolTable
70
2
0
LAYER
5
50
100
AcDbSymbolTableRecord
100
AcDbLayerTableRecord
2
0
70
0
6
CONTINUOUS
0
ENDTAB
0
TABLE
2
STYLE
5
3
100
AcDbSymbolTable
70
1
0
STYLE
5
11
100
AcDbSymbolTableRecord
100
AcDbTextStyleTableRecord
2
STANDARD
70
0
0
ENDTAB
0
TABLE
2
VIEW
5
6
100
AcDbSymbolTable
70
0
0
ENDTAB
0
TABLE
2
UCS
5
7
100
AcDbSymbolTable
70
0
0
ENDTAB
0
TABLE
2
APPID
5
9
100
AcDbSymbolTable
70
2
0
APPID
5
12
100
AcDbSymbolTableRecord
100
AcDbRegAppTableRecord
2
ACAD
70
0
0
ENDTAB
0
TABLE
2
DIMSTYLE
5
A
100
AcDbSymbolTable
70
1
0
ENDTAB
0
TABLE
2
BLOCK_RECORD
5
1
100
AcDbSymbolTable
70
1
0
BLOCK_RECORD
5
1F
100
AcDbSymbolTableRecord
100
AcDbBlockTableRecord
2
*MODEL_SPACE
0
BLOCK_RECORD
5
1B
100
AcDbSymbolTableRecord
100
AcDbBlockTableRecord
2
*PAPER_SPACE
0
ENDTAB
0
ENDSEC
0
SECTION
2
BLOCKS
0
BLOCK
5
20
100
AcDbEntity
100
AcDbBlockBegin
2
*MODEL_SPACE
0
ENDBLK
5
21
100
AcDbEntity
100
AcDbBlockEnd
0
BLOCK
5
1C
100
AcDbEntity
100
AcDbBlockBegin
2
*PAPER_SPACE
0
ENDBLK
5
1D
100
AcDbEntity
100
AcDbBlockEnd
0
ENDSEC
0
SECTION
2
ENTITIES
0
LWPOLYLINE
5
100
100
AcDbEntity
8
0
100
AcDbPolyline
90
4
70
1
43
0.0
10
-50
20
50
10
50
20
50
10
50
20
-50
10
-50
20
-50
0
LINE
5
101
100
AcDbEntity
8
0
100
AcDbLine
10
-50
20
10
30
0
11
50
21
10
31
0
0
LINE
5
102
100
AcDbEntity
8
0
100
AcDbLine
10
-10
20
50
30
0
11
-10
21
-50
31
0
0
LWPOLYLINE
5
103
100
AcDbEntity
8
0
100
AcDbPolyline
90
4
70
1
43
0.0
10
23.558354272143585
20
9.9999999999999982
42
0.27000306977996413
10
2.0278051718225476
20
22.027805141489303
42
-0.2700030695870741
10
23.558354263177247
20
9.9999999848333729
42
-0.27000306958707398
10
2.0278051712868161
20
-2.0278051712868139
42
0.27000306977996402
0
LWPOLYLINE
5
104
100
AcDbEntity
8
0
100
AcDbPolyline
90
12
70
1
43
0.0
10
2.0278051712868139
20
22.027805171286818
42
0.27000306977996391
10
-9.9999999999999911
20
43.558354272143575
42
0.27000306977996424
10
-22.027805171286808
20
22.027805171286801
42
0.2700030695870741
10
-43.558354237522785
20
9.9999999999999964
42
0.27000306958707415
10
-22.027805171286801
20
-2.0278051712868095
42
0.27000306977996397
10
-10.000000000000011
20
-23.558354272143575
42
0.27000306977996419
10
2.027805141489305
20
-2.0278051718225476
42
-0.2700030695870741
10
-10.000000015166613
20
-23.558354263177243
42
-0.2700030695870741
10
-22.027805171286801
20
-2.0278051712867984
42
-0.27000306977996424
10
-43.558354272143561
20
10.000000000000007
42
-0.27000306977996391
10
-22.027805141489299
20
22.02780517182255
42
-0.2700030695870741
10
-9.9999999848333658
20
43.558354263177243
42
-0.27000306958707387
0
LWPOLYLINE
5
105
100
AcDbEntity
8
0
100
AcDbPolyline
90
4
70
1
43
0.0
10
-9.9999999999999964
20
18.62188267543338
42
0.10893240661638119
10
-20.024828623867243
20
21.909618133199984
42
-0.25755132348699089
10
-10.000000000000002
20
41.197707116570342
42
-0.257551323486991
10
0.024828623867236832
20
21.909618133199977
42
0.108932406616381
0
LWPOLYLINE
5
106
100
AcDbEntity
8
0
100
AcDbPolyline
90
8
70
1
43
0.0
10
-10
20
16.261235554480947
42
0.11859326126233186
10
-19.882717061025112
20
19.882717061025108
42
0.1185932612623318
10
-16.261235554480947
20
10
42
0.11859326126233193
10
-19.882717061025115
20
0.11728293897489195
42
0.1185932612623318
10
-10
20
3.7387644455190516
42
0.1185932612623318
10
-0.11728293897488751
20
0.11728293897489084
42
0.11859326126233168
10
-3.7387644455190516
20
10
42
0.11859326126233168
10
-0.11728293897489195
20
19.882717061025108
42
0.1185932612623318
0
LWPOLYLINE
5
107
100
AcDbEntity
8
0
100
AcDbPolyline
90
4
70
1
43
0.0
10
-21.90961813319997
20
20.024828623867243
42
0.25755132348699111
10
-41.197707116570342
20
10
42
0.25755132348699084
10
-21.909618133199977
20
-0.024828623867247934
42
-0.1089324066163813
10
-18.62188267543338
20
10.000000000000002
42
-0.10893240661638119
0
LWPOLYLINE
5
108
100
AcDbEntity
8
0
100
AcDbPolyline
90
4
70
1
43
0.0
10
-20.02482862386724
20
-1.9096181331999862
42
0.10893240661638119
10
-9.9999999999999982
20
1.3781173245666256
42
0.10893240661638126
10
0.024828623867241273
20
-1.9096181331999751
42
-0.257551323486991
10
-9.9999999999999947
20
-21.197707116570346
42
-0.25755132348699089
0
LWPOLYLINE
5
109
100
AcDbEntity
8
0
100
AcDbPolyline
90
4
70
1
43
0.0
10
1.9096181331999784
20
-0.024828623867247934
42
0.257551323486991
10
21.197707116570346
20
10
42
0.25755132348699111
10
1.9096181331999762
20
20.024828623867236
42
-0.10893240661638119
10
-1.3781173245666296
20
10.000000000000014
42
-0.10893240661638141
0
CIRCLE
5
110
100
AcDbEntity
8
0
100
AcDbCircle
10
75
20
0
30
0
40
28.284271247461902
210
0
220
0
230
1
0
LWPOLYLINE
5
111
100
AcDbEntity
8
0
100
AcDbPolyline
90
8
70
1
43
0.0
10
-19.36940275681777
20
-14.72229761970028
42
0.2700030695870741
10
-16.444762330526697
20
-39.210644209638367
42
0.27000306977996391
10
-26.793575954214539
20
-61.596682233482824
42
0.27000306977996424
10
-2.3052293542155899
20
-58.672041763050373
42
-0.2700030695870741
10
-26.793575955875333
20
-61.596682215942515
42
-0.2700030695870741
10
-16.444762330526686
20
-39.21064420963836
42
-0.27000306977996424
10
-19.369402777167362
20
-14.722297591691451
42
-0.27000306977996391
10
3.0166352466771063
20
-25.07111121537929
42
0.27000306958707387
0
LWPOLYLINE
5
112
100
AcDbEntity
8
0
100
AcDbPolyline
90
8
70
1
43
0.0
10
5.4211489245644717
20
-38.191314581057547
42
0.1185932612623318
10
2.54207366712351
20
-28.067375107092417
42
0.11859326126233175
10
-3.3245589648484519
20
-36.806130531750995
42
0.1185932612623318
10
-13.448498438813591
20
-39.685205789191961
42
0.1185932612623318
10
-4.7097430141550012
20
-45.551838421163914
42
0.1185932612623318
10
-1.8306677567140506
20
-55.675777895129045
42
0.11859326126233186
10
4.0359648752579176
20
-46.93702247047046
42
0.11859326126233168
10
14.159904349223053
20
-44.057947213029507
42
0.11859326126233186
0
LWPOLYLINE
5
113
100
AcDbEntity
8
0
100
AcDbPolyline
90
4
70
1
43
0.0
10
17.156168240936175
20
-44.532508792583116
42
0.27000306977996408
10
27.504981864624014
20
-22.146470768738627
42
0.27000306977996419
10
3.0166352646250627
20
-25.071111239171078
42
-0.27000306958707398
10
27.504981866284808
20
-22.14647078627895
42
-0.2700030695870741
0
LWPOLYLINE
5
114
100
AcDbEntity
8
0
100
AcDbPolyline
90
4
70
1
43
0.0
10
15.883232843348164
20
-42.981535324385796
42
0.25755132348699106
10
25.595178198042383
20
-23.534024352650746
42
0.25755132348699106
10
4.0983399996109418
20
-26.761021879575758
42
-0.10893240661638119
10
7.3309525631372638
20
-36.80376101749502
42
-0.1089324066163813
0
LWPOLYLINE
5
115
100
AcDbEntity
8
0
100
AcDbPolyline
90
4
70
1
43
0.0
10
1.4656617784797854
20
-26.344046612967304
42
0.257551323486991
10
-17.98184919325525
20
-16.632101258273082
42
0.25755132348699095
10
-14.754851666330255
20
-38.128939456704522
42
-0.1089324066163813
10
-4.7121125284109819
20
-34.896326893178184
42
-0.10893240661638119
0
LWPOLYLINE
5
116
100
AcDbEntity
8
0
100
AcDbPolyline
90
4
70
1
43
0.0
10
-24.883772287632915
20
-60.209128649570715
42
0.25755132348699084
10
-3.3869340892014805
20
-56.982131122645718
42
-0.1089324066163813
10
-6.6195466527278128
20
-46.939391984726427
42
-0.10893240661638119
10
-15.171826932938693
20
-40.761617677835673
42
0.25755132348699111
0
LWPOLYLINE
5
117
100
AcDbEntity
8
0
100
AcDbPolyline
90
4
70
1
43
0.0
10
-2.3052293362676357
20
-58.672041786842158
42
0.2700030695870741
10
20.080808667227245
20
-69.020855382521191
42
0.27000306958707398
10
17.156168240936157
20
-44.532508792583116
42
-0.27000306977996413
10
20.080808687576827
20
-69.020855410530004
42
-0.27000306977996402
0
LWPOLYLINE
5
118
100
AcDbEntity
8
0
100
AcDbPolyline
90
4
70
1
43
0.0
10
18.693255103664715
20
-67.11105174394838
42
0.25755132348699095
10
15.466257576739704
20
-45.61421354551694
42
-0.10893240661638119
10
5.4235184388204569
20
-48.846826109043263
42
-0.1089324066163813
10
-0.75425586807031486
20
-57.399106389254165
42
0.25755132348699095
0
LINE
5
119
100
AcDbEntity
8
0
100
AcDbLine
10
-55.516386911492084
20
-33.022306817811753
30
0
11
25.385312526002657
21
25.756218411435547
31
0
0
LINE
5
120
100
AcDbEntity
8
0
100
AcDbLine
10
3.2621383177552143
20
-113.92400625530649
30
0
11
-55.516386911492084
21
-33.022306817811753
31
0
0
LWPOLYLINE
5
121
100
AcDbEntity
8
0
100
AcDbPolyline
90
8
70
1
43
0.0
10
7.3070988414408156
20
-67.379532178689516
42
0.27000306958707415
10
24.067071627338564
20
-85.471960223260965
42
0.27000306977996391
10
28.852888541830431
20
-109.66552544800203
42
0.27000306977996413
10
46.945316568595636
20
-92.905552620479568
42
-0.27000306958707398
10
28.85288853017688
20
-109.66552543478781
42
-0.2700030695870741
10
24.067071627338574
20
-85.471960223260936
42
-0.27000306977996424
10
7.3070988085144783
20
-67.379532167991101
42
-0.2700030697799638
10
31.50066403325555
20
-62.593715253499212
42
0.27000306958707376
0
LWPOLYLINE
5
122
100
AcDbEntity
8
0
100
AcDbPolyline
90
8
70
1
43
0.0
10
41.157818507297186
20
-71.794845067190579
42
0.11859326126233175
10
32.877895378044705
20
-65.296683959293375
42
0.1185932612623318
10
33.268201441029923
20
-75.814805749219317
42
0.11859326126233193
10
26.770040333132712
20
-84.094728878471813
42
0.1185932612623318
10
37.288162123058669
20
-83.704422815486595
42
0.1185932612623318
10
45.56808525231115
20
-90.202583923383798
42
0.1185932612623318
10
45.177779189325932
20
-79.684462133457842
42
0.11859326126233186
10
51.675940297223136
20
-71.404539004205361
42
0.11859326126233162
0
LWPOLYLINE
5
123
100
AcDbEntity
8
0
100
AcDbPolyline
90
4
70
1
43
0.0
10
54.378909003017299
20
-70.027307659416209
42
0.27000306977996402
10
49.593092088525417
20
-45.833742434675116
42
0.27000306977996419
10
31.500664061760219
20
-62.593715262197634
42
-0.2700030695870741
10
49.593092100178978
20
-45.833742447889364
42
-0.27000306958707387
0
LWPOLYLINE
5
124
100
AcDbEntity
8
0
100
AcDbPolyline
90
4
70
1
43
0.0
10
52.437443302323878
20
-69.52075641964322
42
0.25755132348699095
10
48.863611999730395
20
-48.078851294656673
42
0.25755132348699111
10
33.369086127381635
20
-63.325071598700433
42
-0.10893240661638119
10
41.887298585393758
20
-69.54973624013536
42
-0.10893240661638141
0
LWPOLYLINE
5
125
100
AcDbEntity
8
0
100
AcDbPolyline
90
4
70
1
43
0.0
10
30.994112793482557
20
-64.53518095419264
42
0.25755132348699095
10
9.5522076684960133
20
-68.109012256786116
42
0.25755132348699089
10
24.798427972539756
20
-83.603538129134876
42
-0.10893240661638141
10
31.023092613974708
20
-75.085325671122717
42
-0.10893240661638097
0
LWPOLYLINE
5
126
100
AcDbEntity
8
0
100
AcDbPolyline
90
4
70
1
43
0.0
10
29.582368630625449
20
-107.4204165880205
42
0.25755132348699095
10
45.076894502974206
20
-92.174196283976755
42
-0.1089324066163813
10
36.558682044962062
20
-85.949531642541785
42
-0.10893240661638108
10
26.008537328031984
20
-85.978511463033954
42
0.25755132348699106
0
LWPOLYLINE
5
127
100
AcDbEntity
8
0
100
AcDbPolyline
90
4
70
1
43
0.0
10
46.945316597100295
20
-92.905552629177947
42
0.27000306958707415
10
71.138881788915043
20
-88.119735703987644
42
0.27000306958707387
10
54.378909003017299
20
-70.027307659416238
42
-0.27000306977996402
10
71.13888182184138
20
-88.119735714686072
42
-0.27000306977996402
0
LWPOLYLINE
5
128
100
AcDbEntity
8
0
100
AcDbPolyline
90
4
70
1
43
0.0
10
68.893772961859838
20
-87.390255625891058
42
0.25755132348699095
10
53.647552657816071
20
-71.895729753542298
42
-0.10893240661638119
10
47.422888016381144
20
-80.413942211554428
42
-0.1089324066163813
10
47.451867836873305
20
-90.964086928484534
42
0.25755132348699095
0
LINE
5
129
100
AcDbEntity
8
0
100
AcDbLine
10
-11.179950111626118
20
-103.43121481814684
30
0
11
19.721749325868629
21
-8.3255631886314685
31
0
0
LINE
5
130
100
AcDbEntity
8
0
100
AcDbLine
10
83.925701517889237
20
-134.33291425564158
30
0
11
-11.179950111626118
21
-103.43121481814684
31
0
0
LWPOLYLINE
5
131
100
AcDbEntity
8
0
100
AcDbPolyline
90
8
70
1
43
0.0
10
59.839987885181891
20
-94.300075591486603
42
0.27000306958707415
10
84.03355307699664
20
-99.085892516676907
42
0.27000306977996391
10
102.12598113226647
20
-115.84586533550097
42
0.27000306977996413
10
106.91179801858482
20
-91.652300120477349
42
-0.2700030695870741
10
102.12598111507143
20
-115.84586533166026
42
-0.2700030695870741
10
84.03355307699664
20
-99.085892516676893
42
-0.27000306977996424
10
59.839987852255526
20
-94.300075602185018
42
-0.27000306977996391
10
76.599960671079629
20
-76.207647546915169
42
0.27000306958707382
0
LWPOLYLINE
5
132
100
AcDbEntity
8
0
100
AcDbPolyline
90
8
70
1
43
0.0
10
89.821051166799748
20
-77.975184954689524
42
0.1185932612623318
10
79.302929376873777
20
-77.584878891704307
42
0.1185932612623318
10
85.801090484770995
20
-85.864802020956787
42
0.1185932612623318
10
85.410784421785763
20
-96.382923810882758
42
0.11859326126233193
10
93.690707551038258
20
-89.88476270298554
42
0.11859326126233193
10
104.20882934096423
20
-90.275068765970758
42
0.1185932612623318
10
97.710668233066997
20
-81.995145636718277
42
0.11859326126233175
10
98.100974296052229
20
-71.477023846792321
42
0.11859326126233193
0
LWPOLYLINE
5
133
100
AcDbEntity
8
0
100
AcDbPolyline
90
4
70
1
43
0.0
10
99.478205640841367
20
-68.774055140998172
42
0.27000306977996402
10
81.385777585571503
20
-52.014082322174069
42
0.27000306977996402
10
76.599960699253202
20
-76.207647537197701
42
-0.27000306958707398
10
81.385777602766581
20
-52.014082326014837
42
-0.27000306958707387
0
LWPOLYLINE
5
134
100
AcDbEntity
8
0
100
AcDbPolyline
90
4
70
1
43
0.0
10
97.609783546715292
20
-69.505411486199378
42
0.25755132348699095
10
82.115257674366532
20
-54.259191182155618
42
0.257551323486991
10
78.541426371773042
20
-75.701096307142166
42
-0.10893240661638119
10
89.091571088703148
20
-75.730076127634348
42
-0.10893240661638141
0
LWPOLYLINE
5
135
100
AcDbEntity
8
0
100
AcDbPolyline
90
4
70
1
43
0.0
10
77.331317016280849
20
-78.076069641041258
42
0.25755132348699095
10
62.085096712237089
20
-93.570595513390003
42
0.25755132348699084
10
83.527001837223622
20
-97.144426815983493
42
-0.10893240661638141
10
83.55598165771579
20
-86.594282099053373
42
-0.10893240661638097
0
LWPOLYLINE
5
136
100
AcDbEntity
8
0
100
AcDbPolyline
90
4
70
1
43
0.0
10
101.39650104347147
20
-113.60075647551945
42
0.25755132348699084
10
104.97033234606496
20
-92.158851350532927
42
-0.1089324066163813
10
94.42018762913483
20
-92.129871530040759
42
-0.10893240661638097
10
85.901975171122714
20
-98.354536171475672
42
0.25755132348699111
0
LWPOLYLINE
5
137
100
AcDbEntity
8
0
100
AcDbPolyline
90
4
70
1
43
0.0
10
106.91179804675838
20
-91.652300110759896
42
0.27000306958707404
10
123.67177083265614
20
-73.559872066188461
42
0.27000306958707415
10
99.478205640841367
20
-68.774055140998186
42
-0.27000306977996441
10
123.67177086558245
20
-73.559872055490047
42
-0.27000306977996402
0
LWPOLYLINE
5
138
100
AcDbEntity
8
0
100
AcDbPolyline
90
4
70
1
43
0.0
10
121.42666200560092
20
-74.289352144285061
42
0.257551323486991
10
99.984756880614341
20
-70.715520841691571
42
-0.1089324066163813
10
99.955777060122202
20
-81.265665558621677
42
-0.10893240661638141
10
106.18044170155716
20
-89.783878016633821
42
0.25755132348699095
0
LINE
5
139
100
AcDbEntity
8
0
100
AcDbLine
10
66.074298482110748
20
-134.33291425564158
30
0
11
35.172599044616007
21
-39.227262626126212
31
0
0
LINE
5
140
100
AcDbEntity
8
0
100
AcDbLine
10
161.17995011162611
20
-103.43121481814684
30
0
11
66.074298482110748
21
-134.33291425564158
31
0
0
LWPOLYLINE
5
141
100
AcDbEntity
8
0
100
AcDbPolyline
90
8
70
1
43
0.0
10
118.16348628692327
20
-85.201195270020122
42
0.27000306958707398
10
140.54952429041816
20
-74.852381674341117
42
0.27000306977996402
10
165.03787090836505
20
-77.777022120981798
42
0.27000306977996413
10
154.68905726759613
20
-55.39098412155888
42
-0.2700030695870741
10
165.03787089219642
20
-77.777022127981553
42
-0.27000306958707437
10
140.54952429041816
20
-74.852381674341117
42
-0.27000306977996413
10
118.16348626657366
20
-85.201195298028949
42
-0.27000306977996391
10
121.08812671321434
20
-60.712848680082061
42
0.27000306958707398
0
LWPOLYLINE
5
142
100
AcDbEntity
8
0
100
AcDbPolyline
90
8
70
1
43
0.0
10
132.82314602958604
20
-54.3716544685565
42
0.11859326126233193
10
124.08439060492746
20
-60.23828710052846
42
0.11859326126233198
10
134.2083300788926
20
-63.117362357969419
42
0.11859326126233186
10
140.07496271086455
20
-71.856117782628004
42
0.11859326126233193
10
142.95403796830553
20
-61.732178308662867
42
0.11859326126233193
10
151.69279339296412
20
-55.865545676690914
42
0.11859326126233198
10
141.56885391899897
20
-52.986470419249954
42
0.11859326126233186
10
135.70222128702702
20
-44.247714994591369
42
0.11859326126233193
0
LWPOLYLINE
5
143
100
AcDbEntity
8
0
100
AcDbPolyline
90
4
70
1
43
0.0
10
135.22765970747341
20
-41.251451102878249
42
0.27000306977996408
10
110.73931308952652
20
-38.326810656237576
42
0.27000306977996402
10
121.08812673029544
20
-60.712848655660459
42
-0.27000306958707387
10
110.73931310569515
20
-38.3268106492378
42
-0.2700030695870741
0
LWPOLYLINE
5
144
100
AcDbEntity
8
0
100
AcDbPolyline
90
4
70
1
43
0.0
10
134.1459549545396
20
-42.94136176707471
42
0.257551323486991
10
112.64911675610816
20
-39.714364240149706
42
0.25755132348699111
10
122.36106211080235
20
-59.161875211884748
42
-0.1089324066163813
10
130.91334239101326
20
-52.98410090499398
42
-0.1089324066163813
0
LWPOLYLINE
5
145
100
AcDbEntity
8
0
100
AcDbPolyline
90
4
70
1
43
0.0
10
122.77803737741081
20
-61.794553433015899
42
0.25755132348699106
10
119.55103985048581
20
-83.291391631447325
42
0.25755132348699089
10
138.99855082222084
20
-73.579446276753131
42
-0.10893240661638141
10
132.82077651533007
20
-65.027165996542223
42
-0.10893240661638119
0
LWPOLYLINE
5
146
100
AcDbEntity
8
0
100
AcDbPolyline
90
4
70
1
43
0.0
10
163.12806724178344
20
-76.389468537069675
42
0.25755132348699089
10
153.41612188708922
20
-56.941957565334633
42
-0.1089324066163813
10
144.86384160687831
20
-63.119731872225401
42
-0.1089324066163813
10
141.63122904335199
20
-73.162471010144657
42
0.25755132348699122
0
LWPOLYLINE
5
147
100
AcDbEntity
8
0
100
AcDbPolyline
90
4
70
1
43
0.0
10
154.6890572846772
20
-55.390984097137313
42
0.2700030695870741
10
157.6136977109683
20
-30.902637507199238
42
0.27000306958707393
10
135.22765970747341
20
-41.251451102878256
42
-0.27000306977996413
10
157.61369773131787
20
-30.902637479190425
42
-0.27000306977996413
0
LWPOLYLINE
5
148
100
AcDbEntity
8
0
100
AcDbPolyline
90
4
70
1
43
0.0
10
156.22614414740579
20
-32.812441145772048
42
0.25755132348699117
10
136.77863317567073
20
-42.524386500466264
42
-0.1089324066163813
10
142.9564074825615
20
-51.076666780677144
42
-0.10893240661638119
10
152.99914662048076
20
-54.309279344203475
42
0.25755132348699095
0
LINE
5
149
100
AcDbEntity
8
0
100
AcDbLine
10
146.73786168224473
20
-113.92400625530652
30
0
11
65.836162244750028
21
-55.145481026059187
31
0
0
LINE
5
150
100
AcDbEntity
8
0
100
AcDbLine
10
205.51638691149208
20
-33.022306817811781
30
0
11
146.73786168224473
21
-113.92400625530652
31
0
0
LWPOLYLINE
5
151
100
AcDbEntity
8
0
100
AcDbPolyline
90
8
70
1
43
0.0
10
160
20
-43.558354237522778
42
0.27000306958707404
10
172.02780517128679
20
-22.027805171286815
42
0.27000306977996402
10
193.55835427214359
20
-10.000000000000025
42
0.27000306977996424
10
172.02780517182254
20
2.0278051414893183
42
-0.2700030695870741
10
193.55835426317722
20
-10.000000015166616
42
-0.2700030695870741
10
172.02780517128679
20
-22.027805171286818
42
-0.27000306977996424
10
159.99999999999997
20
-43.558354272143582
42
-0.27000306977996402
10
147.97219482871319
20
-22.027805171286829
42
0.27000306958707404
0
LWPOLYLINE
5
152
100
AcDbEntity
8
0
100
AcDbPolyline
90
8
70
1
43
0.0
10
153.73876444551905
20
-10.000000000000007
42
0.1185932612623318
10
150.11728293897488
20
-19.882717061025119
42
0.11859326126233168
10
160
20
-16.261235554480958
42
0.11859326126233211
10
169.88271706102512
20
-19.882717061025119
42
0.11859326126233198
10
166.26123555448092
20
-10.000000000000014
42
0.11859326126233186
10
169.88271706102512
20
-0.11728293897490527
42
0.11859326126233211
10
160
20
-3.7387644455190627
42
0.1185932612623318
10
150.11728293897488
20
-0.1172829389749
42
0.11859326126233186
0
LWPOLYLINE
5
153
100
AcDbEntity
8
0
100
AcDbPolyline
90
4
70
1
43
0.0
10
147.97219482871319
20
2.027805171286805
42
0.27000306977996402
10
126.44164572785641
20
-10.000000000000004
42
0.27000306977996413
10
147.97219482817744
20
-22.027805141489321
42
-0.27000306958707398
10
126.44164573682275
20
-9.9999999848333836
42
-0.27000306958707398
0
LWPOLYLINE
5
154
100
AcDbEntity
8
0
100
AcDbPolyline
90
4
70
1
43
0.0
10
148.09038186680002
20
0.024828623867239052
42
0.25755132348699095
10
128.80229288342966
20
-10.000000000000007
42
0.257551323486991
10
148.09038186680002
20
-20.024828623867251
42
-0.1089324066163813
10
151.37811732456663
20
-10.000000000000027
42
-0.10893240661638154
0
LWPOLYLINE
5
155
100
AcDbEntity
8
0
100
AcDbPolyline
90
4
70
1
43
0.0
10
149.97517137613275
20
-21.909618133199984
42
0.25755132348699122
10
160
20
-41.197707116570356
42
0.25755132348699084
10
170.02482862386725
20
-21.909618133199984
42
-0.10893240661638141
10
160
20
-18.62188267543339
42
-0.10893240661638119
0
LWPOLYLINE
5
156
100
AcDbEntity
8
0
100
AcDbPolyline
90
4
70
1
43
0.0
10
191.19770711657031
20
-10.000000000000014
42
0.25755132348699078
10
171.90961813319998
20
0.02482862386722795
42
-0.10893240661638119
10
168.62188267543337
20
-10.000000000000014
42
-0.10893240661638119
10
171.90961813319998
20
-20.024828623867247
42
0.25755132348699078
0
LWPOLYLINE
5
157
100
AcDbEntity
8
0
100
AcDbPolyline
90
4
70
1
43
0.0
10
172.02780517128679
20
2.0278051712867975
42
0.27000306958707404
10
160
20
23.558354237522767
42
0.27000306958707421
10
147.97219482871316
20
2.0278051712868006
42
-0.27000306977996424
10
160
20
23.558354272143557
42
-0.27000306977996413
0
LWPOLYLINE
5
158
100
AcDbEntity
8
0
100
AcDbPolyline
90
4
70
1
43
0.0
10
160
20
21.197707116570335
42
0.25755132348699117
10
149.97517137613275
20
1.9096181331999673
42
-0.1089324066163813
10
159.99999999999997
20
-1.3781173245666163
42
-0.1089324066163813
10
170.02482862386725
20
1.9096181331999769
42
0.25755132348699089
0
LINE
5
159
100
AcDbEntity
8
0
100
AcDbLine
10
200
20
-50.000000000000014
30
0
11
100
21
-50
31
0
0
LINE
5
160
100
AcDbEntity
8
0
100
AcDbLine
10
200
20
49.999999999999986
30
0
11
200
21
-50.000000000000014
31
0
0
LWPOLYLINE
5
161
100
AcDbEntity
8
0
100
AcDbPolyline
90
8
70
1
43
0.0
10
169.36940275681778
20
14.722297619700271
42
0.2700030695870741
10
166.44476233052671
20
39.21064420963836
42
0.27000306977996413
10
176.79357595421459
20
61.596682233482824
42
0.27000306977996441
10
152.30522935421561
20
58.672041763050387
42
-0.27000306958707421
10
176.79357595587535
20
61.596682215942508
42
-0.27000306958707421
10
166.44476233052671
20
39.210644209638339
42
-0.27000306977996424
10
169.36940277716735
20
14.722297591691454
42
-0.27000306977996369
10
146.98336475332292
20
25.071111215379283
42
0.27000306958707376
0
LWPOLYLINE
5
162
100
AcDbEntity
8
0
100
AcDbPolyline
90
8
70
1
43
0.0
10
144.57885107543555
20
38.19131458105754
42
0.11859326126233193
10
147.45792633287653
20
28.06737510709241
42
0.11859326126233175
10
153.32455896484848
20
36.806130531750995
42
0.11859326126233205
10
163.44849843881363
20
39.685205789191954
42
0.11859326126233198
10
154.70974301415504
20
45.551838421163914
42
0.11859326126233168
10
151.83066775671409
20
55.675777895129045
42
0.11859326126233193
10
145.96403512474211
20
46.93702247047046
42
0.11859326126233193
10
135.84009565077696
20
44.057947213029507
42
0.11859326126233193
0
LWPOLYLINE
5
163
100
AcDbEntity
8
0
100
AcDbPolyline
90
4
70
1
43
0.0
10
132.84383175906385
20
44.532508792583101
42
0.27000306977996413
10
122.495018135376
20
22.146470768738624
42
0.27000306977996413
10
146.98336473537495
20
25.071111239171078
42
-0.2700030695870741
10
122.49501813371521
20
22.146470786278964
42
-0.27000306958707398
0
LWPOLYLINE
5
164
100
AcDbEntity
8
0
100
AcDbPolyline
90
4
70
1
43
0.0
10
134.11676715665186
20
42.981535324385788
42
0.25755132348699106
10
124.40482180195764
20
23.534024352650746
42
0.25755132348699111
10
145.90166000038909
20
26.761021879575747
42
-0.1089324066163813
10
142.66904743686277
20
36.803761017495013
42
-0.10893240661638141
0
LWPOLYLINE
5
165
100
AcDbEntity
8
0
100
AcDbPolyline
90
4
70
1
43
0.0
10
148.53433822152024
20
26.344046612967304
42
0.25755132348699122
10
167.9818491932553
20
16.632101258273071
42
0.25755132348699072
10
164.7548516663303
20
38.128939456704515
42
-0.10893240661638141
10
154.71211252841098
20
34.896326893178191
42
-0.10893240661638119
0
LWPOLYLINE
5
166
100
AcDbEntity
8
0
100
AcDbPolyline
90
4
70
1
43
0.0
10
174.88377228763295
20
60.209128649570715
42
0.25755132348699089
10
153.3869340892015
20
56.982131122645718
42
-0.1089324066163813
10
156.61954665272785
20
46.939391984726441
42
-0.10893240661638108
10
165.17182693293873
20
40.761617677835673
42
0.25755132348699106
0
LWPOLYLINE
5
167
100
AcDbEntity
8
0
100
AcDbPolyline
90
4
70
1
43
0.0
10
152.30522933626764
20
58.672041786842158
42
0.27000306958707398
10
129.91919133277278
20
69.020855382521205
42
0.27000306958707404
10
132.84383175906387
20
44.532508792583116
42
-0.27000306977996413
10
129.91919131242321
20
69.020855410530004
42
-0.27000306977996402
0
LWPOLYLINE
5
168
100
AcDbEntity
8
0
100
AcDbPolyline
90
4
70
1
43
0.0
10
131.30674489633532
20
67.11105174394838
42
0.25755132348699095
10
134.53374242326032
20
45.61421354551694
42
-0.1089324066163813
10
144.57648156117958
20
48.846826109043278
42
-0.10893240661638119
10
150.75425586807035
20
57.399106389254165
42
0.25755132348699089
0
LINE
5
169
100
AcDbEntity
8
0
100
AcDbLine
10
205.51638691149211
20
33.022306817811746
30
0
11
124.61468747399735
21
-25.756218411435555
31
0
0
LINE
5
170
100
AcDbEntity
8
0
100
AcDbLine
10
146.73786168224481
20
113.92400625530652
30
0
11
205.51638691149211
21
33.022306817811746
31
0
0
LWPOLYLINE
5
171
100
AcDbEntity
8
0
100
AcDbPolyline
90
8
70
1
43
0.0
10
142.69290115855915
20
67.379532178689502
42
0.27000306958707404
10
125.93292837266142
20
85.471960223260936
42
0.27000306977996374
10
121.14711145816956
20
109.665525448002
42
0.27000306977996424
10
103.05468343140436
20
92.905552620479511
42
-0.2700030695870741
10
121.1471114698231
20
109.66552543478777
42
-0.27000306958707387
10
125.93292837266139
20
85.471960223260922
42
-0.27000306977996441
10
142.6929011914855
20
67.379532167991073
42
-0.27000306977996391
10
118.49933596674444
20
62.593715253499198
42
0.27000306958707398
0
LWPOLYLINE
5
172
100
AcDbEntity
8
0
100
AcDbPolyline
90
8
70
1
43
0.0
10
108.84218149270282
20
71.794845067190565
42
0.11859326126233175
10
117.12210462195529
20
65.296683959293361
42
0.1185932612623318
10
116.73179855897007
20
75.814805749219303
42
0.11859326126233193
10
123.2299596668673
20
84.094728878471798
42
0.11859326126233205
10
112.71183787694133
20
83.704422815486566
42
0.11859326126233193
10
104.43191474768884
20
90.202583923383784
42
0.11859326126233198
10
104.82222081067407
20
79.684462133457828
42
0.11859326126233193
10
98.32405970277685
20
71.404539004205333
42
0.11859326126233193
0
LWPOLYLINE
5
173
100
AcDbEntity
8
0
100
AcDbPolyline
90
4
70
1
43
0.0
10
95.621090996982701
20
70.027307659416195
42
0.27000306977996413
10
100.40690791147458
20
45.833742434675102
42
0.27000306977996402
10
118.49933593823977
20
62.593715262197605
42
-0.27000306958707387
10
100.40690789982105
20
45.83374244788935
42
-0.2700030695870741
0
LWPOLYLINE
5
174
100
AcDbEntity
8
0
100
AcDbPolyline
90
4
70
1
43
0.0
10
97.562556697676129
20
69.520756419643192
42
0.25755132348699106
10
101.1363880002696
20
48.078851294656658
42
0.257551323486991
10
116.63091387261836
20
63.325071598700418
42
-0.10893240661638119
10
108.11270141460624
20
69.54973624013536
42
-0.1089324066163813
0
LWPOLYLINE
5
175
100
AcDbEntity
8
0
100
AcDbPolyline
90
4
70
1
43
0.0
10
119.00588720651743
20
64.535180954192626
42
0.25755132348699111
10
140.44779233150399
20
68.109012256786087
42
0.25755132348699089
10
125.20157202746023
20
83.603538129134847
42
-0.1089324066163813
10
118.97690738602527
20
75.085325671122717
42
-0.10893240661638119
0
LWPOLYLINE
5
176
100
AcDbEntity
8
0
100
AcDbPolyline
90
4
70
1
43
0.0
10
120.41763136937455
20
107.42041658802049
42
0.25755132348699089
10
104.92310549702577
20
92.174196283976727
42
-0.10893240661638141
10
113.44131795503796
20
85.949531642541757
42
-0.10893240661638119
10
123.99146267196801
20
85.978511463033911
42
0.25755132348699117
0
LWPOLYLINE
5
177
100
AcDbEntity
8
0
100
AcDbPolyline
90
4
70
1
43
0.0
10
103.0546834028997
20
92.905552629177919
42
0.27000306958707398
10
78.861118211084971
20
88.119735703987629
42
0.2700030695870741
10
95.62109099698273
20
70.027307659416195
42
-0.27000306977996424
10
78.86111817815862
20
88.119735714686058
42
-0.27000306977996402
0
LWPOLYLINE
5
178
100
AcDbEntity
8
0
100
AcDbPolyline
90
4
70
1
43
0.0
10
81.106227038140162
20
87.390255625891044
42
0.25755132348699106
10
96.352447342183922
20
71.89572975354227
42
-0.1089324066163813
10
102.57711198361886
20
80.413942211554399
42
-0.1089324066163813
10
102.5481321631267
20
90.964086928484505
42
0.25755132348699095
0
LINE
5
179
100
AcDbEntity
8
0
100
AcDbLine
10
161.17995011162611
20
103.4312148181468
30
0
11
130.27825067413136
21
8.3255631886314596
31
0
0
LINE
5
180
100
AcDbEntity
8
0
100
AcDbLine
10
66.074298482110763
20
134.33291425564155
30
0
11
161.17995011162611
21
103.4312148181468
31
0
0
LWPOLYLINE
5
181
100
AcDbEntity
8
0
100
AcDbPolyline
90
8
70
1
43
0.0
10
90.160012114818144
20
94.300075591486603
42
0.27000306958707398
10
65.966446923003403
20
99.085892516676893
42
0.27000306977996402
10
47.874018867733582
20
115.84586533550097
42
0.27000306977996424
10
43.088201981415224
20
91.652300120477349
42
-0.2700030695870741
10
47.874018884928624
20
115.84586533166024
42
-0.27000306958707421
10
65.966446923003403
20
99.085892516676864
42
-0.27000306977996424
10
90.160012147744482
20
94.30007560218499
42
-0.2700030697799638
10
73.400039328920414
20
76.207647546915155
42
0.27000306958707398
0
LWPOLYLINE
5
182
100
AcDbEntity
8
0
100
AcDbPolyline
90
8
70
1
43
0.0
10
60.178948833200295
20
77.975184954689524
42
0.11859326126233175
10
70.697070623126251
20
77.584878891704307
42
0.1185932612623318
10
64.198909515229033
20
85.864802020956787
42
0.1185932612623318
10
64.589215578214265
20
96.382923810882744
42
0.11859326126233175
10
56.309292448961784
20
89.88476270298554
42
0.11859326126233168
10
45.791170659035828
20
90.275068765970758
42
0.1185932612623318
10
52.289331766933032
20
81.995145636718277
42
0.11859326126233193
10
51.899025703947814
20
71.477023846792321
42
0.1185932612623318
0
LWPOLYLINE
5
183
100
AcDbEntity
8
0
100
AcDbPolyline
90
4
70
1
43
0.0
10
50.521794359158669
20
68.774055140998172
42
0.27000306977996397
10
68.614222414428511
20
52.014082322174069
42
0.27000306977996413
10
73.40003930074684
20
76.207647537197701
42
-0.27000306958707398
10
68.614222397233434
20
52.014082326014815
42
-0.27000306958707387
0
LWPOLYLINE
5
184
100
AcDbEntity
8
0
100
AcDbPolyline
90
4
70
1
43
0.0
10
52.390216453284744
20
69.505411486199378
42
0.257551323486991
10
67.884742325633511
20
54.259191182155611
42
0.25755132348699117
10
71.458573628226986
20
75.701096307142166
42
-0.1089324066163813
10
60.908428911296895
20
75.73007612763432
42
-0.1089324066163813
0
LWPOLYLINE
5
185
100
AcDbEntity
8
0
100
AcDbPolyline
90
4
70
1
43
0.0
10
72.668682983719194
20
78.076069641041244
42
0.25755132348699095
10
87.914903287762939
20
93.570595513389989
42
0.25755132348699095
10
66.472998162776406
20
97.144426815983493
42
-0.10893240661638141
10
66.444018342284238
20
86.594282099053373
42
-0.10893240661638119
0
LWPOLYLINE
5
186
100
AcDbEntity
8
0
100
AcDbPolyline
90
4
70
1
43
0.0
10
48.603498956528568
20
113.60075647551945
42
0.25755132348699089
10
45.029667653935093
20
92.158851350532899
42
-0.1089324066163813
10
55.579812370865199
20
92.129871530040731
42
-0.10893240661638108
10
64.098024828877328
20
98.354536171475672
42
0.25755132348699111
0
LWPOLYLINE
5
187
100
AcDbEntity
8
0
100
AcDbPolyline
90
4
70
1
43
0.0
10
43.088201953241672
20
91.652300110759896
42
0.27000306958707398
10
26.328229167343924
20
73.559872066188476
42
0.27000306958707398
10
50.521794359158669
20
68.774055140998172
42
-0.27000306977996413
10
26.328229134417597
20
73.559872055490061
42
-0.27000306977996391
0
LWPOLYLINE
5
188
100
AcDbEntity
8
0
100
AcDbPolyline
90
4
70
1
43
0.0
10
28.573337994399122
20
74.289352144285061
42
0.257551323486991
10
50.01524311938568
20
70.715520841691571
42
-0.1089324066163813
10
50.044222939877827
20
81.265665558621663
42
-0.1089324066163813
10
43.819558298442871
20
89.783878016633821
42
0.25755132348699089
0
LINE
5
189
100
AcDbEntity
8
0
100
AcDbLine
10
83.925701517889308
20
134.33291425564158
30
0
11
114.82740095538401
21
39.227262626126198
31
0
0
LINE
5
190
100
AcDbEntity
8
0
100
AcDbLine
10
-11.179950111626065
20
103.43121481814684
30
0
11
83.925701517889308
21
134.33291425564158
31
0
0
LWPOLYLINE
5
191
100
AcDbEntity
8
0
100
AcDbPolyline
90
8
70
1
43
0.0
10
31.836513713076716
20
85.20119527002015
42
0.2700030695870741
10
9.4504757095818288
20
74.852381674341132
42
0.27000306977996402
10
-15.037870908365058
20
77.777022120981812
42
0.27000306977996424
10
-4.689057267596124
20
55.390984121558908
42
-0.2700030695870741
10
-15.037870892196434
20
77.777022127981581
42
-0.2700030695870741
10
9.4504757095818359
20
74.852381674341132
42
-0.27000306977996413
10
31.836513733426326
20
85.201195298028964
42
-0.27000306977996391
10
28.911873286785649
20
60.712848680082075
42
0.27000306958707387
0
LWPOLYLINE
5
192
100
AcDbEntity
8
0
100
AcDbPolyline
90
8
70
1
43
0.0
10
17.176853970413937
20
54.371654468556514
42
0.11859326126233168
10
25.915609395072519
20
60.238287100528467
42
0.11859326126233193
10
15.79166992110739
20
63.117362357969427
42
0.1185932612623318
10
9.9250372891354299
20
71.856117782628019
42
0.11859326126233168
10
7.0459620316944722
20
61.732178308662888
42
0.11859326126233186
10
-1.6927933929641181
20
55.865545676690935
42
0.11859326126233186
10
8.4311460810010175
20
52.986470419249969
42
0.1185932612623318
10
14.297778712972981
20
44.247714994591377
42
0.1185932612623318
0
LWPOLYLINE
5
193
100
AcDbEntity
8
0
100
AcDbPolyline
90
4
70
1
43
0.0
10
14.772340292526581
20
41.251451102878249
42
0.27000306977996408
10
39.260686910473481
20
38.326810656237583
42
0.27000306977996419
10
28.911873269704529
20
60.712848655660487
42
-0.2700030695870741
10
39.26068689430484
20
38.326810649237814
42
-0.27000306958707398
0
LWPOLYLINE
5
194
100
AcDbEntity
8
0
100
AcDbPolyline
90
4
70
1
43
0.0
10
15.854045045460408
20
42.941361767074717
42
0.25755132348699095
10
37.350883243891857
20
39.714364240149706
42
0.25755132348699111
10
27.638937889197631
20
59.161875211884748
42
-0.10893240661638119
10
19.086657608986751
20
52.984100904994008
42
-0.10893240661638141
0
LWPOLYLINE
5
195
100
AcDbEntity
8
0
100
AcDbPolyline
90
4
70
1
43
0.0
10
27.221962622589182
20
61.794553433015906
42
0.257551323486991
10
30.448960149514193
20
83.29139163144734
42
0.25755132348699089
10
11.001449177779165
20
73.579446276753131
42
-0.10893240661638108
10
17.179223484669922
20
65.027165996542237
42
-0.10893240661638119
0
LWPOLYLINE
5
196
100
AcDbEntity
8
0
100
AcDbPolyline
90
4
70
1
43
0.0
10
-13.128067241783445
20
76.389468537069689
42
0.25755132348699084
10
-3.4161218870892309
20
56.941957565334647
42
-0.1089324066163813
10
5.1361583931216712
20
63.119731872225415
42
-0.10893240661638108
10
8.3687709566480066
20
73.162471010144671
42
0.25755132348699111
0
LWPOLYLINE
5
197
100
AcDbEntity
8
0
100
AcDbPolyline
90
4
70
1
43
0.0
10
-4.6890572846772223
20
55.39098409713732
42
0.27000306958707404
10
-7.6136977109683057
20
30.902637507199245
42
0.27000306958707404
10
14.772340292526573
20
41.251451102878278
42
-0.27000306977996424
10
-7.6136977313178988
20
30.902637479190442
42
-0.27000306977996402
0
LWPOLYLINE
5
198
100
AcDbEntity
8
0
100
AcDbPolyline
90
4
70
1
43
0.0
10
-6.2261441474057833
20
32.812441145772048
42
0.257551323486991
10
13.221366824329266
20
42.524386500466271
42
-0.1089324066163813
10
7.0435925174384799
20
51.076666780677151
42
-0.10893240661638108
10
-2.9991466204807771
20
54.309279344203489
42
0.25755132348699095
0
LINE
5
199
100
AcDbEntity
8
0
100
AcDbLine
10
3.2621383177552454
20
113.92400625530652
30
0
11
84.163837755249986
21
55.145481026059201
31
0
0
LINE
5
200
100
AcDbEntity
8
0
100
AcDbLine
10
-55.516386911492084
20
33.022306817811796
30
0
11
3.2621383177552454
21
113.92400625530652
31
0
0
ENDSEC
0
SECTION
2
OBJECTS
0
DICTIONARY
5
C
100
AcDbDictionary
3
ACAD_GROUP
350
D
3
ACAD_MLINESTYLE
350
17
0
DICTIONARY
5
D
100
AcDbDictionary
0
DICTIONARY
5
1A
330
C
100
AcDbDictionary
0
DICTIONARY
5
17
100
AcDbDictionary
0
ENDSEC
0
EOF
