0
SECTION
2
HEADER
9
$INSUNITS
70
4
9
$ACADVER
1
AC1014
9
$HANDSEED
5
FFFF
0
ENDSEC
0
SECTION
2
TABLES
0
TABLE
2
VPORT
5
8
100
AcDbSymbolTable
0
ENDTAB
0
TABLE
2
LTYPE
5
5
100
AcDbSymbolTable
0
LTYPE
5
14
100
AcDbSymbolTableRecord
100
AcDbLinetypeTableRecord
2
BYBLOCK
70
0
0
LTYPE
5
15
100
AcDbSymbolTableRecord
100
AcDbLinetypeTableRecord
2
BYLAYER
70
0
0
ENDTAB
0
TABLE
2
LAYER
5
2
100
AcDbSymbolTable
70
2
0
LAYER
5
50
100
AcDbSymbolTableRecord
100
AcDbLayerTableRecord
2
0
70
0
6
CONTINUOUS
0
ENDTAB
0
TABLE
2
STYLE
5
3
100
AcDbSymbolTable
70
1
0
STYLE
5
11
100
AcDbSymbolTableRecord
100
AcDbTextStyleTableRecord
2
STANDARD
70
0
0
ENDTAB
0
TABLE
2
VIEW
5
6
100
AcDbSymbolTable
70
0
0
ENDTAB
0
TABLE
2
UCS
5
7
100
AcDbSymbolTable
70
0
0
ENDTAB
0
TABLE
2
APPID
5
9
100
AcDbSymbolTable
70
2
0
APPID
5
12
100
AcDbSymbolTableRecord
100
AcDbRegAppTableRecord
2
ACAD
70
0
0
ENDTAB
0
TABLE
2
DIMSTYLE
5
A
100
AcDbSymbolTable
70
1
0
ENDTAB
0
TABLE
2
BLOCK_RECORD
5
1
100
AcDbSymbolTable
70
1
0
BLOCK_RECORD
5
1F
100
AcDbSymbolTableRecord
100
AcDbBlockTableRecord
2
*MODEL_SPACE
0
BLOCK_RECORD
5
1B
100
AcDbSymbolTableRecord
100
AcDbBlockTableRecord
2
*PAPER_SPACE
0
ENDTAB
0
ENDSEC
0
SECTION
2
BLOCKS
0
BLOCK
5
20
100
AcDbEntity
100
AcDbBlockBegin
2
*MODEL_SPACE
0
ENDBLK
5
21
100
AcDbEntity
100
AcDbBlockEnd
0
BLOCK
5
1C
100
AcDbEntity
100
AcDbBlockBegin
2
*PAPER_SPACE
0
ENDBLK
5
1D
100
AcDbEntity
100
AcDbBlockEnd
0
ENDSEC
0
SECTION
2
ENTITIES
0
LWPOLYLINE
5
100
100
AcDbEntity
8
0
100
AcDbPolyline
90
4
70
1
43
0.0
10
-119.21704355892864
20
11.920763038286209
42
0.56959953613672554
10
-121.64987005279104
20
9.4879365444238211
42
-0.56959953613673042
10
-119.21704355892864
20
11.920763038286239
42
-0.084500209397640746
10
-112.31832396769138
20
8.8504525076676011
42
0.084500209397643467
0
LWPOLYLINE
5
101
100
AcDbEntity
8
0
100
AcDbPolyline
90
4
70
1
43
0.0
10
-58.670056953568057
20
-20.015209140779074
10
21.329943046431943
20
-20.015209140779071
10
21.329943046431943
20
29.984790859220936
10
-58.670056953568057
20
29.984790859220929
0
LWPOLYLINE
5
102
100
AcDbEntity
8
0
100
AcDbPolyline
90
4
70
1
43
0.0
10
-98.550911331275785
20
-7.4050079390445598
42
-0.38185113228577827
10
-100.63772700372674
20
-5.7457541310883711
42
0.3818511322857705
10
-98.550911331275785
20
-7.4050079390445589
42
0.21817188121410239
10
-81.990066322686843
20
1.3728037062553833
42
-0.21817188121410083
0
LWPOLYLINE
5
103
100
AcDbEntity
8
0
100
AcDbPolyline
90
6
70
1
43
0.0
10
-123.99892093165613
20
-5.7457541310883684
42
-0.082116951767721144
10
-121.38310616663972
20
1.8076888639301214
10
-119.07691484438459
20
1.8076888639301425
42
0.074141704204493203
10
-121.64987005279099
20
-4.3095026380506107
42
-0.074141704204494646
10
-119.07691484438459
20
1.8076888639301361
10
-121.38310616663971
20
1.807688863930117
42
0.082116951767717675
0
LWPOLYLINE
5
104
100
AcDbEntity
8
0
100
AcDbPolyline
90
4
70
1
43
0.0
10
-54.67005695356805
20
25.984790859220936
10
-54.67005695356805
20
-16.015209140779056
10
17.329943046431939
20
-16.01520914077906
10
17.329943046431939
20
25.984790859220933
0
LWPOLYLINE
5
105
100
AcDbEntity
8
0
100
AcDbPolyline
90
2
70
1
43
0.0
10
-103.25354176874315
20
1.8076888639301247
42
-0.08211695176772045
10
-100.63772700372674
20
-5.7457541310883702
42
0.082116951767718285
0
LWPOLYLINE
5
106
100
AcDbEntity
8
0
100
AcDbPolyline
90
4
70
1
43
0.0
10
-145.02864895356805
20
21.860982859220933
10
-79.483304953568052
20
21.860982859220933
10
-79.483304953568052
20
-16.373801140779065
10
-145.02864895356805
20
-16.373801140779058
0
LWPOLYLINE
5
107
100
AcDbEntity
8
0
100
AcDbPolyline
90
2
70
1
43
0.0
10
-105.55973309099825
20
1.8076888639300603
10
-103.25354176874315
20
1.8076888639301247
0
LWPOLYLINE
5
108
100
AcDbEntity
8
0
100
AcDbPolyline
90
2
70
1
43
0.0
10
-113.31832457863905
20
-4.3004805770327392
10
-113.31832457863905
20
-16.373801140779062
0
LWPOLYLINE
5
109
100
AcDbEntity
8
0
100
AcDbPolyline
90
2
70
1
43
0.0
10
-123.9989209316561
20
10.924188037461596
42
0.38185113228578521
10
-126.08573660410707
20
12.583441845417912
42
-0.38185113228578044
0
LWPOLYLINE
5
110
100
AcDbEntity
8
0
100
AcDbPolyline
90
4
70
1
43
0.0
10
-54.67005695356805
20
-16.015209140779056
10
17.329943046431939
20
-16.015209140779064
10
17.329943046431939
20
25.984790859220933
10
-54.67005695356805
20
25.984790859220936
0
LWPOLYLINE
5
111
100
AcDbEntity
8
0
100
AcDbPolyline
90
12
70
1
43
0.0
10
-102.98677788259184
20
-4.3095026380505779
42
-0.56959953613671954
10
-105.41960437645423
20
-6.7423291319129417
42
-0.071295704777164112
10
-111.31832454883676
20
-4.3004798708002117
10
-111.31832454883673
20
-16.373801140779062
10
-113.31832457863905
20
-16.373801140779062
10
-145.02864895356805
20
-16.373801140779058
10
-145.02864895356805
20
21.860982859220933
10
-79.483304953568052
20
21.860982859220933
10
-79.483304953568052
20
-16.373801140779065
10
-111.31832454883673
20
-16.373801140779065
10
-111.31832454883673
20
-4.300479870800209
42
0.07129570477716278
10
-105.41960437645423
20
-6.7423291319129408
42
0.56959953613672842
0
LWPOLYLINE
5
112
100
AcDbEntity
8
0
100
AcDbPolyline
90
2
70
1
43
0.0
10
-81.990066322687042
20
3.8056302001179025
42
-0.33906446022507419
10
-81.990066322687028
20
1.3728037062555258
42
0.33906446022507419
0
LWPOLYLINE
5
113
100
AcDbEntity
8
0
100
AcDbPolyline
90
4
70
1
43
0.0
10
-148.67005695356806
20
25.502390859220931
10
-148.67005695356806
20
-20.015209140779071
10
-75.841896953568053
20
-20.015209140779071
10
-75.841896953568053
20
25.502390859220931
0
LWPOLYLINE
5
114
100
AcDbEntity
8
0
100
AcDbPolyline
90
4
70
1
43
0.0
10
-103.02207462129822
20
3.807688863930077
10
-105.30085183594876
20
3.8076888639300863
42
0.068469794942461831
10
-102.98677788259189
20
9.487936544423679
42
-0.068469794942461609
10
-105.30085183594878
20
3.8076888639300881
0
LWPOLYLINE
5
115
100
AcDbEntity
8
0
100
AcDbPolyline
90
6
70
1
43
0.0
10
-121.64987005279103
20
9.4879365444238246
42
0.068469794942460485
10
-119.33579609943415
20
3.8076888639300943
10
-121.61457331408464
20
3.807688863930041
42
-0.077039328295670118
10
-123.9989209316561
20
10.924188037461594
42
0.077039328295670201
10
-121.61457331408464
20
3.8076888639300406
10
-119.33579609943415
20
3.8076888639300899
42
-0.068469794942456877
0
LWPOLYLINE
5
116
100
AcDbEntity
8
0
100
AcDbPolyline
90
4
70
1
43
0.0
10
-142.64658161269585
20
3.8056302001178288
42
0.33906446022501341
10
-142.64658161269574
20
1.372803706255318
42
0.21817188121409919
10
-126.08573660410715
20
-7.4050079390446157
42
-0.21817188121409631
10
-142.64658161269574
20
1.3728037062553153
42
-0.33906446022501641
0
LWPOLYLINE
5
117
100
AcDbEntity
8
0
100
AcDbPolyline
90
2
70
1
43
0.0
10
-98.550911331275728
20
12.583441845417969
42
0.38185113228578743
10
-100.63772700372674
20
10.924188037461606
42
-0.38185113228579093
0
LWPOLYLINE
5
118
100
AcDbEntity
8
0
100
AcDbPolyline
90
2
70
1
43
0.0
10
-126.08573660410715
20
-7.4050079390446122
42
0.38185113228578704
10
-123.9989209316562
20
-5.7457541310883551
42
-0.38185113228579382
0
LWPOLYLINE
5
119
100
AcDbEntity
8
0
100
AcDbPolyline
90
2
70
1
43
0.0
10
-105.41960437645429
20
11.92076303828614
42
0.084500209397640413
10
-112.31832396769134
20
8.8504525076675211
42
-0.084500209397640164
0
LWPOLYLINE
5
120
100
AcDbEntity
8
0
100
AcDbPolyline
90
2
70
1
43
0.0
10
-102.98677788259191
20
9.4879365444236701
42
0.56959953613673431
10
-105.41960437645429
20
11.92076303828614
42
-0.56959953613672998
0
LWPOLYLINE
5
121
100
AcDbEntity
8
0
100
AcDbPolyline
90
2
70
1
43
0.0
10
-81.990066322687028
20
3.805630200117911
42
0.21817188121409986
10
-98.550911331275742
20
12.583441845417722
42
-0.21817188121409883
0
LWPOLYLINE
5
122
100
AcDbEntity
8
0
100
AcDbPolyline
90
2
70
1
43
0.0
10
-105.55973309099824
20
1.8076888639300703
42
-0.074141704204490483
10
-102.98677788259184
20
-4.3095026380505761
42
0.07414170420449076
0
LWPOLYLINE
5
123
100
AcDbEntity
8
0
100
AcDbPolyline
90
2
70
1
43
0.0
10
-103.02207462129822
20
3.8076888639300788
42
0.077039328295669743
10
-100.63772700372672
20
10.924188037461601
42
-0.077039328295668646
0
LWPOLYLINE
5
124
100
AcDbEntity
8
0
100
AcDbPolyline
90
2
70
1
43
0.0
10
-119.21704355892858
20
-6.7423291319128964
42
0.071295689303500928
10
-113.31832457863905
20
-4.3004805770327366
42
-0.071295689303502413
0
LWPOLYLINE
5
125
100
AcDbEntity
8
0
100
AcDbPolyline
90
2
70
1
43
0.0
10
-121.64987005279096
20
-4.3095026380506072
42
0.56959953613670999
10
-119.21704355892858
20
-6.7423291319129008
42
-0.56959953613671432
0
LWPOLYLINE
5
126
100
AcDbEntity
8
0
100
AcDbPolyline
90
2
70
1
43
0.0
10
-126.08573660410707
20
12.583441845417907
42
0.21817188121409986
10
-142.64658161269585
20
3.8056302001178266
42
-0.21817188121410105
0
ENDSEC
0
SECTION
2
OBJECTS
0
DICTIONARY
5
C
100
AcDbDictionary
3
ACAD_GROUP
350
D
3
ACAD_MLINESTYLE
350
17
0
DICTIONARY
5
D
100
AcDbDictionary
0
DICTIONARY
5
1A
330
C
100
AcDbDictionary
0
DICTIONARY
5
17
100
AcDbDictionary
0
ENDSEC
0
EOF
