  0
SECTION
  2
HEADER
  9
$ACADVER
  1
AC1027
  9
$ACADMAINTVER
 70
   125
  9
$DWGCODEPAGE
  3
ANSI_1251
  9
$LASTSAVEDBY
  1
User
  9
$REQUIREDVERSIONS
160
                 0
  9
$INSBASE
 10
0.0
 20
0.0
 30
0.0
  9
$EXTMIN
 10
-169.2450691302168
 20
10.31634081117561
 30
0.0
  9
$EXTMAX
 10
175.5842380142517
 20
179.6848161349844
 30
0.0
  9
$LIMMIN
 10
0.0
 20
0.0
  9
$LIMMAX
 10
12.0
 20
9.0
  9
$ORTHOMODE
 70
     0
  9
$REGENMODE
 70
     1
  9
$FILLMODE
 70
     1
  9
$QTEXTMODE
 70
     0
  9
$MIRRTEXT
 70
     1
  9
$LTSCALE
 40
1.0
  9
$ATTMODE
 70
     1
  9
$TEXTSIZE
 40
0.2
  9
$TRACEWID
 40
0.05
  9
$TEXTSTYLE
  7
STANDARD
  9
$CLAYER
  8
DEFAULT
  9
$CELTYPE
  6
ByLayer
  9
$CECOLOR
 62
   256
  9
$CELTSCALE
 40
1.0
  9
$DISPSILH
 70
     0
  9
$DIMSCALE
 40
1.0
  9
$DIMASZ
 40
0.18
  9
$DIMEXO
 40
0.0625
  9
$DIMDLI
 40
0.38
  9
$DIMRND
 40
0.0
  9
$DIMDLE
 40
0.0
  9
$DIMEXE
 40
0.18
  9
$DIMTP
 40
0.0
  9
$DIMTM
 40
0.0
  9
$DIMTXT
 40
0.18
  9
$DIMCEN
 40
0.09
  9
$DIMTSZ
 40
0.0
  9
$DIMTOL
 70
     0
  9
$DIMLIM
 70
     0
  9
$DIMTIH
 70
     1
  9
$DIMTOH
 70
     1
  9
$DIMSE1
 70
     0
  9
$DIMSE2
 70
     0
  9
$DIMTAD
 70
     0
  9
$DIMZIN
 70
     0
  9
$DIMBLK
  1

  9
$DIMASO
 70
     1
  9
$DIMSHO
 70
     1
  9
$DIMPOST
  1

  9
$DIMAPOST
  1

  9
$DIMALT
 70
     0
  9
$DIMALTD
 70
     2
  9
$DIMALTF
 40
25.4
  9
$DIMLFAC
 40
1.0
  9
$DIMTOFL
 70
     0
  9
$DIMTVP
 40
0.0
  9
$DIMTIX
 70
     0
  9
$DIMSOXD
 70
     0
  9
$DIMSAH
 70
     0
  9
$DIMBLK1
  1

  9
$DIMBLK2
  1

  9
$DIMSTYLE
  2
STANDARD
  9
$DIMCLRD
 70
     0
  9
$DIMCLRE
 70
     0
  9
$DIMCLRT
 70
     0
  9
$DIMTFAC
 40
1.0
  9
$DIMGAP
 40
0.09
  9
$DIMJUST
 70
     0
  9
$DIMSD1
 70
     0
  9
$DIMSD2
 70
     0
  9
$DIMTOLJ
 70
     1
  9
$DIMTZIN
 70
     0
  9
$DIMALTZ
 70
     0
  9
$DIMALTTZ
 70
     0
  9
$DIMUPT
 70
     0
  9
$DIMDEC
 70
     3
  9
$DIMTDEC
 70
     3
  9
$DIMALTU
 70
     2
  9
$DIMALTTD
 70
     2
  9
$DIMTXSTY
  7
STANDARD
  9
$DIMAUNIT
 70
     0
  9
$DIMADEC
 70
     0
  9
$DIMALTRND
 40
0.0
  9
$DIMAZIN
 70
     0
  9
$DIMDSEP
 70
    46
  9
$DIMATFIT
 70
     3
  9
$DIMFRAC
 70
     0
  9
$DIMLDRBLK
  1

  9
$DIMLUNIT
 70
     2
  9
$DIMLWD
 70
    -2
  9
$DIMLWE
 70
    -2
  9
$DIMTMOVE
 70
     2
  9
$DIMFXL
 40
1.0
  9
$DIMFXLON
 70
     0
  9
$DIMJOGANG
 40
0.7853981633974483
  9
$DIMTFILL
 70
     0
  9
$DIMTFILLCLR
 70
     0
  9
$DIMARCSYM
 70
     0
  9
$DIMLTYPE
  6

  9
$DIMLTEX1
  6

  9
$DIMLTEX2
  6

  9
$DIMTXTDIRECTION
 70
     0
  9
$LUNITS
 70
     2
  9
$LUPREC
 70
     3
  9
$SKETCHINC
 40
0.1
  9
$FILLETRAD
 40
0.5
  9
$AUNITS
 70
     0
  9
$AUPREC
 70
     0
  9
$MENU
  1
.
  9
$ELEVATION
 40
0.0
  9
$PELEVATION
 40
0.0
  9
$THICKNESS
 40
0.0
  9
$LIMCHECK
 70
     0
  9
$CHAMFERA
 40
0.0
  9
$CHAMFERB
 40
0.0
  9
$CHAMFERC
 40
0.0
  9
$CHAMFERD
 40
0.0
  9
$SKPOLY
 70
     0
  9
$TDCREATE
 40
2458831.726562500
  9
$TDUCREATE
 40
2458831.643235648
  9
$TDUPDATE
 40
2460003.653530093
  9
$TDUUPDATE
 40
2460003.570196759
  9
$TDINDWG
 40
0.0034606597
  9
$TDUSRTIMER
 40
0.0034606597
  9
$USRTIMER
 70
     1
  9
$ANGBASE
 50
0.0
  9
$ANGDIR
 70
     0
  9
$PDMODE
 70
     0
  9
$PDSIZE
 40
0.0
  9
$PLINEWID
 40
0.0
  9
$SPLFRAME
 70
     0
  9
$SPLINETYPE
 70
     6
  9
$SPLINESEGS
 70
     8
  9
$HANDSEED
  5
43FC
  9
$SURFTAB1
 70
     6
  9
$SURFTAB2
 70
     6
  9
$SURFTYPE
 70
     6
  9
$SURFU
 70
     6
  9
$SURFV
 70
     6
  9
$UCSBASE
  2

  9
$UCSNAME
  2

  9
$UCSORG
 10
0.0
 20
0.0
 30
0.0
  9
$UCSXDIR
 10
1.0
 20
0.0
 30
0.0
  9
$UCSYDIR
 10
0.0
 20
1.0
 30
0.0
  9
$UCSORTHOREF
  2

  9
$UCSORTHOVIEW
 70
     0
  9
$UCSORGTOP
 10
0.0
 20
0.0
 30
0.0
  9
$UCSORGBOTTOM
 10
0.0
 20
0.0
 30
0.0
  9
$UCSORGLEFT
 10
0.0
 20
0.0
 30
0.0
  9
$UCSORGRIGHT
 10
0.0
 20
0.0
 30
0.0
  9
$UCSORGFRONT
 10
0.0
 20
0.0
 30
0.0
  9
$UCSORGBACK
 10
0.0
 20
0.0
 30
0.0
  9
$PUCSBASE
  2

  9
$PUCSNAME
  2

  9
$PUCSORG
 10
0.0
 20
0.0
 30
0.0
  9
$PUCSXDIR
 10
1.0
 20
0.0
 30
0.0
  9
$PUCSYDIR
 10
0.0
 20
1.0
 30
0.0
  9
$PUCSORTHOREF
  2

  9
$PUCSORTHOVIEW
 70
     0
  9
$PUCSORGTOP
 10
0.0
 20
0.0
 30
0.0
  9
$PUCSORGBOTTOM
 10
0.0
 20
0.0
 30
0.0
  9
$PUCSORGLEFT
 10
0.0
 20
0.0
 30
0.0
  9
$PUCSORGRIGHT
 10
0.0
 20
0.0
 30
0.0
  9
$PUCSORGFRONT
 10
0.0
 20
0.0
 30
0.0
  9
$PUCSORGBACK
 10
0.0
 20
0.0
 30
0.0
  9
$USERI1
 70
     0
  9
$USERI2
 70
     0
  9
$USERI3
 70
     0
  9
$USERI4
 70
     0
  9
$USERI5
 70
     0
  9
$USERR1
 40
0.0
  9
$USERR2
 40
0.0
  9
$USERR3
 40
0.0
  9
$USERR4
 40
0.0
  9
$USERR5
 40
0.0
  9
$WORLDVIEW
 70
     1
  9
$SHADEDGE
 70
     3
  9
$SHADEDIF
 70
    70
  9
$TILEMODE
 70
     1
  9
$MAXACTVP
 70
    64
  9
$PINSBASE
 10
0.0
 20
0.0
 30
0.0
  9
$PLIMCHECK
 70
     0
  9
$PEXTMIN
 10
1.000000000000000E+20
 20
1.000000000000000E+20
 30
1.000000000000000E+20
  9
$PEXTMAX
 10
-1.000000000000000E+20
 20
-1.000000000000000E+20
 30
-1.000000000000000E+20
  9
$PLIMMIN
 10
0.0
 20
0.0
  9
$PLIMMAX
 10
12.0
 20
9.0
  9
$UNITMODE
 70
     0
  9
$VISRETAIN
 70
     1
  9
$PLINEGEN
 70
     0
  9
$PSLTSCALE
 70
     0
  9
$TREEDEPTH
 70
  3020
  9
$CMLSTYLE
  2
Standard
  9
$CMLJUST
 70
     0
  9
$CMLSCALE
 40
1.0
  9
$PROXYGRAPHICS
 70
     1
  9
$MEASUREMENT
 70
     0
  9
$CELWEIGHT
370
    -1
  9
$ENDCAPS
280
     0
  9
$JOINSTYLE
280
     0
  9
$LWDISPLAY
290
     0
  9
$INSUNITS
 70
     0
  9
$HYPERLINKBASE
  1

  9
$STYLESHEET
  1

  9
$XEDIT
290
     1
  9
$CEPSNTYPE
380
     0
  9
$PSTYLEMODE
290
     1
  9
$FINGERPRINTGUID
  2
{959A1C0D-4B69-448A-B1EA-F132058D0243}
  9
$VERSIONGUID
  2
{053B632E-C88E-5E43-9A08-C8F1C7B7A18E}
  9
$EXTNAMES
290
     1
  9
$PSVPSCALE
 40
0.0
  9
$OLESTARTUP
290
     0
  9
$SORTENTS
280
   127
  9
$INDEXCTL
280
     0
  9
$HIDETEXT
280
     1
  9
$XCLIPFRAME
280
     2
  9
$HALOGAP
280
     0
  9
$OBSCOLOR
 70
   257
  9
$OBSLTYPE
280
     0
  9
$INTERSECTIONDISPLAY
280
     0
  9
$INTERSECTIONCOLOR
 70
   257
  9
$DIMASSOC
280
     2
  9
$PROJECTNAME
  1

  9
$CAMERADISPLAY
290
     0
  9
$LENSLENGTH
 40
50.0
  9
$CAMERAHEIGHT
 40
0.0
  9
$STEPSPERSEC
 40
2.0
  9
$STEPSIZE
 40
6.0
  9
$3DDWFPREC
 40
2.0
  9
$PSOLWIDTH
 40
0.25
  9
$PSOLHEIGHT
 40
4.0
  9
$LOFTANG1
 40
1.570796326794896
  9
$LOFTANG2
 40
1.570796326794896
  9
$LOFTMAG1
 40
0.0
  9
$LOFTMAG2
 40
0.0
  9
$LOFTPARAM
 70
     7
  9
$LOFTNORMALS
280
     1
  9
$LATITUDE
 40
37.795
  9
$LONGITUDE
 40
-122.394
  9
$NORTHDIRECTION
 40
0.0
  9
$TIMEZONE
 70
 -8000
  9
$LIGHTGLYPHDISPLAY
280
     1
  9
$TILEMODELIGHTSYNCH
280
     1
  9
$CMATERIAL
347
4346
  9
$SOLIDHIST
280
     1
  9
$SHOWHIST
280
     1
  9
$DWFFRAME
280
     2
  9
$DGNFRAME
280
     2
  9
$REALWORLDSCALE
290
     1
  9
$INTERFERECOLOR
 62
   256
  9
$INTERFEREOBJVS
345
4335
  9
$INTERFEREVPVS
346
4332
  9
$CSHADOW
280
     0
  9
$SHADOWPLANELOCATION
 40
0.0
  0
ENDSEC
  0
SECTION
  2
CLASSES
  0
CLASS
  1
ACDBDICTIONARYWDFLT
  2
AcDbDictionaryWithDefault
  3
ObjectDBX Classes
 90
        0
 91
        1
280
     0
281
     0
  0
CLASS
  1
SCALE
  2
AcDbScale
  3
ObjectDBX Classes
 90
     1153
 91
       33
280
     0
281
     0
  0
CLASS
  1
VISUALSTYLE
  2
AcDbVisualStyle
  3
ObjectDBX Classes
 90
     4095
 91
       24
280
     0
281
     0
  0
CLASS
  1
MATERIAL
  2
AcDbMaterial
  3
ObjectDBX Classes
 90
     1153
 91
        3
280
     0
281
     0
  0
CLASS
  1
SUN
  2
AcDbSun
  3
SCENEOE
 90
     1153
 91
        1
280
     0
281
     0
  0
CLASS
  1
TABLESTYLE
  2
AcDbTableStyle
  3
ObjectDBX Classes
 90
     4095
 91
        1
280
     0
281
     0
  0
CLASS
  1
CSACDOCUMENTOPTIONS
  2
CDocDataContainer
  3
"DERU003_CSAPP"
 90
     4095
 91
        2
280
     0
281
     0
  0
CLASS
  1
DICTIONARYVAR
  2
AcDbDictionaryVar
  3
ObjectDBX Classes
 90
        0
 91
        5
280
     0
281
     0
  0
CLASS
  1
MLEADERSTYLE
  2
AcDbMLeaderStyle
  3
ACDB_MLEADERSTYLE_CLASS
 90
     4095
 91
        1
280
     0
281
     0
  0
CLASS
  1
ACDBSECTIONVIEWSTYLE
  2
AcDbSectionViewStyle
  3
ObjectDBX Classes
 90
     1025
 91
        1
280
     0
281
     0
  0
CLASS
  1
ACDBDETAILVIEWSTYLE
  2
AcDbDetailViewStyle
  3
ObjectDBX Classes
 90
     1025
 91
        1
280
     0
281
     0
  0
CLASS
  1
DIMASSOC
  2
AcDbDimAssoc
  3
"AcDbDimAssoc|Product Desc:     AcDim ARX App For Dimension|Company:          Autodesk, Inc.|WEB Address:      www.autodesk.com"
 90
        0
 91
        0
280
     0
281
     0
  0
CLASS
  1
CELLSTYLEMAP
  2
AcDbCellStyleMap
  3
ObjectDBX Classes
 90
     1152
 91
        1
280
     0
281
     0
  0
ENDSEC
  0
SECTION
  2
TABLES
  0
TABLE
  2
VPORT
  5
42EB
330
0
100
AcDbSymbolTable
 70
     1
1001
ACAD
1000
DbSaveVer
1071
      105
  0
VPORT
  5
4302
330
42EB
100
AcDbSymbolTableRecord
100
AcDbViewportTableRecord
  2
*ACTIVE
 70
     0
 10
0.0
 20
0.0
 11
1.0
 21
1.0
 12
113.8592095037729
 22
98.94568533003401
 13
0.0
 23
0.0
 14
0.5
 24
0.5
 15
0.5
 25
0.5
 16
0.0
 26
0.0
 36
1.0
 17
0.0
 27
0.0
 37
0.0
 40
196.4932417696374
 41
2.558981233243967
 42
50.0
 43
0.0
 44
0.0
 50
0.0
 51
0.0
 71
    16
 72
   100
 73
     1
 74
     3
 75
     0
 76
     0
 77
     0
 78
     0
281
     0
 65
     0
110
0.0
120
0.0
130
0.0
111
1.0
121
0.0
131
0.0
112
0.0
122
1.0
132
0.0
 79
     0
146
0.0
348
4331
 60
     3
 61
     5
292
     1
282
     1
141
0.0
142
0.0
361
434E
1001
ACAD_NAV_VCDISPLAY
1070
     3
  0
ENDTAB
  0
TABLE
  2
LTYPE
  5
42E8
330
0
100
AcDbSymbolTable
 70
     1
  0
LTYPE
  5
42F3
330
42E8
100
AcDbSymbolTableRecord
100
AcDbLinetypeTableRecord
  2
ByBlock
 70
     0
  3

 72
    65
 73
     0
 40
0.0
  0
LTYPE
  5
42F4
330
42E8
100
AcDbSymbolTableRecord
100
AcDbLinetypeTableRecord
  2
ByLayer
 70
     0
  3

 72
    65
 73
     0
 40
0.0
  0
LTYPE
  5
42FF
330
42E8
100
AcDbSymbolTableRecord
100
AcDbLinetypeTableRecord
  2
CONTINUOUS
 70
     0
  3
Solid line
 72
    65
 73
     0
 40
0.0
  0
ENDTAB
  0
TABLE
  2
LAYER
  5
42E5
102
{ACAD_XDICTIONARY
360
43C1
102
}
330
0
100
AcDbSymbolTable
 70
     3
  0
LAYER
  5
4300
330
42E5
100
AcDbSymbolTableRecord
100
AcDbLayerTableRecord
  2
0
 70
     0
 62
     7
  6
ByLayer
370
    -3
390
42F2
347
4348
348
0
  0
LAYER
  5
4301
330
42E5
100
AcDbSymbolTableRecord
100
AcDbLayerTableRecord
  2
DEFAULT
 70
     0
 62
     7
  6
CONTINUOUS
370
    -3
390
42F2
347
4348
348
0
  0
LAYER
  5
43A3
330
42E5
100
AcDbSymbolTableRecord
100
AcDbLayerTableRecord
  2
Defpoints
 70
     0
 62
     7
  6
CONTINUOUS
290
     0
370
    -3
390
42F2
347
4348
348
0
  0
ENDTAB
  0
TABLE
  2
STYLE
  5
42E6
330
0
100
AcDbSymbolTable
 70
     1
  0
STYLE
  5
4304
330
42E6
100
AcDbSymbolTableRecord
100
AcDbTextStyleTableRecord
  2
STANDARD
 70
     0
 40
0.0
 41
1.0
 50
0.0
 71
     0
 42
0.2
  3
txt
  4

  0
ENDTAB
  0
TABLE
  2
VIEW
  5
42E9
330
0
100
AcDbSymbolTable
 70
     1
  0
ENDTAB
  0
TABLE
  2
UCS
  5
42EA
330
0
100
AcDbSymbolTable
 70
     0
  0
ENDTAB
  0
TABLE
  2
APPID
  5
42EC
330
0
100
AcDbSymbolTable
 70
     7
  0
APPID
  5
4303
330
42EC
100
AcDbSymbolTableRecord
100
AcDbRegAppTableRecord
  2
ACAD
 70
     0
  0
APPID
  5
4349
330
42EC
100
AcDbSymbolTableRecord
100
AcDbRegAppTableRecord
  2
MCS_DIM1
 70
     0
  0
APPID
  5
434A
330
42EC
100
AcDbSymbolTableRecord
100
AcDbRegAppTableRecord
  2
McsXdata5
 70
     0
  0
APPID
  5
434D
330
42EC
100
AcDbSymbolTableRecord
100
AcDbRegAppTableRecord
  2
MCS_DOCUMENT_ID
 70
     0
  0
APPID
  5
4355
330
42EC
100
AcDbSymbolTableRecord
100
AcDbRegAppTableRecord
  2
MCS_PARAMS_DATA
 70
     0
  0
APPID
  5
4357
330
42EC
100
AcDbSymbolTableRecord
100
AcDbRegAppTableRecord
  2
MC_VERSION_DATA
 70
     0
  0
APPID
  5
43C7
330
42EC
100
AcDbSymbolTableRecord
100
AcDbRegAppTableRecord
  2
ACAD_NAV_VCDISPLAY
 70
     0
  0
ENDTAB
  0
TABLE
  2
DIMSTYLE
  5
42ED
330
0
100
AcDbSymbolTable
 70
     1
100
AcDbDimStyleTable
 71
     1
340
4305
  0
DIMSTYLE
105
4305
330
42ED
100
AcDbSymbolTableRecord
100
AcDbDimStyleTableRecord
  2
STANDARD
 70
     0
340
4304
  0
ENDTAB
  0
TABLE
  2
BLOCK_RECORD
  5
42E4
330
0
100
AcDbSymbolTable
 70
     2
  0
BLOCK_RECORD
  5
42FB
330
42E4
100
AcDbSymbolTableRecord
100
AcDbBlockTableRecord
  2
*Model_Space
340
42FC
 70
     0
280
     1
281
     0
  0
BLOCK_RECORD
  5
42F9
330
42E4
100
AcDbSymbolTableRecord
100
AcDbBlockTableRecord
  2
*Paper_Space
340
42FA
 70
     0
280
     1
281
     0
  0
BLOCK_RECORD
  5
42FE
330
42E4
100
AcDbSymbolTableRecord
100
AcDbBlockTableRecord
  2
*PAPER_SPACE0
340
4392
 70
     0
280
     1
281
     0
  0
ENDTAB
  0
ENDSEC
  0
SECTION
  2
BLOCKS
  0
BLOCK
  5
4308
330
42FB
100
AcDbEntity
  8
0
100
AcDbBlockBegin
  2
*Model_Space
 70
     0
 10
0.0
 20
0.0
 30
0.0
  3
*Model_Space
  1

  0
ENDBLK
  5
4309
330
42FB
100
AcDbEntity
  8
0
100
AcDbBlockEnd
  0
BLOCK
  5
4306
330
42F9
100
AcDbEntity
 67
     1
  8
0
100
AcDbBlockBegin
  2
*Paper_Space
 70
     0
 10
0.0
 20
0.0
 30
0.0
  3
*Paper_Space
  1

  0
ENDBLK
  5
4307
330
42F9
100
AcDbEntity
 67
     1
  8
0
100
AcDbBlockEnd
  0
BLOCK
  5
24
330
42FE
100
AcDbEntity
 67
     1
  8
0
100
AcDbBlockBegin
  2
*PAPER_SPACE0
 70
     0
 10
0.0
 20
0.0
 30
0.0
  3
*PAPER_SPACE0
  1

  0
ENDBLK
  5
25
330
42FE
100
AcDbEntity
 67
     1
  8
0
100
AcDbBlockEnd
  0
ENDSEC
  0
SECTION
  2
ENTITIES
  0
CIRCLE
  5
3E0C
330
42FB
100
AcDbEntity
  8
DEFAULT
100
AcDbCircle
 10
92.05682410940775
 20
93.84375471601954
 30
0.0
 40
83.52741390484393
  0
LWPOLYLINE
  5
3E0D
330
42FB
100
AcDbEntity
  8
DEFAULT
100
AcDbPolyline
 90
        8
 70
     1
 43
0.0
 10
74.10052255459766
 20
95.04638704121097
 10
75.35999948687737
 20
95.40007672502788
 10
92.3708950173887
 20
89.4575007416383
 10
87.99570691004509
 20
77.58412217743942
 10
78.09656125551805
 20
74.78747646366596
 10
69.92344017881322
 20
80.80068035980897
 10
69.97091095477464
 20
84.02944120510067
 10
70.90898233176426
 20
87.55364777393989
  0
LWPOLYLINE
  5
3E17
330
42FB
100
AcDbEntity
  8
DEFAULT
100
AcDbPolyline
 90
        8
 70
     1
 43
0.0
 10
89.9528006628633
 20
112.9810966707554
 10
97.34751020429582
 20
117.3590749703213
 10
107.621002133751
 20
113.7329628298383
 10
111.2902882792005
 20
102.6997426089223
 10
110.7512081386111
 20
101.8056641656097
 10
100.4835570671086
 20
94.53988484326592
 10
97.80521633706866
 20
94.35321077304392
 10
89.63151805106917
 20
110.4701174631296
  0
LWPOLYLINE
  5
3E21
330
42FB
100
AcDbEntity
  8
DEFAULT
100
AcDbPolyline
 90
        6
 70
     1
 43
0.0
 10
98.07675267633181
 20
120.5687649872209
 10
98.1258467231977
 20
119.2927344425345
 10
108.0099453440906
 20
115.802666573602
 10
108.8823628104435
 20
116.6717603979875
 10
110.543723276961
 20
129.5009246215363
 10
104.2355425095855
 20
130.594467426228
  0
LWPOLYLINE
  5
3E29
330
42FB
100
AcDbEntity
  8
DEFAULT
100
AcDbPolyline
 90
        6
 70
     1
 43
0.0
 10
110.344852795181
 20
117.161990294915
 10
116.5661375163615
 20
120.0846343379665
 10
119.3252208664336
 20
126.7852007335688
 10
117.2873240637293
 20
132.8042954985781
 10
115.5247269215377
 20
132.6746171995732
 10
111.9679403262661
 20
129.6956212758174
  0
LWPOLYLINE
  5
3E31
330
42FB
100
AcDbEntity
  8
DEFAULT
100
AcDbPolyline
 90
        5
 70
     1
 43
0.0
 10
121.6850733444777
 20
155.2780018992256
 10
117.1286936133172
 20
158.5680615380934
 10
112.3233241297818
 20
151.7051472141669
 10
112.2131125789017
 20
151.0574537881451
 10
121.2541522235221
 20
147.0715297945035
  0
LWPOLYLINE
  5
3E38
330
42FB
100
AcDbEntity
  8
DEFAULT
100
AcDbPolyline
 90
        5
 70
     1
 43
0.0
 10
103.9003818692632
 20
34.19716657307839
 10
107.6068177883768
 20
28.04029799242272
 10
113.4552836512824
 20
33.43589419465968
 10
113.9097286557299
 20
38.32526117518842
 10
112.2872454231843
 20
39.474553645833
  0
LWPOLYLINE
  5
3E3F
330
42FB
100
AcDbEntity
  8
DEFAULT
100
AcDbPolyline
 90
        7
 70
     1
 43
0.0
 10
90.86886307028601
 20
167.6645507831849
 10
88.65184176152757
 20
168.6369817416164
 10
87.85398431601112
 20
168.6941254617863
 10
80.23372138659675
 20
162.9158353296235
 10
80.23756180800484
 20
162.3367068661685
 10
91.26551838026278
 20
161.8816846524263
 10
92.24612403928238
 20
163.5432284922936
  0
LWPOLYLINE
  5
3E48
330
42FB
100
AcDbEntity
  8
DEFAULT
100
AcDbPolyline
 90
        7
 70
     1
 43
0.0
 10
149.5278534928416
 20
46.03776298340233
 10
142.7295324314256
 20
49.87617145218291
 10
141.5110373590657
 20
47.92483728958274
 10
141.8042388428647
 20
43.25196338651915
 10
145.9174406116577
 20
40.44685540940434
 10
146.0849063234752
 20
40.4847407602561
 10
147.7026385192273
 20
41.72225665009444
  0
LWPOLYLINE
  5
3E51
330
42FB
100
AcDbEntity
  8
DEFAULT
100
AcDbPolyline
 90
        5
 70
     1
 43
0.0
 10
69.29512598181736
 20
88.91672231377404
 10
72.4174927759683
 20
96.23411498275705
 10
69.45428988197466
 20
100.2184636326198
 10
61.40865704301598
 20
101.5476995380289
 10
58.42613326606226
 20
96.90959155508036
  0
LWPOLYLINE
  5
3E58
330
42FB
100
AcDbEntity
  8
DEFAULT
100
AcDbPolyline
 90
        6
 70
     1
 43
0.0
 10
67.01725389391731
 20
30.91288527852123
 10
66.84047364943899
 20
30.88677541403786
 10
64.85017890134429
 20
28.66229414399845
 10
68.37931362896274
 20
24.41412125450961
 10
74.53776172097338
 20
24.68131914701667
 10
75.80123744255428
 20
28.03547610683495
  0
LWPOLYLINE
  5
3E60
330
42FB
100
AcDbEntity
  8
DEFAULT
100
AcDbPolyline
 90
        6
 70
     1
 43
0.0
 10
31.29310800372902
 20
67.94769427107472
 10
31.47672098928008
 20
67.76812383437423
 10
37.9194519521617
 20
69.77704348021454
 10
39.38873716978668
 20
73.31902059369177
 10
39.37760140635499
 20
73.35210698062453
 10
30.86991982029112
 20
78.58876849939161
  0
LWPOLYLINE
  5
3E68
330
42FB
100
AcDbEntity
  8
DEFAULT
100
AcDbPolyline
 90
        6
 70
     1
 43
0.0
 10
41.22369802019176
 20
68.3210028195454
 10
46.69831980109342
 20
60.71797281744768
 10
48.63694910784722
 20
60.25225451955602
 10
51.5149271536759
 20
62.2350580495487
 10
54.53018932495513
 20
71.77513576325707
 10
42.82980684610442
 20
72.19283733271369
  0
LWPOLYLINE
  5
3E70
330
42FB
100
AcDbEntity
  8
DEFAULT
100
AcDbPolyline
 90
        7
 70
     1
 43
0.0
 10
97.89181648535805
 20
48.45996031663236
 10
94.92590258308883
 20
44.61136004041452
 10
94.93837405467166
 20
44.35907165152906
 10
101.2845443623022
 20
36.16751738558082
 10
101.9713192335264
 20
36.01909749669858
 10
111.0668916118684
 20
41.74243813752633
 10
109.9015852299266
 20
44.19251447130898
  0
LWPOLYLINE
  5
3E79
330
42FB
100
AcDbEntity
  8
DEFAULT
100
AcDbPolyline
 90
        8
 70
     1
 43
0.0
 10
21.01026194963964
 20
115.1955674229194
 10
20.81641131331388
 20
114.3756655834389
 10
21.10821040774359
 20
111.5600386441603
 10
21.28934576928265
 20
111.1003237396906
 10
26.97655352502331
 20
111.4022479603393
 10
31.25075501126095
 20
116.5123068512889
 10
28.98897185102863
 20
119.0961623789928
 10
27.65538499613498
 20
119.5758191352667
  0
LWPOLYLINE
  5
3E83
330
42FB
100
AcDbEntity
  8
DEFAULT
100
AcDbPolyline
 90
        7
 70
     1
 43
0.0
 10
133.8669734023465
 20
35.00440314868581
 10
129.2781386720376
 20
35.08995098400118
 10
129.2062688215961
 20
28.57213488569011
 10
130.1329939725592
 20
28.29507025668437
 10
133.0243936973294
 20
28.39854492074278
 10
135.3221826315768
 20
29.69265232691316
 10
136.3066432985209
 20
31.3148730021623
  0
LWPOLYLINE
  5
3E8C
330
42FB
100
AcDbEntity
  8
DEFAULT
100
AcDbPolyline
 90
        6
 70
     1
 43
0.0
 10
111.8060154069196
 20
100.0401726417926
 10
101.5554534813571
 20
92.80862578981864
 10
106.6954418203174
 20
84.81940942899429
 10
115.6834303045322
 20
82.0067893958968
 10
118.102554050363
 20
85.07944325812593
 10
118.1054484319884
 20
85.12294233403103
  0
LWPOLYLINE
  5
3E94
330
42FB
100
AcDbEntity
  8
DEFAULT
100
AcDbPolyline
 90
        7
 70
     1
 43
0.0
 10
135.8838406158755
 20
158.5087194215125
 10
133.5842116967647
 20
159.5207423532229
 10
132.0986937700954
 20
159.4138002658205
 10
131.0975127876992
 20
157.3797292980078
 10
133.7750825161542
 20
152.8587989694483
 10
133.8311801747143
 20
152.8723477594619
 10
136.7515174643753
 20
157.1406021145555
  0
LWPOLYLINE
  5
3E9D
330
42FB
100
AcDbEntity
  8
DEFAULT
100
AcDbPolyline
 90
        6
 70
     1
 43
0.0
 10
65.56971300477471
 20
60.14593340099761
 10
75.79758247828426
 20
68.92488251766396
 10
76.45252331920421
 20
70.74631333214798
 10
76.55470603466091
 20
73.17404103890864
 10
68.68403220940973
 20
78.94672786495845
 10
61.48820148490938
 20
75.53196809677858
  0
LWPOLYLINE
  5
3EA5
330
42FB
100
AcDbEntity
  8
DEFAULT
100
AcDbPolyline
 90
        5
 70
     1
 43
0.0
 10
25.06382987152234
 20
132.0664282277314
 10
22.83628334923594
 20
131.3231326889694
 10
21.32885855861498
 20
129.0677905176532
 10
21.69194612661546
 20
127.4696250918531
 10
25.69436955417409
 20
126.2166141539462
  0
LWPOLYLINE
  5
3EAC
330
42FB
100
AcDbEntity
  8
DEFAULT
100
AcDbPolyline
 90
        8
 70
     1
 43
0.0
 10
30.71023497311696
 20
135.1408637287581
 10
30.35503871052739
 20
135.0091849932085
 10
28.28551625632554
 20
133.5124687894655
 10
27.92072206589791
 20
132.9775562250107
 10
28.63783480759412
 20
126.324556459621
 10
29.45827218060799
 20
125.3840220451358
 10
30.74246283936601
 20
124.9221441686521
 10
34.12171694266692
 20
131.7266249075951
  0
LWPOLYLINE
  5
3EB6
330
42FB
100
AcDbEntity
  8
DEFAULT
100
AcDbPolyline
 90
        6
 70
     1
 43
0.0
 10
149.5627277699361
 20
106.5056460676409
 10
146.946269294131
 20
95.07976724226121
 10
154.7454921103422
 20
91.13098677091938
 10
156.7867375604707
 20
93.36013989380568
 10
158.3785390975132
 20
99.08236362422941
 10
154.304460449684
 20
105.0077233506069
  0
LWPOLYLINE
  5
3EBE
330
42FB
100
AcDbEntity
  8
DEFAULT
100
AcDbPolyline
 90
        8
 70
     1
 43
0.0
 10
90.39135886708562
 20
21.97782917879232
 10
89.32692033033005
 20
25.18065519779828
 10
85.08351098036309
 20
28.82782610048952
 10
82.65162611640812
 20
28.71624341706115
 10
80.74832326875947
 20
27.00898126699701
 10
79.47762930531343
 20
23.63567221105211
 10
79.7117553974042
 20
22.70560883160511
 10
82.58135661520226
 20
20.29762084920605
  0
LWPOLYLINE
  5
3EC8
330
42FB
100
AcDbEntity
  8
DEFAULT
100
AcDbPolyline
 90
        6
 70
     1
 43
0.0
 10
89.12872291209584
 20
135.4889646929784
 10
88.51438468166742
 20
136.0294305526327
 10
82.21064655045154
 20
136.659803532239
 10
76.70477628369252
 20
130.8407961812409
 10
81.86412718137427
 20
125.3725820486462
 10
89.54017728492663
 20
133.6256018112159
  0
LWPOLYLINE
  5
3ED0
330
42FB
100
AcDbEntity
  8
DEFAULT
100
AcDbPolyline
 90
        5
 70
     1
 43
0.0
 10
63.92632729412594
 20
42.11304818044988
 10
72.72225719975279
 20
48.11711258212961
 10
65.34932532741175
 20
52.35560627604582
 10
60.31945476886846
 20
47.41494476845213
 10
60.26318207211073
 20
44.79995953081067
  0
LWPOLYLINE
  5
3ED7
330
42FB
100
AcDbEntity
  8
DEFAULT
100
AcDbPolyline
 90
        5
 70
     1
 43
0.0
 10
109.5728072324543
 20
72.23333783758995
 10
103.6916467347726
 20
74.35118958843698
 10
97.70816807540979
 20
71.78425858741575
 10
105.0592139216799
 20
62.04818601946032
 10
111.6546552930743
 20
62.7670366404047
  0
LWPOLYLINE
  5
3EDE
330
42FB
100
AcDbEntity
  8
DEFAULT
100
AcDbPolyline
 90
        6
 70
     1
 43
0.0
 10
84.06687662565969
 20
15.26723559501016
 10
86.7612708589702
 20
14.20826283435514
 10
89.69972876966449
 20
16.45511148550906
 10
91.01294034483595
 20
18.6419262024437
 10
90.72835324090727
 20
18.99466776268997
 10
83.95751317652297
 20
17.53801863590519
  0
LWPOLYLINE
  5
3EE6
330
42FB
100
AcDbEntity
  8
DEFAULT
100
AcDbPolyline
 90
        5
 70
     1
 43
0.0
 10
149.0299802612832
 20
143.5822558488246
 10
153.4565712526713
 20
141.3683456356507
 10
153.7492121974802
 20
143.9561353552257
 10
152.1411696162411
 20
146.1752842116008
 10
150.6606465295691
 20
146.2941747397812
  0
LWPOLYLINE
  5
3EED
330
42FB
100
AcDbEntity
  8
DEFAULT
100
AcDbPolyline
 90
        6
 70
     1
 43
0.0
 10
27.7282050539352
 20
79.84907894689827
 10
25.56592485770504
 20
78.20753738868903
 10
23.42211327511548
 20
73.36115062083665
 10
25.61492513410788
 20
70.0026531304742
 10
28.91630599354534
 20
68.84252496187965
 10
28.52912566791062
 20
78.57818077222159
  0
LWPOLYLINE
  5
3EF5
330
42FB
100
AcDbEntity
  8
DEFAULT
100
AcDbPolyline
 90
        6
 70
     1
 43
0.0
 10
169.9212788414957
 20
104.284863521421
 10
168.9924824051936
 20
104.968164717937
 10
168.1577231567931
 20
105.0721353235555
 10
164.0862805008691
 20
100.6415101184691
 10
169.9073237128089
 20
99.905795400696
 10
170.7143185690005
 20
100.9394313822406
  0
LWPOLYLINE
  5
3EFD
330
42FB
100
AcDbEntity
  8
DEFAULT
100
AcDbPolyline
 90
        7
 70
     1
 43
0.0
 10
140.7132257568867
 20
142.1458548906899
 10
140.9149593634711
 20
142.5596055979709
 10
138.8102479801766
 20
146.5564007139597
 10
134.1909982792372
 20
147.9189167985918
 10
134.1239440630192
 20
147.9027195139446
 10
128.9788879514792
 20
141.9076674956559
 10
132.0830236838292
 20
139.1057623008005
  0
LWPOLYLINE
  5
3F06
330
42FB
100
AcDbEntity
  8
DEFAULT
100
AcDbPolyline
 90
        7
 70
     1
 43
0.0
 10
90.72995984150713
 20
44.18271858360452
 10
78.26897596399539
 20
46.9903729497376
 10
77.52277979224373
 20
46.53097061347795
 10
77.58934640205393
 20
40.71227999826612
 10
82.00732509735985
 20
33.16186772865604
 10
84.88449880099455
 20
33.29388820544858
 10
90.74226877762072
 20
43.93369965819664
  0
LWPOLYLINE
  5
3F0F
330
42FB
100
AcDbEntity
  8
DEFAULT
100
AcDbPolyline
 90
        6
 70
     1
 43
0.0
 10
143.7889698768197
 20
134.3993498287936
 10
142.2332449625865
 20
139.7554207389699
 10
133.3143569744718
 20
136.6136351238196
 10
133.3366660095205
 20
136.5574311920682
 10
139.7626954110426
 20
130.9476069899951
 10
141.773880134512
 20
130.8815863326586
  0
LWPOLYLINE
  5
3F17
330
42FB
100
AcDbEntity
  8
DEFAULT
100
AcDbPolyline
 90
        7
 70
     1
 43
0.0
 10
24.51209071842402
 20
55.33434381008124
 10
26.27585478193328
 20
53.45955760213377
 10
26.53893094164319
 20
53.36502864024828
 10
28.97399566618887
 20
54.22714594218445
 10
30.47058892643595
 20
56.60375832765396
 10
28.91901700182095
 20
60.24305876281495
 10
24.12374347147157
 20
57.35081302008939
  0
LWPOLYLINE
  5
3F20
330
42FB
100
AcDbEntity
  8
DEFAULT
100
AcDbPolyline
 90
        8
 70
     1
 43
0.0
 10
52.6180887240863
 20
158.8630571634183
 10
52.35189938500383
 20
158.9184192447906
 10
49.70886635997636
 20
158.31540431872
 10
47.89601033338931
 20
156.4578051947517
 10
47.83405931414819
 20
156.2537356617438
 10
52.94203441703041
 20
150.762793652699
 10
54.91848656099392
 20
151.5293859420535
 10
56.09120289330315
 20
152.9478642390213
  0
LWPOLYLINE
  5
3F2A
330
42FB
100
AcDbEntity
  8
DEFAULT
100
AcDbPolyline
 90
        6
 70
     1
 43
0.0
 10
40.36463138398608
 20
87.93229081986284
 10
30.65931552790421
 20
83.64164824577416
 10
30.53022277334624
 20
82.74531931134886
 10
31.45278451575088
 20
81.28141026693752
 10
40.41872652221349
 20
75.76267886022701
 10
42.44152211279401
 20
85.74650132665729
  0
LWPOLYLINE
  5
3F32
330
42FB
100
AcDbEntity
  8
DEFAULT
100
AcDbPolyline
 90
        6
 70
     1
 43
0.0
 10
20.64048125436698
 20
124.0017933253869
 10
19.26714197451325
 20
122.9022346245449
 10
18.81436608430765
 20
120.1346869273433
 10
19.70703588688673
 20
118.0156703389666
 10
25.5253222472135
 20
121.8508926957923
 10
24.77934904078504
 20
122.7060668158882
  0
LWPOLYLINE
  5
3F3A
330
42FB
100
AcDbEntity
  8
DEFAULT
100
AcDbPolyline
 90
        6
 70
     1
 43
0.0
 10
84.73319703321516
 20
170.1811270455596
 10
82.91615676018897
 20
171.6079696678296
 10
80.13088019411076
 20
171.6747050644733
 10
77.76178194841197
 20
169.2701657513256
 10
77.07610314971112
 20
167.5472751907567
 10
77.93868930396246
 20
165.0289923059549
  0
LWPOLYLINE
  5
3F42
330
42FB
100
AcDbEntity
  8
DEFAULT
100
AcDbPolyline
 90
        7
 70
     1
 43
0.0
 10
158.3919628602428
 20
118.3790475535085
 10
151.0316233191925
 20
119.3151914265359
 10
150.6473727995804
 20
119.1411367768496
 10
148.1973673145921
 20
113.2049496876743
 10
150.102626839236
 20
110.9713539286286
 10
154.6029985147233
 20
109.5496811845536
 10
159.6189618717054
 20
113.6491612089233
  0
LWPOLYLINE
  5
3F4B
330
42FB
100
AcDbEntity
  8
DEFAULT
100
AcDbPolyline
 90
        5
 70
     1
 43
0.0
 10
169.0578133286799
 20
113.6405176560201
 10
166.9841628903167
 20
112.0346026223977
 10
168.751767375234
 20
109.2061958109023
 10
169.5236191456704
 20
109.1100602484169
 10
171.8546507509557
 20
112.3928537182939
  0
LWPOLYLINE
  5
3F52
330
42FB
100
AcDbEntity
  8
DEFAULT
100
AcDbPolyline
 90
        6
 70
     1
 43
0.0
 10
140.2298973660382
 20
39.94237240209651
 10
137.1528217055303
 20
36.82019314887157
 10
139.5385610827346
 20
33.21221829972649
 10
140.6167317828538
 20
33.27832230858576
 10
142.9206012106815
 20
34.72415032393707
 10
144.1099586744963
 20
37.29626370588164
  0
LWPOLYLINE
  5
3F5A
330
42FB
100
AcDbEntity
  8
DEFAULT
100
AcDbPolyline
 90
        5
 70
     1
 43
0.0
 10
101.4351855692642
 20
137.6620826709467
 10
91.48195519545016
 20
135.4255133463288
 10
91.89616225231787
 20
133.5496685740431
 10
97.01864260393671
 20
121.9393703371304
 10
103.0397128000338
 20
131.7408759341874
  0
LWPOLYLINE
  5
3F61
330
42FB
100
AcDbEntity
  8
DEFAULT
100
AcDbPolyline
 90
        6
 70
     1
 43
0.0
 10
128.5034904580149
 20
155.3081543125595
 10
124.6683702068045
 20
154.3567383567868
 10
124.2478221828479
 20
146.3478760420639
 10
126.1428023809557
 20
144.1100064336921
 10
126.5846758919931
 20
144.0580242565649
 10
131.662363135317
 20
149.9745758107818
  0
LWPOLYLINE
  5
3F69
330
42FB
100
AcDbEntity
  8
DEFAULT
100
AcDbPolyline
 90
        7
 70
     1
 43
0.0
 10
63.41378627836184
 20
33.95455529597751
 10
62.32793890300269
 20
39.38795558133165
 10
59.06548737223869
 20
41.78096112752678
 10
55.87830226646599
 20
39.5337519810372
 10
57.95893756243083
 20
33.18217841094816
 10
60.55647732637277
 20
31.43656205771709
 10
61.30892069475027
 20
31.60203566814227
  0
LWPOLYLINE
  5
3F72
330
42FB
100
AcDbEntity
  8
DEFAULT
100
AcDbPolyline
 90
        5
 70
     1
 43
0.0
 10
114.240019483339
 20
134.4411610363642
 10
105.8703909405226
 20
141.8367645228776
 10
103.2683585295075
 20
138.3233103004658
 10
104.8220184097659
 20
132.589819527962
 10
110.793617393357
 20
131.5546207053669
  0
LWPOLYLINE
  5
3F79
330
42FB
100
AcDbEntity
  8
DEFAULT
100
AcDbPolyline
 90
        5
 70
     1
 43
0.0
 10
55.70436639269951
 20
91.91743130919117
 10
67.77853877506442
 20
84.87506115690797
 10
68.67787669945892
 20
88.25025395726571
 10
57.93294022250307
 20
96.15189078940906
 10
55.42051486595847
 20
94.92089298864526
  0
LWPOLYLINE
  5
3F80
330
42FB
100
AcDbEntity
  8
DEFAULT
100
AcDbPolyline
 90
        6
 70
     1
 43
0.0
 10
163.8125395138307
 20
110.4468519693581
 10
161.9687392344441
 20
110.9258377458743
 10
157.3191516630327
 20
107.1257772288964
 10
160.9034192553361
 20
101.9128062966666
 10
161.4107362144155
 20
102.1180656726609
 10
165.9384117649488
 20
107.0451700550886
  0
LWPOLYLINE
  5
3F88
330
42FB
100
AcDbEntity
  8
DEFAULT
100
AcDbPolyline
 90
        8
 70
     1
 43
0.0
 10
43.23731244054767
 20
41.78812102332602
 10
43.03787725220149
 20
42.26387901212598
 10
38.96215032801104
 20
44.07066913164908
 10
36.56329558871102
 20
43.26384514607901
 10
35.73866146652961
 20
42.2040347026209
 10
35.87430981834734
 20
40.79691513440798
 10
37.27914555483847
 20
38.6015985621587
 10
39.54549221093817
 20
37.56470353607682
  0
LWPOLYLINE
  5
3F92
330
42FB
100
AcDbEntity
  8
DEFAULT
100
AcDbPolyline
 90
        6
 70
     1
 43
0.0
 10
60.17195799809996
 20
163.5422366091736
 10
57.28967276233624
 20
162.6781355409973
 10
55.62881448874299
 20
160.5317754856014
 10
59.11739870057153
 20
154.590226809729
 10
63.5625166516661
 20
156.3152595044312
 10
60.26386347080876
 20
163.5147764500225
  0
LWPOLYLINE
  5
3F9A
330
42FB
100
AcDbEntity
  8
DEFAULT
100
AcDbPolyline
 90
        6
 70
     1
 43
0.0
 10
51.41429269275318
 20
111.1409659421554
 10
53.96712478371097
 20
115.4644719378536
 10
51.91073019433315
 20
122.6292750580317
 10
45.21243304393618
 20
122.5602933378514
 10
38.66878214116667
 20
116.7693629472723
 10
45.67445053422034
 20
107.9727308050668
  0
LWPOLYLINE
  5
3FA2
330
42FB
100
AcDbEntity
  8
DEFAULT
100
AcDbPolyline
 90
        5
 70
     1
 43
0.0
 10
43.14316481187847
 20
147.0551012093808
 10
41.00575879380784
 20
143.7428492275961
 10
45.61872170614816
 20
140.1462956208479
 10
47.69675018324079
 20
140.5022482985059
 10
50.08744272468113
 20
145.8748686535128
  0
LWPOLYLINE
  5
3FA9
330
42FB
100
AcDbEntity
  8
DEFAULT
100
AcDbPolyline
 90
        7
 70
     1
 43
0.0
 10
44.81385022999711
 20
101.1633031532521
 10
42.42648549810025
 20
98.42027747402667
 10
42.40798354385066
 20
90.55182496685524
 10
44.64038112475771
 20
88.20236850747891
 10
47.78677607911283
 20
87.57032432984257
 10
53.27028938369773
 20
92.45026842073093
 10
53.00334779712295
 20
95.2747973026331
  0
LWPOLYLINE
  5
3FB2
330
42FB
100
AcDbEntity
  8
DEFAULT
100
AcDbPolyline
 90
        4
 70
     1
 43
0.0
 10
92.90132952128686
 20
42.20299280858722
 10
87.28881306503092
 20
32.00864731750466
 10
92.09901902067059
 20
27.87431802149717
 10
98.90302673972223
 20
34.4560668215014
  0
LWPOLYLINE
  5
3FB8
330
42FB
100
AcDbEntity
  8
DEFAULT
100
AcDbPolyline
 90
        7
 70
     1
 43
0.0
 10
50.86439769209443
 20
138.5764092829093
 10
55.81511764468899
 20
131.2664015588369
 10
63.05744601612332
 20
134.0678295662248
 10
63.03090272372191
 20
135.2026751341987
 10
56.80992223559923
 20
146.3538627651813
 10
54.32597601057063
 20
145.3904296036244
 10
53.61253698723704
 20
144.7523278540764
  0
LWPOLYLINE
  5
3FC1
330
42FB
100
AcDbEntity
  8
DEFAULT
100
AcDbPolyline
 90
        6
 70
     1
 43
0.0
 10
40.74375370116456
 20
53.97493673724557
 10
40.46182551080966
 20
47.69442034025177
 10
45.30393426175987
 20
45.54788941423436
 10
48.24727032031972
 20
52.55337443393813
 10
47.46468495754863
 20
56.21711145176448
 10
45.72859151578518
 20
56.63416496313215
  0
LWPOLYLINE
  5
3FC9
330
42FB
100
AcDbEntity
  8
DEFAULT
100
AcDbPolyline
 90
        4
 70
     1
 43
0.0
 10
76.00015585145979
 20
96.86355650909733
 10
93.14347819743682
 20
90.88184490201561
 10
96.4925632170992
 20
93.50501109160932
 10
88.21777620437837
 20
109.7718734223828
  0
LWPOLYLINE
  5
3FCF
330
42FB
100
AcDbEntity
  8
DEFAULT
100
AcDbPolyline
 90
        6
 70
     1
 43
0.0
 10
78.33166047663621
 20
159.3509990610479
 10
76.18901164778822
 20
154.7912227553376
 10
77.6939629819733
 20
152.2682992745099
 10
89.85485845612357
 20
152.0033456217514
 10
91.01011472821671
 20
153.0120240736138
 10
90.85025692663299
 20
158.8344675911348
  0
LWPOLYLINE
  5
3FD7
330
42FB
100
AcDbEntity
  8
DEFAULT
100
AcDbPolyline
 90
        6
 70
     1
 43
0.0
 10
55.04318877409406
 20
74.08360827892555
 10
57.9813278652141
 20
76.69686814004727
 10
48.22295668115038
 20
84.65872227975976
 10
45.07492595316239
 20
85.29109569591073
 10
42.89953872998887
 20
74.55417555164986
 10
42.91216440188873
 20
74.51668195295472
  0
LWPOLYLINE
  5
3FDF
330
42FB
100
AcDbEntity
  8
DEFAULT
100
AcDbPolyline
 90
        6
 70
     1
 43
0.0
 10
27.92513552902449
 20
46.77890388530272
 10
29.95298847324438
 20
45.13480760292298
 10
31.8185393324775
 20
44.99064697685025
 10
32.58309159331413
 20
45.97324056968608
 10
30.03345811703969
 20
50.22588943594354
 10
27.75855751092365
 20
49.42048242625919
  0
LWPOLYLINE
  5
3FE7
330
42FB
100
AcDbEntity
  8
DEFAULT
100
AcDbPolyline
 90
        7
 70
     1
 43
0.0
 10
107.3181923031736
 20
152.4307201354165
 10
101.6752442059826
 20
160.9123606220031
 10
96.9587336970015
 20
160.6544751783689
 10
95.83879346507307
 20
158.7568256477468
 10
95.99962439568423
 20
152.8988410409497
 10
104.392914352005
 20
149.4348913716529
 10
107.2056385745058
 20
151.7692132782964
  0
LWPOLYLINE
  5
3FF0
330
42FB
100
AcDbEntity
  8
DEFAULT
100
AcDbPolyline
 90
        5
 70
     1
 43
0.0
 10
116.0503937183379
 20
61.72950605896232
 10
120.631712225088
 20
72.32458274948136
 10
116.2098847732217
 20
78.2202068201383
 10
110.9190364295523
 20
72.42777818593878
 10
112.9743391139829
 20
63.08220541800931
  0
LWPOLYLINE
  5
3FF7
330
42FB
100
AcDbEntity
  8
DEFAULT
100
AcDbPolyline
 90
        7
 70
     1
 43
0.0
 10
51.0873942721177
 20
30.2633289459672
 10
49.79210119053703
 20
28.92876062689391
 10
51.26173440076922
 20
26.46306630154686
 10
53.88201871146589
 20
25.64723826773786
 10
56.12486232195436
 20
26.25165349938976
 10
57.86903252626672
 20
28.71476392753334
 10
55.69614168119784
 20
30.17500758873428
  0
LWPOLYLINE
  5
4000
330
42FB
100
AcDbEntity
  8
DEFAULT
100
AcDbPolyline
 90
        6
 70
     1
 43
0.0
 10
163.4070614451769
 20
75.32684833458479
 10
157.9890624374282
 20
78.1100473639599
 10
156.0574617478255
 20
65.88909295013364
 10
158.4667145895814
 20
64.78524998102519
 10
158.5860031212826
 20
64.82658816870451
 10
161.6644165737298
 20
66.98274411180484
  0
LWPOLYLINE
  5
4008
330
42FB
100
AcDbEntity
  8
DEFAULT
100
AcDbPolyline
 90
        5
 70
     1
 43
0.0
 10
77.67206028559775
 20
19.26373272930533
 10
76.0389497339089
 20
16.24358615879629
 10
78.4643185925774
 20
13.02860957156986
 10
80.15458328337643
 20
15.09771526815831
 10
80.0500438036156
 20
17.268278521956
  0
LWPOLYLINE
  5
400F
330
42FB
100
AcDbEntity
  8
DEFAULT
100
AcDbPolyline
 90
        5
 70
     1
 43
0.0
 10
17.8960802750171
 20
89.0848465026208
 10
15.92031994869192
 20
91.6790292839863
 10
13.71646401294279
 20
91.0863124385443
 10
12.82598635541052
 20
89.08874735388279
 10
14.3667600902607
 20
86.4735287319778
  0
LWPOLYLINE
  5
4016
330
42FB
100
AcDbEntity
  8
DEFAULT
100
AcDbPolyline
 90
        6
 70
     1
 43
0.0
 10
144.3056513794736
 20
144.4578719298608
 10
146.1620502415151
 20
145.0816726419029
 10
147.8846240662979
 20
147.9464373875968
 10
147.0867207774439
 20
149.6252141547808
 10
144.9652098947507
 20
150.629645846562
 10
142.5348378609326
 20
147.8206120127283
  0
LWPOLYLINE
  5
401E
330
42FB
100
AcDbEntity
  8
DEFAULT
100
AcDbPolyline
 90
        8
 70
     1
 43
0.0
 10
73.81947997417137
 20
97.61947563597109
 10
75.05924635512247
 20
97.96629090295397
 10
87.03142564674477
 20
110.6152949777791
 10
87.35378766075774
 20
113.0723061582497
 10
84.88502183179946
 20
114.3976641340655
 10
70.49594636379038
 20
114.3346399639697
 10
70.13781196002582
 20
113.9912900365428
 10
70.81899811165357
 20
101.6539560591572
  0
LWPOLYLINE
  5
4028
330
42FB
100
AcDbEntity
  8
DEFAULT
100
AcDbPolyline
 90
        6
 70
     1
 43
0.0
 10
20.81680514925858
 20
71.30089268838204
 10
17.78146984752693
 20
71.19987064287882
 10
17.34439738419658
 20
69.85017402243681
 10
18.04302067437159
 20
67.48234063609486
 10
19.03279916846348
 20
66.71217256641684
 10
22.67943870519752
 20
68.44808888619453
  0
LWPOLYLINE
  5
4030
330
42FB
100
AcDbEntity
  8
DEFAULT
100
AcDbPolyline
 90
        7
 70
     1
 43
0.0
 10
121.1633844990981
 20
128.3641578009644
 10
127.4152196371334
 20
127.2954516662469
 10
129.4816018227179
 20
136.2145813737774
 10
129.4568922638157
 20
136.2768449612286
 10
125.9025582870993
 20
139.4851075833022
 10
125.3898922440511
 20
139.5454228289105
 10
119.2531593074899
 20
134.0061765286773
  0
LWPOLYLINE
  5
4039
330
42FB
100
AcDbEntity
  8
DEFAULT
100
AcDbPolyline
 90
        6
 70
     1
 43
0.0
 10
69.23806144559404
 20
21.51414882563046
 10
68.83811375047088
 20
19.04695625666301
 10
71.3832900040694
 20
16.96696901878709
 10
73.11902711807329
 20
17.76479520748256
 10
74.8350557645366
 20
20.93828774186494
 10
74.63119252654741
 20
21.74814155528492
  0
LWPOLYLINE
  5
4041
330
42FB
100
AcDbEntity
  8
DEFAULT
100
AcDbPolyline
 90
        6
 70
     1
 43
0.0
 10
51.46763766727634
 20
53.42031570525017
 10
58.34878305300367
 20
49.049664004529
 10
63.39628454238448
 20
54.00763762338584
 10
62.6034198530773
 20
56.33539976519341
 10
53.46129148173549
 20
59.46265095857417
 10
50.59829795589883
 20
57.49017884981919
  0
LWPOLYLINE
  5
4049
330
42FB
100
AcDbEntity
  8
DEFAULT
100
AcDbPolyline
 90
        4
 70
     1
 43
0.0
 10
53.37335145771885
 20
39.19774740654754
 10
49.18236813173734
 20
39.4669790762083
 10
50.1652534549026
 20
33.35380753132415
 10
55.32005544323346
 20
33.25501722284099
  0
LWPOLYLINE
  5
404F
330
42FB
100
AcDbEntity
  8
DEFAULT
100
AcDbPolyline
 90
        7
 70
     1
 43
0.0
 10
149.7703960049362
 20
124.02888465405
 10
154.6625469263229
 20
131.8386576892459
 10
154.2942102961808
 20
132.6768447690171
 10
153.7186013507715
 20
133.3750387988502
 10
146.9124369110702
 20
132.5285082316575
 10
145.0082380345525
 20
129.2043265631876
 10
149.4005569635976
 20
123.8613689313189
  0
LWPOLYLINE
  5
4058
330
42FB
100
AcDbEntity
  8
DEFAULT
100
AcDbPolyline
 90
        7
 70
     1
 43
0.0
 10
110.9390178733297
 20
148.5010084086786
 10
107.8856869778488
 20
145.9669950077566
 10
107.5610327969618
 20
143.0018812801053
 10
115.4889399452698
 20
135.9965900526918
 10
117.1067013140548
 20
136.1156160270966
 10
123.1156042716269
 20
141.5394767306786
 10
120.9627990597388
 20
144.0818211162936
  0
LWPOLYLINE
  5
4061
330
42FB
100
AcDbEntity
  8
DEFAULT
100
AcDbPolyline
 90
        6
 70
     1
 43
0.0
 10
142.5898456983335
 20
152.7114043042951
 10
142.4359037710728
 20
153.3376743051969
 10
140.4556070381251
 20
155.1647813583763
 10
139.2170700921338
 20
155.3362500270711
 10
136.285872099066
 20
151.0521213744809
 10
140.1644080746587
 20
149.9080863011301
  0
LWPOLYLINE
  5
4069
330
42FB
100
AcDbEntity
  8
DEFAULT
100
AcDbPolyline
 90
        8
 70
     1
 43
0.0
 10
17.19611085775062
 20
81.42443522851356
 10
23.45452243092635
 20
81.74153776144462
 10
25.48512389160703
 20
83.2831095871246
 10
25.59036977552266
 20
84.01387114066173
 10
24.08123002732231
 20
86.09850522592775
 10
20.53170751725334
 20
86.99628239305981
 10
16.52439135531267
 20
84.03130202784478
 10
16.48682482403521
 20
83.87714547041319
  0
LWPOLYLINE
  5
4073
330
42FB
100
AcDbEntity
  8
DEFAULT
100
AcDbPolyline
 90
        5
 70
     1
 43
0.0
 10
121.2544460376395
 20
101.5088952366394
 10
113.5346801442231
 20
101.3325650903836
 10
113.0112888439924
 20
100.4425354472858
 10
119.1851673866416
 20
85.82262418854423
 10
127.6600959918634
 20
93.48432115988897
  0
LWPOLYLINE
  5
407A
330
42FB
100
AcDbEntity
  8
DEFAULT
100
AcDbPolyline
 90
        5
 70
     1
 43
0.0
 10
133.1827136633195
 20
109.8089231742196
 10
122.957444757318
 20
102.1186803901407
 10
129.1242446719025
 20
94.39331535818739
 10
135.2514963727575
 20
92.18557315769272
 10
137.2906038563289
 20
93.92534656918302
  0
LWPOLYLINE
  5
4081
330
42FB
100
AcDbEntity
  8
DEFAULT
100
AcDbPolyline
 90
        7
 70
     1
 43
0.0
 10
139.9414114946355
 20
126.9211366481398
 10
133.4955110901035
 20
118.9936504250215
 10
133.4005924598494
 20
117.0175816980623
 10
135.1869364508561
 20
113.5180575988804
 10
144.4600496563209
 20
114.1520438669955
 10
147.1681572989025
 20
120.7135840903229
 10
142.1239711163368
 20
126.8494876792334
  0
LWPOLYLINE
  5
408A
330
42FB
100
AcDbEntity
  8
DEFAULT
100
AcDbPolyline
 90
        6
 70
     1
 43
0.0
 10
59.35774906761935
 20
102.4010086678045
 10
52.6407040759808
 20
108.5658956649432
 10
46.56627431884408
 20
105.2129806428131
 10
45.7307586553752
 20
102.8293271374641
 10
54.10581754989505
 20
96.80740467204753
 10
56.52209900880194
 20
97.99129635976168
  0
LWPOLYLINE
  5
4092
330
42FB
100
AcDbEntity
  8
DEFAULT
100
AcDbPolyline
 90
        6
 70
     1
 43
0.0
 10
82.66692112082216
 20
123.9027967218851
 10
86.37874571587781
 20
116.268951661848
 10
88.79733392817531
 20
114.9705349819544
 10
95.95723597881903
 20
119.2148966230682
 10
95.90778143661754
 20
120.5003438060308
 10
90.62947124574913
 20
132.463850371717
  0
LWPOLYLINE
  5
409A
330
42FB
100
AcDbEntity
  8
DEFAULT
100
AcDbPolyline
 90
        7
 70
     1
 43
0.0
 10
111.1384113859146
 20
46.20197381825863
 10
114.9502473892608
 20
58.92457103625706
 10
114.6539702342745
 20
59.27009852221432
 10
111.6879896507871
 20
60.5743852330935
 10
105.4096653988402
 20
59.89009840482158
 10
98.55973307457317
 20
52.47383624340887
 10
98.4714783985583
 20
50.7029414571333
  0
LWPOLYLINE
  5
40A3
330
42FB
100
AcDbEntity
  8
DEFAULT
100
AcDbPolyline
 90
        7
 70
     1
 43
0.0
 10
59.92247230416507
 20
23.87641641404463
 10
60.12324528445049
 20
22.12171266105207
 10
62.90261847893401
 20
18.81440967592726
 10
64.91100259124102
 20
20.30127581347614
 10
65.30685147523576
 20
22.74315869257805
 10
62.24799020622419
 20
26.42524763191318
 10
61.631305630432
 20
26.28962428555224
  0
LWPOLYLINE
  5
40AC
330
42FB
100
AcDbEntity
  8
DEFAULT
100
AcDbPolyline
 90
        6
 70
     1
 43
0.0
 10
138.7452046194436
 20
68.94194874193523
 10
135.884815828691
 20
67.2907363233056
 10
134.8745016031957
 20
62.6475334785325
 10
141.4348207267158
 20
56.36994271998526
 10
149.4366106647382
 20
63.07401821469285
 10
144.688645374881
 20
68.09637671725347
  0
LWPOLYLINE
  5
40B4
330
42FB
100
AcDbEntity
  8
DEFAULT
100
AcDbPolyline
 90
        8
 70
     1
 43
0.0
 10
67.31945734216714
 20
157.4799990960187
 10
71.32169322879969
 20
157.4937875216601
 10
73.15893791092651
 20
161.4036344967523
 10
73.15519959513375
 20
161.9673408447212
 10
72.21354827024447
 20
164.7164616040435
 10
70.09423161638614
 20
166.0786859583462
 10
66.66277862199905
 20
166.5688741795123
 10
63.96228514101546
 20
164.8072376636197
  0
LWPOLYLINE
  5
40BE
330
42FB
100
AcDbEntity
  8
DEFAULT
100
AcDbPolyline
 90
        5
 70
     1
 43
0.0
 10
118.2367145775006
 20
119.5168750222067
 10
130.1538735289937
 20
117.2109009684309
 10
130.2556603247176
 20
119.3299113054434
 10
127.5194319621677
 20
124.9911696483818
 10
120.953055266736
 20
126.1136521017523
  0
LWPOLYLINE
  5
40C5
330
42FB
100
AcDbEntity
  8
DEFAULT
100
AcDbPolyline
 90
        5
 70
     1
 43
0.0
 10
109.2852715684104
 20
26.07854905706211
 10
109.1888109349865
 20
24.43224187554296
 10
118.0942793279476
 20
24.38017217931701
 10
118.4162058302545
 20
24.61129970037888
 10
114.553002367261
 20
30.93838042552483
  0
LWPOLYLINE
  5
40CC
330
42FB
100
AcDbEntity
  8
DEFAULT
100
AcDbPolyline
 90
        7
 70
     1
 43
0.0
 10
34.1887482372162
 20
140.1558747945934
 10
33.39009478465801
 20
138.2001834311444
 10
36.88849155449555
 20
134.6989547933235
 10
38.98908745635714
 20
134.5669614057759
 10
42.68755913747748
 20
138.1374926671394
 10
38.21697937998846
 20
141.6230324646016
 10
34.97621383164096
 20
141.1415544775569
  0
LWPOLYLINE
  5
40D5
330
42FB
100
AcDbEntity
  8
DEFAULT
100
AcDbPolyline
 90
        5
 70
     1
 43
0.0
 10
166.9965176697678
 20
125.0509264387881
 10
163.8025102418627
 20
126.9382278778679
 10
163.2826405434658
 20
126.958448957273
 10
162.9297718721475
 20
122.7090132922154
 10
165.8948022482761
 20
122.7957718083979
  0
LWPOLYLINE
  5
40DC
330
42FB
100
AcDbEntity
  8
DEFAULT
100
AcDbPolyline
 90
        8
 70
     1
 43
0.0
 10
98.62131109575024
 20
171.1853962018716
 10
96.15794227788633
 20
169.3546195979057
 10
95.89102361298023
 20
168.995395372982
 10
97.16504538596979
 20
165.1830321712547
 10
100.9851581955194
 20
165.3918985843935
 10
102.4156974578207
 20
166.4984129698042
 10
103.3745483694177
 20
170.0035153696423
 10
101.2504098299715
 20
171.457157590246
  0
LWPOLYLINE
  5
40E6
330
42FB
100
AcDbEntity
  8
DEFAULT
100
AcDbPolyline
 90
        7
 70
     1
 43
0.0
 10
36.36481477529969
 20
114.4935433906186
 10
34.91797820652386
 20
114.8272141224728
 10
29.92399464607578
 20
108.8566174409421
 10
33.38439770808202
 20
102.262395085567
 10
40.06415956362025
 20
101.5293622030365
 10
42.24728180809961
 20
104.0377241728499
 10
42.99439067902477
 20
106.1691580543196
  0
LWPOLYLINE
  5
40EF
330
42FB
100
AcDbEntity
  8
DEFAULT
100
AcDbPolyline
 90
        5
 70
     1
 43
0.0
 10
68.21484440438599
 20
113.9087241019517
 10
56.86940396598067
 20
114.3410726177335
 10
54.08930352946163
 20
109.6326597091819
 10
61.00142025723335
 20
103.2887294737238
 10
68.87301511681028
 20
101.9882519274316
  0
LWPOLYLINE
  5
40F6
330
42FB
100
AcDbEntity
  8
DEFAULT
100
AcDbPolyline
 90
        7
 70
     1
 43
0.0
 10
122.6113233917616
 20
56.28699128460175
 10
117.1502128926883
 20
57.60643963745867
 10
113.5385289007834
 20
45.55185277913841
 10
114.7030663649284
 20
43.103391381108
 10
116.461487595833
 20
41.857807063873
 10
123.400514362706
 20
42.25439777641975
 10
125.6378130131475
 20
47.1367111343406
  0
LWPOLYLINE
  5
40FF
330
42FB
100
AcDbEntity
  8
DEFAULT
100
AcDbPolyline
 90
        8
 70
     1
 43
0.0
 10
46.59056086876859
 20
38.78949789976423
 10
45.68980388470026
 20
39.38810561407251
 10
42.01056556744117
 20
35.17908293479235
 10
42.05425843563654
 20
34.9382637154294
 10
43.61915201736588
 20
32.81978057679794
 10
46.1243445455288
 20
31.86904601972321
 10
46.16688716271101
 20
31.87267806232455
 10
47.4844038440296
 20
33.23013887710533
  0
LWPOLYLINE
  5
4109
330
42FB
100
AcDbEntity
  8
DEFAULT
100
AcDbPolyline
 90
        6
 70
     1
 43
0.0
 10
132.5743746587369
 20
60.49981896089285
 10
125.4612203095952
 20
57.34347600230439
 10
128.4104472370214
 20
48.4267905781769
 10
137.7920882926079
 20
50.61346776509913
 10
139.249518839918
 20
52.9474437629234
 10
139.2317107870947
 20
54.12939127637077
  0
LWPOLYLINE
  5
4111
330
42FB
100
AcDbEntity
  8
DEFAULT
100
AcDbPolyline
 90
        4
 70
     1
 43
0.0
 10
148.5576334335494
 20
79.05268640439313
 10
140.62962001205
 20
79.33516263100968
 10
139.1036932671795
 20
71.79019946719567
 10
145.2057478027245
 20
70.92205376638076
  0
LWPOLYLINE
  5
4117
330
42FB
100
AcDbEntity
  8
DEFAULT
100
AcDbPolyline
 90
        8
 70
     1
 43
0.0
 10
121.1539616094578
 20
26.50467329788682
 10
121.2260356711299
 20
26.50668832094789
 10
123.9158684923611
 20
27.42671409327466
 10
125.5495083262191
 20
28.62940571693207
 10
125.6287381161144
 20
35.81457786546816
 10
123.565146122752
 20
38.03508743545121
 10
117.5533487835545
 20
37.69148328588011
 10
117.126645249647
 20
33.10053976204705
  0
LWPOLYLINE
  5
4121
330
42FB
100
AcDbEntity
  8
DEFAULT
100
AcDbPolyline
 90
        6
 70
     1
 43
0.0
 10
32.47634746577808
 20
64.54977359426682
 10
32.23556575460032
 20
62.45392456162254
 10
34.09875151437712
 20
58.08372504291198
 10
38.72042674462688
 20
57.0250940235
 10
43.72076169110409
 20
59.69259072043771
 10
38.80287181951002
 20
66.52245408182851
  0
LWPOLYLINE
  5
4129
330
42FB
100
AcDbEntity
  8
DEFAULT
100
AcDbPolyline
 90
        6
 70
     1
 43
0.0
 10
117.3117189706333
 20
80.61049927426971
 10
117.2939609287237
 20
79.36305413429064
 10
121.6956860771046
 20
73.49423382954352
 10
128.1861878814293
 20
74.05131581524644
 10
128.2722337420928
 20
80.65121232552884
 10
119.6396123910891
 20
83.56726743071147
  0
LWPOLYLINE
  5
4131
330
42FB
100
AcDbEntity
  8
DEFAULT
100
AcDbPolyline
 90
        6
 70
     1
 43
0.0
 10
120.4945885513186
 20
84.8275674592778
 10
129.0480884694065
 20
81.9382431874226
 10
134.5524896655781
 20
86.60265274335676
 10
134.9340604337357
 20
90.09177248871861
 10
128.7422446434031
 20
92.32278435056093
 10
120.497355821872
 20
84.86904317696955
  0
LWPOLYLINE
  5
4139
330
42FB
100
AcDbEntity
  8
DEFAULT
100
AcDbPolyline
 90
        7
 70
     1
 43
0.0
 10
166.0389795446534
 20
119.6045483213507
 10
162.8712236788203
 20
119.5118593443287
 10
162.2318362320347
 20
118.868908619948
 10
163.2473807655789
 20
114.9541376536528
 10
164.8936816957339
 20
114.526465158294
 10
167.1204947246206
 20
116.2509894087078
 10
167.3941544439244
 20
118.2066411801834
  0
LWPOLYLINE
  5
4142
330
42FB
100
AcDbEntity
  8
DEFAULT
100
AcDbPolyline
 90
        8
 70
     1
 43
0.0
 10
20.82023089684127
 20
64.1143181504767
 10
20.78316864227607
 20
62.5559051496367
 10
22.17637267377546
 20
60.42358774202641
 10
22.76056682602216
 20
60.12326595440142
 10
27.55139980400006
 20
63.01283611324855
 10
27.75172685363904
 20
64.75654788418605
 10
27.60172745340171
 20
64.9032486479128
 10
24.65373829608754
 20
65.93919138284791
  0
LWPOLYLINE
  5
414C
330
42FB
100
AcDbEntity
  8
DEFAULT
100
AcDbPolyline
 90
        6
 70
     1
 43
0.0
 10
161.0147956437457
 20
92.71933130355821
 10
168.4283884726442
 20
91.91080486313714
 10
169.6919162889268
 20
94.43652061997502
 10
169.0592052991089
 20
96.96309906507277
 10
162.8459119051666
 20
97.74839126854333
 10
162.3589660582332
 20
97.55137952571944
  0
LWPOLYLINE
  5
4154
330
42FB
100
AcDbEntity
  8
DEFAULT
100
AcDbPolyline
 90
        6
 70
     1
 43
0.0
 10
49.58798789797976
 20
85.77469706299607
 10
59.82204413826105
 20
77.42473114438276
 10
60.07853344389019
 20
77.48603202174691
 10
67.21321123997916
 20
80.87176670593718
 10
67.25633731782022
 20
83.94590630905831
 10
55.3417851851994
 20
90.89517906185831
  0
LWPOLYLINE
  5
415C
330
42FB
100
AcDbEntity
  8
DEFAULT
100
AcDbPolyline
 90
        7
 70
     1
 43
0.0
 10
93.36447434091542
 20
149.067486194777
 10
91.20749321774042
 20
138.342791635107
 10
91.78664668665232
 20
137.8332866985569
 10
101.107399454912
 20
139.9277270904677
 10
103.6238527737907
 20
143.3256415159114
 10
103.955327193022
 20
146.3530250823783
 10
94.65270338094796
 20
150.1922628988096
  0
LWPOLYLINE
  5
4165
330
42FB
100
AcDbEntity
  8
DEFAULT
100
AcDbPolyline
 90
        6
 70
     1
 43
0.0
 10
166.1593558137257
 20
74.40522846438655
 10
166.124598228763
 20
74.4025862211172
 10
164.6227309009176
 20
67.21136483582175
 10
164.67797420637
 20
67.21068760469989
 10
169.7736862164761
 20
69.20036138395049
 10
167.3937251835824
 20
73.45607133487878
  0
LWPOLYLINE
  5
416D
330
42FB
100
AcDbEntity
  8
DEFAULT
100
AcDbPolyline
 90
        5
 70
     1
 43
0.0
 10
75.51996981301676
 20
129.3361511639018
 10
70.92342715064683
 20
128.5028776563933
 10
70.53834728338398
 20
116.1044261749935
 10
84.49139426588448
 20
116.1655290924912
 10
80.81738000531016
 20
123.7216196845847
  0
LWPOLYLINE
  5
4174
330
42FB
100
AcDbEntity
  8
DEFAULT
100
AcDbPolyline
 90
        6
 70
     1
 43
0.0
 10
66.99046054694787
 20
133.7553238697703
 10
70.79905625984946
 20
131.4228461155663
 10
75.06645001047115
 20
132.1964461841912
 10
80.31481825060035
 20
137.7433066460224
 10
74.80669332515248
 20
148.1437200228694
 10
66.9620731021069
 20
134.9691595920117
  0
LWPOLYLINE
  5
417C
330
42FB
100
AcDbEntity
  8
DEFAULT
100
AcDbPolyline
 90
        9
 70
     1
 43
0.0
 10
127.8798376949256
 20
161.4598592663845
 10
127.2273640590773
 20
162.6272140119964
 10
125.2743149388977
 20
163.993860164578
 10
122.8557579834213
 20
164.253564755195
 10
120.2349756473766
 20
163.5085084155161
 10
119.7158311072272
 20
162.2731805031484
 10
119.7652439736673
 20
161.3395559298944
 10
123.5783156633374
 20
158.5862259186761
 10
126.8669854155643
 20
159.4020810417299
  0
LWPOLYLINE
  5
4187
330
42FB
100
AcDbEntity
  8
DEFAULT
100
AcDbPolyline
 90
        6
 70
     1
 43
0.0
 10
63.32854684368038
 20
58.35029154763465
 10
63.97572557404959
 20
59.64183589448222
 10
60.07023163223005
 20
74.36434871008204
 10
59.82270261529032
 20
74.30518788306303
 10
56.84895366988803
 20
71.66023985680171
 10
53.68481109256368
 20
61.64912185047772
  0
LWPOLYLINE
  5
418F
330
42FB
100
AcDbEntity
  8
DEFAULT
100
AcDbPolyline
 90
        6
 70
     1
 43
0.0
 10
35.34555068005534
 20
119.6007433243398
 10
36.7110069896504
 20
119.2858371040317
 10
42.55509064625051
 20
124.4576657246605
 10
39.06672314838096
 20
130.0943478711331
 10
36.72109252389617
 20
130.2417362849221
 10
32.85151475320475
 20
122.4499296704425
  0
LWPOLYLINE
  5
4197
330
42FB
100
AcDbEntity
  8
DEFAULT
100
AcDbPolyline
 90
        4
 70
     1
 43
0.0
 10
75.55793851539124
 20
38.77465507736082
 10
67.88992558241443
 20
33.08619079741556
 10
77.56266766342815
 20
29.91765142726911
 10
79.64664535545296
 20
31.78698436184447
  0
LWPOLYLINE
  5
419D
330
42FB
100
AcDbEntity
  8
DEFAULT
100
AcDbPolyline
 90
        6
 70
     1
 43
0.0
 10
151.9982175872475
 20
65.8319408948115
 10
153.547701556219
 20
65.82868393406228
 10
155.6861286304427
 20
79.35818848915348
 10
154.6718968833809
 20
80.58929256310872
 10
150.5899373490811
 20
78.11990784909442
 10
147.4900796336333
 20
70.60062528942193
  0
LWPOLYLINE
  5
41A5
330
42FB
100
AcDbEntity
  8
DEFAULT
100
AcDbPolyline
 90
        6
 70
     1
 43
0.0
 10
109.1835076943551
 20
22.00670006246491
 10
108.1289671509193
 20
20.20632175882491
 10
110.2132178191809
 20
18.51804291805399
 10
113.2723562320055
 20
17.72712657058974
 10
115.8204477051101
 20
19.2174497125423
 10
117.1664060097594
 20
21.96002529354519
  0
LWPOLYLINE
  5
41AD
330
42FB
100
AcDbEntity
  8
DEFAULT
100
AcDbPolyline
 90
        8
 70
     1
 43
0.0
 10
144.9904862440072
 20
92.20714661555359
 10
140.0035667251073
 20
91.35780918583423
 10
138.1130812578606
 20
89.74484261339204
 10
137.7630090301285
 20
86.54375238984615
 10
141.0319744823909
 20
81.82064252405588
 10
148.9969647231447
 20
81.53684725959271
 10
153.4313886738779
 20
84.21945350380646
 10
153.269142851169
 20
88.0156152533104
  0
LWPOLYLINE
  5
41B7
330
42FB
100
AcDbEntity
  8
DEFAULT
100
AcDbPolyline
 90
       10
 70
     1
 43
0.0
 10
168.2249774166656
 20
87.75977192198213
 10
167.8089387100867
 20
88.37167837173597
 10
160.1830537204667
 20
89.20335778137296
 10
158.4100022135414
 20
87.26708940649944
 10
158.5427666026741
 20
84.16065108833503
 10
159.4443904425783
 20
83.06623934401924
 10
164.7765332143777
 20
80.32714160530067
 10
164.8162210419077
 20
80.33016726557441
 10
166.9930210733909
 20
81.9983042108867
 10
168.4825315379972
 20
84.70505739122449
  0
LWPOLYLINE
  5
41C3
330
42FB
100
AcDbEntity
  8
DEFAULT
100
AcDbPolyline
 90
        6
 70
     1
 43
0.0
 10
22.54028958942675
 20
78.86960061722307
 10
16.66548047777415
 20
78.57193565938387
 10
16.52238883498
 20
78.23432865187045
 10
16.71409942096065
 20
75.64738286646274
 10
17.50033974800182
 20
74.49247250318872
 10
20.6504292586003
 20
74.5973078808551
  0
LWPOLYLINE
  5
41CB
330
42FB
100
AcDbEntity
  8
DEFAULT
100
AcDbPolyline
 90
        5
 70
     1
 43
0.0
 10
37.7749912606073
 20
53.63021150969422
 10
33.62572745552143
 20
54.58062724719463
 10
32.01226910909539
 20
52.01843478023846
 10
34.95452784922446
 20
47.11090550291504
 10
37.52109418733392
 20
47.97413971525531
  0
LWPOLYLINE
  5
41D2
330
42FB
100
AcDbEntity
  8
DEFAULT
100
AcDbPolyline
 90
        5
 70
     1
 43
0.0
 10
114.291195234484
 20
161.7070694637498
 10
106.2230137248491
 20
163.2783852803026
 10
104.5896218617711
 20
162.0149679047876
 10
109.8081898487497
 20
154.171183280757
 10
114.3469615707415
 20
160.6533415976602
  0
LWPOLYLINE
  5
41D9
330
42FB
100
AcDbEntity
  8
DEFAULT
100
AcDbPolyline
 90
        6
 70
     1
 43
0.0
 10
45.29221712145738
 20
154.7425788066943
 10
43.26720438037324
 20
153.5911191964598
 10
42.44481241415229
 20
152.218738459117
 10
43.51394780921157
 20
149.913285352358
 10
49.74956482471902
 20
148.8534874116284
 10
50.30686769195705
 20
149.3519441038456
  0
LWPOLYLINE
  5
41E1
330
42FB
100
AcDbEntity
  8
DEFAULT
100
AcDbPolyline
 90
        4
 70
     1
 43
0.0
 10
131.2962728287115
 20
135.0356741071202
 10
129.259390830796
 20
126.2438951073235
 10
131.8273512231225
 20
120.9307773205787
 10
138.3144439501691
 20
128.9089141802491
  0
LWPOLYLINE
  5
41E7
330
42FB
100
AcDbEntity
  8
DEFAULT
100
AcDbPolyline
 90
        6
 70
     1
 43
0.0
 10
144.8125536647276
 20
110.7932900707007
 10
135.2323984551206
 20
110.1383138053836
 10
135.1719623498044
 20
110.0277625970486
 10
139.0606151164639
 20
94.99188764809851
 10
144.1524971241023
 20
95.85909981185928
 10
146.9882555398993
 20
108.2426542923659
  0
LWPOLYLINE
  5
41EF
330
42FB
100
AcDbEntity
  8
DEFAULT
100
AcDbPolyline
 90
        5
 70
     1
 43
0.0
 10
96.68961038432025
 20
70.9161420596338
 10
94.75991219322299
 20
71.36488790371721
 10
92.69090026709756
 20
58.47836741361577
 10
96.84321682170207
 20
53.56004203031557
 10
103.969009345472
 20
61.27495894889951
  0
LWPOLYLINE
  5
41F6
330
42FB
100
AcDbEntity
  8
DEFAULT
100
AcDbPolyline
 90
        6
 70
     1
 43
0.0
 10
13.29556591259091
 20
94.99207727281266
 10
15.43096524275273
 20
95.56637759931573
 10
16.39300435009261
 20
99.53519160913671
 10
15.84050044677357
 20
100.6005761856748
 10
13.74101103637572
 20
99.72265751882424
 10
11.30239136938722
 20
96.6082466275143
  0
LWPOLYLINE
  5
41FE
330
42FB
100
AcDbEntity
  8
DEFAULT
100
AcDbPolyline
 90
        7
 70
     1
 43
0.0
 10
35.5331478683911
 20
149.0783302278793
 10
34.88461259199005
 20
146.6504566559539
 10
35.0996178447752
 20
145.1861141836246
 10
37.86268539763205
 20
145.5966225166729
 10
39.62878747135278
 20
148.3334718480668
 10
38.64498111386183
 20
150.4549243846941
 10
37.47021016651826
 20
150.4310316707143
  0
LWPOLYLINE
  5
4207
330
42FB
100
AcDbEntity
  8
DEFAULT
100
AcDbPolyline
 90
        5
 70
     1
 43
0.0
 10
106.6239366327877
 20
83.49347841145995
 10
104.1336827812793
 20
75.61761803770925
 10
110.0928478014727
 20
73.47167473992683
 10
115.5231286560901
 20
79.41674918520909
 10
115.5414347342615
 20
80.70291527505494
  0
LWPOLYLINE
  5
420E
330
42FB
100
AcDbEntity
  8
DEFAULT
100
AcDbPolyline
 90
       11
 70
     1
 43
0.0
 10
95.86354053216046
 20
21.87763022957569
 10
97.06578622517151
 20
21.43776340644706
 10
99.77675074119332
 20
21.14587470913045
 10
102.453161883483
 20
21.56683323933629
 10
103.2632615838949
 20
21.92877264011167
 10
104.4681766094201
 20
23.98587154985626
 10
104.5669731692675
 20
25.67206660255988
 10
101.1476999161338
 20
31.35192275399908
 10
100.5634974287348
 20
31.47817113784515
 10
94.44352648338707
 20
25.55811465209899
 10
95.52882790627256
 20
22.29248951210849
  0
LWPOLYLINE
  5
421B
330
42FB
100
AcDbEntity
  8
DEFAULT
100
AcDbPolyline
 90
        7
 70
     1
 43
0.0
 10
65.43295816149328
 20
137.5553468785629
 10
72.62242291344796
 20
149.629619282755
 10
72.60985767140209
 20
149.7594184414678
 10
71.05469329615903
 20
152.3665186250626
 10
66.23144282721796
 20
152.3498941638616
 10
60.7794363982108
 20
150.2341241172938
 10
59.33467528235002
 20
148.4865865114647
  0
LWPOLYLINE
  5
4224
330
42FB
100
AcDbEntity
  8
DEFAULT
100
AcDbPolyline
 90
        9
 70
     1
 43
0.0
 10
153.1360575586741
 20
60.13298057437118
 10
151.7266958345008
 20
60.13593955342678
 10
144.8161544505079
 20
54.346134408404
 10
144.8313098411214
 20
53.34024614876375
 10
151.751469990833
 20
49.43303724936476
 10
152.3594880920532
 20
49.5639616536339
 10
154.5351274535829
 20
51.13062228764426
 10
155.9181084208241
 20
55.02336969785614
 10
155.5620744754314
 20
59.02145259487053
  0
LWPOLYLINE
  5
422F
330
42FB
100
AcDbEntity
  8
DEFAULT
100
AcDbPolyline
 90
        7
 70
     1
 43
0.0
 10
146.8782711219185
 20
135.6417542854379
 10
153.1861122318389
 20
136.4262984089923
 10
152.9243467748234
 20
138.4716780946463
 10
152.7255909013872
 20
138.8622195704336
 10
147.6953702664485
 20
141.3780289987995
 10
145.6983886424459
 20
140.7069908950596
 10
145.5157967130478
 20
140.3325133414832
  0
LWPOLYLINE
  5
4238
330
42FB
100
AcDbEntity
  8
DEFAULT
100
AcDbPolyline
 90
        6
 70
     1
 43
0.0
 10
93.45096404843724
 20
72.28976681845272
 10
88.68239009459438
 20
75.69843567411182
 10
79.00007300741134
 20
72.96994858423203
 10
78.89556478447151
 20
70.48686504746324
 10
88.33521641606393
 20
60.02545294252185
 10
91.349174136013
 20
59.19906635457583
  0
LWPOLYLINE
  5
4240
330
42FB
100
AcDbEntity
  8
DEFAULT
100
AcDbPolyline
 90
        5
 70
     1
 43
0.0
 10
77.20836117834335
 20
149.536744848595
 10
77.22177035455644
 20
149.3982167016683
 10
82.60917518590089
 20
139.2257489015044
 10
88.48640357549959
 20
138.6380268960597
 10
90.61961701197885
 20
149.2445456668563
  0
LWPOLYLINE
  5
4247
330
42FB
100
AcDbEntity
  8
DEFAULT
100
AcDbPolyline
 90
        6
 70
     1
 43
0.0
 10
137.5109269362618
 20
47.54083682453869
 10
128.8901498366327
 20
45.53150250487306
 10
126.886789737356
 20
41.15968596662225
 10
129.0196051703145
 20
38.86469139217314
 10
134.2480003018184
 20
38.76722012153664
 10
137.8331805932952
 20
42.40495146428293
  0
LWPOLYLINE
  5
424F
330
42FB
100
AcDbEntity
  8
DEFAULT
100
AcDbPolyline
 90
        8
 70
     1
 43
0.0
 10
110.1224271730882
 20
114.080330300659
 10
113.6436185005941
 20
103.486370520544
 10
121.2406388579056
 20
103.6598938042732
 10
131.693074003853
 20
111.5209801206266
 10
131.7583361623331
 20
111.6403624227909
 10
129.7654825224918
 20
115.5444393887247
 10
117.3674686365862
 20
117.9434545797059
 10
110.9954072622192
 20
114.9499846640346
  0
LWPOLYLINE
  5
4259
330
42FB
100
AcDbEntity
  8
DEFAULT
100
AcDbPolyline
 90
        8
 70
     1
 43
0.0
 10
111.0792880670808
 20
169.7476157760363
 10
108.530667311807
 20
169.6906408426998
 10
108.2092409186363
 20
169.5100222606015
 10
107.2676271019322
 20
166.0679190254024
 10
114.2068080691222
 20
164.71647619056
 10
114.7107472077445
 20
165.915625374503
 10
114.6863814738735
 20
165.9924296350879
 10
113.1642472232853
 20
168.3936182170233
  0
LWPOLYLINE
  5
4263
330
42FB
100
AcDbEntity
  8
DEFAULT
100
AcDbPolyline
 90
        7
 70
     1
 43
0.0
 10
91.22989393946403
 20
56.82346877389512
 10
88.37857171059239
 20
57.60526021341258
 10
79.52411861709515
 20
52.08176943475632
 10
78.69307476281869
 20
49.26764282288615
 10
92.00480262699523
 20
46.2683049600173
 10
95.13215592599124
 20
50.32640095337024
 10
95.22038142897315
 20
52.09682063596648
  0
LWPOLYLINE
  5
426C
330
42FB
100
AcDbEntity
  8
DEFAULT
100
AcDbPolyline
 90
        5
 70
     1
 43
0.0
 10
25.37088437839285
 20
96.16548542276017
 10
19.7556256570403
 20
98.69435603473197
 10
18.59532870161226
 20
93.90761978409441
 10
20.90426173444365
 20
90.87599570891065
 10
24.55754021996013
 20
89.95197948243498
  0
LWPOLYLINE
  5
4273
330
42FB
100
AcDbEntity
  8
DEFAULT
100
AcDbPolyline
 90
        7
 70
     1
 43
0.0
 10
47.83672864666238
 20
43.30907376607996
 10
48.93405352669629
 20
42.57983129404391
 10
53.57713342797342
 20
42.281555786301
 10
56.88082312458949
 20
44.61091827734423
 10
56.93277821247176
 20
47.02500342362822
 10
50.60247178339768
 20
51.04578294027181
 10
47.59459664081703
 20
43.88668939939816
  0
LWPOLYLINE
  5
427C
330
42FB
100
AcDbEntity
  8
DEFAULT
100
AcDbPolyline
 90
        4
 70
     1
 43
0.0
 10
77.58156762119864
 20
67.49525803832411
 10
78.31207912016771
 20
53.43375613828431
 10
87.42815597309197
 20
59.12045336594845
 10
78.2340225029543
 20
69.30977067642466
  0
LWPOLYLINE
  5
4282
330
42FB
100
AcDbEntity
  8
DEFAULT
100
AcDbPolyline
 90
        6
 70
     1
 43
0.0
 10
41.83378323917475
 20
131.97227226391
 10
45.51035014013154
 20
126.0314820868941
 10
51.81528853327415
 20
126.0964129230715
 10
53.46882437559884
 20
129.3272825618873
 10
48.55663783194495
 20
136.5803945365699
 10
46.18649769221247
 20
136.1744080236277
  0
LWPOLYLINE
  5
428A
330
42FB
100
AcDbEntity
  8
DEFAULT
100
AcDbPolyline
 90
        6
 70
     1
 43
0.0
 10
160.2414602162054
 20
127.6831487713223
 10
158.5919481686387
 20
129.4151183965006
 10
157.0974907911606
 20
130.1836048492083
 10
152.5390814504225
 20
122.9066084956981
 10
159.1401344630823
 20
122.0670398644383
 10
159.832960654854
 20
122.7637273154988
  0
LWPOLYLINE
  5
4292
330
42FB
100
AcDbEntity
  8
DEFAULT
100
AcDbPolyline
 90
        7
 70
     1
 43
0.0
 10
132.5561956916377
 20
68.07611604587503
 10
128.3965191975794
 20
72.03790768990915
 10
122.1256132311521
 20
71.499671483487
 10
117.7194204411549
 20
61.30959984173047
 10
118.0149495162251
 20
60.96494963054955
 10
123.7640895371143
 20
59.57591317518477
 10
131.4485914850678
 20
62.98578020898258
  0
LWPOLYLINE
  5
429B
330
42FB
100
AcDbEntity
  8
DEFAULT
100
AcDbPolyline
 90
        8
 70
     1
 43
0.0
 10
74.40575583069733
 20
49.86695068998506
 10
75.30173260493928
 20
49.72457170270991
 10
76.10029853839859
 20
50.21621857552315
 10
76.93283438493125
 20
53.03539212209233
 10
76.22201259941022
 20
66.71785714026445
 10
66.30765112441565
 20
58.20801049839865
 10
65.65203930373804
 20
56.89963122775527
 10
66.49930336433044
 20
54.41214673058834
  0
LWPOLYLINE
  5
42A5
330
42FB
100
AcDbEntity
  8
DEFAULT
100
AcDbPolyline
 90
        6
 70
     1
 43
0.0
 10
39.31180163055348
 20
97.74578861724727
 10
32.68542642529974
 20
98.47296397152055
 10
28.97190771054543
 20
96.13769810888259
 10
28.02679729746436
 20
88.9175079018754
 10
29.83170367257461
 20
86.42432007676823
 10
39.29501880145938
 20
90.60797680390505
  0
LWPOLYLINE
  5
42AD
330
42FB
100
AcDbEntity
  8
DEFAULT
100
AcDbPolyline
 90
        7
 70
     1
 43
0.0
 10
68.69677874101751
 20
128.4903853469298
 10
64.75259927372826
 20
130.9059041394041
 10
56.73040279916262
 20
127.8028123848757
 10
54.88444371533825
 20
124.1959627812869
 10
57.04533610871561
 20
116.6670906289287
 10
67.99265633413284
 20
116.2499016713367
 10
68.32655003131032
 20
116.570017361813
  0
LWPOLYLINE
  5
42B6
330
42FB
100
AcDbEntity
  8
DEFAULT
100
AcDbPolyline
 90
        8
 70
     1
 43
0.0
 10
100.209470171251
 20
92.00005350606003
 10
97.54887706418038
 20
91.81007246417527
 10
94.21036726895954
 20
89.1951830807849
 10
89.81228458212029
 20
77.25392512029337
 10
94.69346852690875
 20
73.76475536401795
 10
96.70004391117329
 20
73.29813478589311
 10
102.8612280169163
 20
75.94130534093302
 10
105.3918802676857
 20
83.94491234215021
  0
LWPOLYLINE
  5
42C0
330
42FB
100
AcDbEntity
  8
DEFAULT
100
AcDbPolyline
 90
        6
 70
     1
 43
0.0
 10
129.9708815122866
 20
74.05362256863695
 10
134.0921225354433
 20
70.12843266200516
 10
137.1989880301615
 20
71.92192612987073
 10
138.8133194837878
 20
79.90402218686906
 10
135.3710245400865
 20
84.87757212152907
 10
130.0532474032232
 20
80.37130957717538
  0
LWPOLYLINE
  5
42C8
330
42FB
100
AcDbEntity
  8
DEFAULT
100
AcDbPolyline
 90
        6
 70
     1
 43
0.0
 10
74.41737086538456
 20
46.35810580677804
 10
73.60591670272885
 20
46.48705061238326
 10
65.06327332047169
 20
40.65588019043627
 10
66.24737338699259
 20
34.73082678090469
 10
66.45124287634598
 20
34.76094168605352
 10
74.48188702773655
 20
40.71841675412435
  0
LWPOLYLINE
  5
42D0
330
42FB
100
AcDbEntity
  8
DEFAULT
100
AcDbPolyline
 90
        7
 70
     1
 43
0.0
 10
19.86617478158723
 20
103.4567473893791
 10
20.55037617454837
 20
102.1374094772897
 10
26.31590518858698
 20
99.5408595126798
 10
29.59719416347943
 20
101.6043139760296
 10
26.56400516345712
 20
107.3844295065394
 10
20.73942784695515
 20
107.0752161952312
 10
19.96251663909129
 20
104.9174640704713
  0
ENDSEC
  0
SECTION
  2
OBJECTS
  0
DICTIONARY
  5
42EF
330
0
100
AcDbDictionary
281
     1
  3
ACAD_CIP_PREVIOUS_PRODUCT_INFO
350
4396
  3
ACAD_COLOR
350
438E
  3
ACAD_DETAILVIEWSTYLE
350
438B
  3
ACAD_GROUP
350
42F0
  3
ACAD_IMAGE_DICT
350
4353
  3
ACAD_LAYOUT
350
42F8
  3
ACAD_MATERIAL
350
4345
  3
ACAD_MLEADERSTYLE
350
438A
  3
ACAD_MLINESTYLE
350
42F5
  3
ACAD_PLOTSETTINGS
350
42F7
  3
ACAD_PLOTSTYLENAME
350
42F1
  3
ACAD_SCALELIST
350
430A
  3
ACAD_SECTIONVIEWSTYLE
350
438C
  3
ACAD_TABLESTYLE
350
434F
  3
ACAD_VISUALSTYLE
350
432C
  3
ACDB_RECOMPOSE_DATA
350
43EF
  3
AcDbVariableDictionary
350
4358
  3
AcDsDecomposeData
350
43F5
  3
HOST_DOC_SETTINGS
350
4351
  3
MCS_STREAM_DICT
350
434B
  0
SUN
  5
434E
330
4302
100
AcDbSun
 90
        1
290
     0
 63
     7
421
 16777215
 40
1.0
291
     1
 91
  2455826
 92
 54000000
292
     0
 70
     0
 71
   256
280
     1
1001
ACAD
1000
AcDbSavedByObjectVersion
1070
     0
  0
DICTIONARY
  5
43C1
330
42E5
100
AcDbDictionary
280
     1
281
     1
  3
ACAD_LAYERSTATES
360
43C2
  0
XRECORD
  5
4396
102
{ACAD_REACTORS
330
42EF
102
}
330
42EF
100
AcDbXrecord
280
     1
300
ACD
300
2019
300

  0
DICTIONARY
  5
438E
102
{ACAD_REACTORS
330
42EF
102
}
330
42EF
100
AcDbDictionary
281
     1
  0
DICTIONARY
  5
438B
102
{ACAD_REACTORS
330
42EF
102
}
330
42EF
100
AcDbDictionary
281
     1
  3
Imperial24
350
4391
  0
DICTIONARY
  5
42F0
102
{ACAD_REACTORS
330
42EF
102
}
330
42EF
100
AcDbDictionary
281
     1
  0
DICTIONARY
  5
4353
102
{ACAD_REACTORS
330
42EF
102
}
330
42EF
100
AcDbDictionary
281
     1
  0
DICTIONARY
  5
42F8
102
{ACAD_REACTORS
330
42EF
102
}
330
42EF
100
AcDbDictionary
281
     1
  3
Layout1
350
42FA
  3
Layout2
350
4392
  3
Model
350
42FC
  0
DICTIONARY
  5
4345
102
{ACAD_REACTORS
330
42EF
102
}
330
42EF
100
AcDbDictionary
281
     1
  3
ByBlock
350
4347
  3
ByLayer
350
4346
  3
Global
350
4348
  0
DICTIONARY
  5
438A
102
{ACAD_REACTORS
330
42EF
102
}
330
42EF
100
AcDbDictionary
281
     1
  3
Standard
350
438F
  0
DICTIONARY
  5
42F5
102
{ACAD_REACTORS
330
42EF
102
}
330
42EF
100
AcDbDictionary
281
     1
  3
Standard
350
42F6
  0
DICTIONARY
  5
42F7
102
{ACAD_REACTORS
330
42EF
102
}
330
42EF
100
AcDbDictionary
281
     1
  0
ACDBDICTIONARYWDFLT
  5
42F1
102
{ACAD_REACTORS
330
42EF
102
}
330
42EF
100
AcDbDictionary
281
     1
  3
Normal
350
42F2
100
AcDbDictionaryWithDefault
340
42F2
  0
DICTIONARY
  5
430A
102
{ACAD_REACTORS
330
42EF
102
}
330
42EF
100
AcDbDictionary
281
     1
  3
A0
350
430B
  3
A1
350
430C
  3
A2
350
430D
  3
A3
350
430E
  3
A4
350
430F
  3
A5
350
4310
  3
A6
350
4311
  3
A7
350
4312
  3
A8
350
4313
  3
A9
350
4314
  3
B0
350
4315
  3
B1
350
4316
  3
B2
350
4317
  3
B3
350
4318
  3
B4
350
4319
  3
B5
350
431A
  3
B6
350
431B
  3
B7
350
431C
  3
B8
350
431D
  3
B9
350
431E
  3
C0
350
431F
  3
C1
350
4320
  3
C2
350
4321
  3
C3
350
4322
  3
C4
350
4323
  3
C5
350
4324
  3
C6
350
4325
  3
C7
350
4326
  3
C8
350
4327
  3
C9
350
4328
  3
D0
350
4329
  3
D1
350
432A
  3
D2
350
432B
  0
DICTIONARY
  5
438C
102
{ACAD_REACTORS
330
42EF
102
}
330
42EF
100
AcDbDictionary
281
     1
  3
Imperial24
350
4390
  0
DICTIONARY
  5
434F
102
{ACAD_REACTORS
330
42EF
102
}
330
42EF
100
AcDbDictionary
281
     1
  3
Standard
350
4350
  0
DICTIONARY
  5
432C
102
{ACAD_REACTORS
330
42EF
102
}
330
42EF
100
AcDbDictionary
281
     1
  3
2dWireframe
350
4331
  3
Basic
350
4334
  3
Brighten
350
4338
  3
ColorChange
350
433C
  3
Conceptual
350
4336
  3
Dim
350
4337
  3
EdgeColorOff
350
433F
  3
Facepattern
350
433B
  3
Flat
350
432D
  3
FlatWithEdges
350
432E
  3
Gouraud
350
432F
  3
GouraudWithEdges
350
4330
  3
Hidden
350
4333
  3
JitterOff
350
433D
  3
Linepattern
350
433A
  3
OverhangOff
350
433E
  3
Realistic
350
4335
  3
Shaded
350
4344
  3
Shaded with edges
350
4343
  3
Shades of Gray
350
4340
  3
Sketchy
350
4341
  3
Thicken
350
4339
  3
Wireframe
350
4332
  3
X-Ray
350
4342
  0
XRECORD
  5
43EF
102
{ACAD_REACTORS
330
42EF
102
}
330
42EF
100
AcDbXrecord
280
     1
 90
        1
330
4350
  0
DICTIONARY
  5
4358
102
{ACAD_REACTORS
330
42EF
102
}
330
42EF
100
AcDbDictionary
281
     1
  3
CANNOSCALE
350
4359
  3
CMLEADERSTYLE
350
43DF
  3
CTABLESTYLE
350
43DE
  3
CVIEWDETAILSTYLE
350
43E0
  3
CVIEWSECTIONSTYLE
350
43E1
  0
DICTIONARY
  5
43F5
102
{ACAD_REACTORS
330
42EF
102
}
330
42EF
100
AcDbDictionary
281
     1
  3
AcDsRecords
350
43F7
  3
AcDsSchemas
350
43F6
1001
ACAD
1070
     2
  0
DICTIONARY
  5
4351
102
{ACAD_REACTORS
330
42EF
102
}
330
42EF
100
AcDbDictionary
281
     1
  3
NCDocParameters
350
4352
  0
DICTIONARY
  5
434B
102
{ACAD_REACTORS
330
42EF
102
}
330
42EF
100
AcDbDictionary
281
     1
  3
MC_VERSION_DATA
350
4356
  3
MCS_DOCUMENT_ID
350
434C
  3
MCS_PARAMS_DATA
350
4354
  0
DICTIONARY
  5
43C2
102
{ACAD_REACTORS
330
43C1
102
}
330
43C1
100
AcDbDictionary
281
     1
  0
ACDBDETAILVIEWSTYLE
  5
4391
102
{ACAD_XDICTIONARY
360
43FA
102
}
102
{ACAD_REACTORS
330
438B
102
}
330
438B
100
AcDbModelDocViewStyle
 70
     0
  3
Imperial24
290
     0
100
AcDbDetailViewStyle
 70
     0
 71
     0
 90
        3
 71
     1
340
4304
 62
   256
 40
0.24
340
0
 62
   256
 40
0.24
300

 40
0.36
280
     3
 71
     2
340
42FF
 90
       25
 62
   256
 71
     3
340
4304
 62
   256
 40
0.24
 90
        1
 40
0.75
 90
        1
300
%<\AcVar ViewType \f "%tc1">% %<\AcVar ViewDetailId>%\PSCALE %<\AcVar ViewScale \f "%sn">%
 71
     4
340
42FF
 90
       25
 62
   256
340
42FF
 90
       25
 62
   256
280
     0
  0
LAYOUT
  5
42FA
102
{ACAD_REACTORS
330
42F8
102
}
330
42F8
100
AcDbPlotSettings
  1

  2
none_device
  4

  6

 40
0.0
 41
0.0
 42
0.0
 43
0.0
 44
0.0
 45
0.0
 46
0.0
 47
0.0
 48
0.0
 49
0.0
140
0.0
141
0.0
142
1.0
143
1.0
 70
   688
 72
     0
 73
     0
 74
     5
  7

 75
    16
147
1.0
 76
     0
 77
     2
 78
   300
148
0.0
149
0.0
100
AcDbLayout
  1
Layout1
 70
     0
 71
     1
 10
0.0
 20
0.0
 11
12.0
 21
9.0
 12
0.0
 22
0.0
 32
0.0
 14
1.000000000000000E+20
 24
1.000000000000000E+20
 34
1.000000000000000E+20
 15
-1.000000000000000E+20
 25
-1.000000000000000E+20
 35
-1.000000000000000E+20
146
0.0
 13
0.0
 23
0.0
 33
0.0
 16
1.0
 26
0.0
 36
0.0
 17
0.0
 27
1.0
 37
0.0
 76
     0
330
42F9
  0
LAYOUT
  5
4392
102
{ACAD_REACTORS
330
42F8
102
}
330
42F8
100
AcDbPlotSettings
  1

  2
Microsoft Print to PDF
  4

  6

 40
0.0
 41
0.0
 42
0.0
 43
0.0
 44
0.0
 45
0.0
 46
0.0
 47
0.0
 48
0.0
 49
0.0
140
0.0
141
0.0
142
1.0
143
1.0
 70
   688
 72
     0
 73
     0
 74
     5
  7

 75
    16
147
1.0
 76
     0
 77
     2
 78
   300
148
0.0
149
0.0
100
AcDbLayout
  1
Layout2
 70
     1
 71
     2
 10
0.0
 20
0.0
 11
12.0
 21
9.0
 12
0.0
 22
0.0
 32
0.0
 14
0.0
 24
0.0
 34
0.0
 15
0.0
 25
0.0
 35
0.0
146
0.0
 13
0.0
 23
0.0
 33
0.0
 16
1.0
 26
0.0
 36
0.0
 17
0.0
 27
1.0
 37
0.0
 76
     0
330
42FE
  0
LAYOUT
  5
42FC
102
{ACAD_REACTORS
330
42F8
102
}
330
42F8
100
AcDbPlotSettings
  1

  2
none_device
  4
Letter_(8.50_x_11.00_Inches)
  6

 40
6.349999999999999
 41
6.349999999999999
 42
6.350005079999999
 43
6.350005079999999
 44
215.9
 45
279.4
 46
0.0
 47
0.0
 48
0.0
 49
0.0
140
0.0
141
0.0
142
1.0
143
1.0
 70
  1712
 72
     0
 73
     0
 74
     0
  7

 75
     0
147
1.0
 76
     0
 77
     2
 78
   300
148
0.0
149
0.0
100
AcDbLayout
  1
Model
 70
     1
 71
     0
 10
0.0
 20
0.0
 11
12.0
 21
9.0
 12
0.0
 22
0.0
 32
0.0
 14
-169.2511539060307
 24
-163.095131966649
 34
0.0
 15
177.2593293336088
 25
199.6179230022454
 35
0.0
146
0.0
 13
0.0
 23
0.0
 33
0.0
 16
1.0
 26
0.0
 36
0.0
 17
0.0
 27
1.0
 37
0.0
 76
     0
330
42FB
331
4302
  0
MATERIAL
  5
4347
102
{ACAD_REACTORS
330
4345
102
}
330
4345
100
AcDbMaterial
  1
ByBlock
 73
     1
 78
     1
172
     1
176
     1
270
     1
274
     1
  0
MATERIAL
  5
4346
102
{ACAD_REACTORS
330
4345
102
}
330
4345
100
AcDbMaterial
  1
ByLayer
 73
     1
 78
     1
172
     1
176
     1
270
     1
274
     1
  0
MATERIAL
  5
4348
102
{ACAD_REACTORS
330
4345
102
}
330
4345
100
AcDbMaterial
  1
Global
 73
     1
 78
     1
172
     1
176
     1
270
     1
274
     1
  0
MLEADERSTYLE
  5
438F
102
{ACAD_REACTORS
330
438A
102
}
330
438A
100
AcDbMLeaderStyle
179
     2
170
     2
171
     1
172
     0
 90
        2
 40
0.0
 41
0.0
173
     1
 91
-1056964608
340
42F3
 92
       -2
290
     1
 42
0.09
291
     1
 43
0.36
  3
Standard
 44
0.18
300

342
4304
174
     1
178
     6
175
     1
176
     0
 93
-1056964608
 45
0.18
292
     0
297
     0
 46
0.18
 94
-1056964608
 47
1.0
 49
1.0
140
1.0
293
     1
141
0.0
294
     1
177
     0
142
1.0
295
     0
296
     0
143
0.125
271
     0
272
     9
273
     9
298
     1
  0
MLINESTYLE
  5
42F6
102
{ACAD_REACTORS
330
42F5
102
}
330
42F5
100
AcDbMlineStyle
  2
STANDARD
 70
     0
  3

 62
   256
 51
90.0
 52
90.0
 71
     2
 49
0.5
 62
   256
  6
BYLAYER
 49
-0.5
 62
   256
  6
BYLAYER
  0
ACDBPLACEHOLDER
  5
42F2
102
{ACAD_REACTORS
330
42F1
102
}
330
42F1
  0
SCALE
  5
430B
102
{ACAD_REACTORS
330
430A
102
}
330
430A
100
AcDbScale
 70
     0
300
1:1
140
1.0
141
1.0
290
     1
  0
SCALE
  5
430C
102
{ACAD_REACTORS
330
430A
102
}
330
430A
100
AcDbScale
 70
     0
300
1:2
140
1.0
141
2.0
290
     0
  0
SCALE
  5
430D
102
{ACAD_REACTORS
330
430A
102
}
330
430A
100
AcDbScale
 70
     0
300
1:4
140
1.0
141
4.0
290
     0
  0
SCALE
  5
430E
102
{ACAD_REACTORS
330
430A
102
}
330
430A
100
AcDbScale
 70
     0
300
1:5
140
1.0
141
5.0
290
     0
  0
SCALE
  5
430F
102
{ACAD_REACTORS
330
430A
102
}
330
430A
100
AcDbScale
 70
     0
300
1:8
140
1.0
141
8.0
290
     0
  0
SCALE
  5
4310
102
{ACAD_REACTORS
330
430A
102
}
330
430A
100
AcDbScale
 70
     0
300
1:10
140
1.0
141
10.0
290
     0
  0
SCALE
  5
4311
102
{ACAD_REACTORS
330
430A
102
}
330
430A
100
AcDbScale
 70
     0
300
1:16
140
1.0
141
16.0
290
     0
  0
SCALE
  5
4312
102
{ACAD_REACTORS
330
430A
102
}
330
430A
100
AcDbScale
 70
     0
300
1:20
140
1.0
141
20.0
290
     0
  0
SCALE
  5
4313
102
{ACAD_REACTORS
330
430A
102
}
330
430A
100
AcDbScale
 70
     0
300
1:30
140
1.0
141
30.0
290
     0
  0
SCALE
  5
4314
102
{ACAD_REACTORS
330
430A
102
}
330
430A
100
AcDbScale
 70
     0
300
1:40
140
1.0
141
40.0
290
     0
  0
SCALE
  5
4315
102
{ACAD_REACTORS
330
430A
102
}
330
430A
100
AcDbScale
 70
     0
300
1:50
140
1.0
141
50.0
290
     0
  0
SCALE
  5
4316
102
{ACAD_REACTORS
330
430A
102
}
330
430A
100
AcDbScale
 70
     0
300
1:100
140
1.0
141
100.0
290
     0
  0
SCALE
  5
4317
102
{ACAD_REACTORS
330
430A
102
}
330
430A
100
AcDbScale
 70
     0
300
2:1
140
2.0
141
1.0
290
     0
  0
SCALE
  5
4318
102
{ACAD_REACTORS
330
430A
102
}
330
430A
100
AcDbScale
 70
     0
300
4:1
140
4.0
141
1.0
290
     0
  0
SCALE
  5
4319
102
{ACAD_REACTORS
330
430A
102
}
330
430A
100
AcDbScale
 70
     0
300
8:1
140
8.0
141
1.0
290
     0
  0
SCALE
  5
431A
102
{ACAD_REACTORS
330
430A
102
}
330
430A
100
AcDbScale
 70
     0
300
10:1
140
10.0
141
1.0
290
     0
  0
SCALE
  5
431B
102
{ACAD_REACTORS
330
430A
102
}
330
430A
100
AcDbScale
 70
     0
300
100:1
140
100.0
141
1.0
290
     0
  0
SCALE
  5
431C
102
{ACAD_REACTORS
330
430A
102
}
330
430A
100
AcDbScale
 70
     0
300
1/128" = 1'-0"
140
0.0078125
141
12.0
290
     0
  0
SCALE
  5
431D
102
{ACAD_REACTORS
330
430A
102
}
330
430A
100
AcDbScale
 70
     0
300
1/64" = 1'-0"
140
0.015625
141
12.0
290
     0
  0
SCALE
  5
431E
102
{ACAD_REACTORS
330
430A
102
}
330
430A
100
AcDbScale
 70
     0
300
1/32" = 1'-0"
140
0.03125
141
12.0
290
     0
  0
SCALE
  5
431F
102
{ACAD_REACTORS
330
430A
102
}
330
430A
100
AcDbScale
 70
     0
300
1/16" = 1'-0"
140
0.0625
141
12.0
290
     0
  0
SCALE
  5
4320
102
{ACAD_REACTORS
330
430A
102
}
330
430A
100
AcDbScale
 70
     0
300
3/32" = 1'-0"
140
0.09375
141
12.0
290
     0
  0
SCALE
  5
4321
102
{ACAD_REACTORS
330
430A
102
}
330
430A
100
AcDbScale
 70
     0
300
1/8" = 1'-0"
140
0.125
141
12.0
290
     0
  0
SCALE
  5
4322
102
{ACAD_REACTORS
330
430A
102
}
330
430A
100
AcDbScale
 70
     0
300
3/16" = 1'-0"
140
0.1875
141
12.0
290
     0
  0
SCALE
  5
4323
102
{ACAD_REACTORS
330
430A
102
}
330
430A
100
AcDbScale
 70
     0
300
1/4" = 1'-0"
140
0.25
141
12.0
290
     0
  0
SCALE
  5
4324
102
{ACAD_REACTORS
330
430A
102
}
330
430A
100
AcDbScale
 70
     0
300
3/8" = 1'-0"
140
0.375
141
12.0
290
     0
  0
SCALE
  5
4325
102
{ACAD_REACTORS
330
430A
102
}
330
430A
100
AcDbScale
 70
     0
300
1/2" = 1'-0"
140
0.5
141
12.0
290
     0
  0
SCALE
  5
4326
102
{ACAD_REACTORS
330
430A
102
}
330
430A
100
AcDbScale
 70
     0
300
3/4" = 1'-0"
140
0.75
141
12.0
290
     0
  0
SCALE
  5
4327
102
{ACAD_REACTORS
330
430A
102
}
330
430A
100
AcDbScale
 70
     0
300
1" = 1'-0"
140
1.0
141
12.0
290
     0
  0
SCALE
  5
4328
102
{ACAD_REACTORS
330
430A
102
}
330
430A
100
AcDbScale
 70
     0
300
1-1/2" = 1'-0"
140
1.5
141
12.0
290
     0
  0
SCALE
  5
4329
102
{ACAD_REACTORS
330
430A
102
}
330
430A
100
AcDbScale
 70
     0
300
3" = 1'-0"
140
3.0
141
12.0
290
     0
  0
SCALE
  5
432A
102
{ACAD_REACTORS
330
430A
102
}
330
430A
100
AcDbScale
 70
     0
300
6" = 1'-0"
140
6.0
141
12.0
290
     0
  0
SCALE
  5
432B
102
{ACAD_REACTORS
330
430A
102
}
330
430A
100
AcDbScale
 70
     0
300
1'-0" = 1'-0"
140
12.0
141
12.0
290
     0
  0
ACDBSECTIONVIEWSTYLE
  5
4390
102
{ACAD_XDICTIONARY
360
43F8
102
}
102
{ACAD_REACTORS
330
438C
102
}
330
438C
100
AcDbModelDocViewStyle
 70
     0
  3
Imperial24
290
     0
100
AcDbSectionViewStyle
 70
     0
 71
     0
 90
       78
 71
     1
340
4304
 62
   256
 40
0.24
340
0
340
0
 62
   256
 40
0.24
300
I, O, Q, S, X, Z
 40
0.48
 90
        3
 40
0.18
 90
        1
 71
     2
340
42FF
 90
       25
 62
   256
340
42FF
 90
       50
 62
   256
 40
0.24
 40
0.0
 40
0.24
 71
     3
340
4304
 62
   256
 40
0.24
 90
        1
 40
0.75
 90
        1
300
%<\AcVar ViewType \f "%tc1">% %<\AcVar ViewSectionStartId>%-%<\AcVar ViewSectionEndId>%\PSCALE %<\AcVar ViewScale \f "%sn">%
 71
     4
 62
   256
 62
   257
300
ANSI31
 40
1.0
 90
        0
290
     0
290
     0
 90
        6
 40
0.0
 40
1.570796326794896
 40
0.2617993877991494
 40
1.308996938995747
 40
-0.2617993877991494
 40
1.832595714594046
  0
TABLESTYLE
  5
4350
102
{ACAD_XDICTIONARY
360
43ED
102
}
102
{ACAD_REACTORS
330
434F
102
}
330
434F
100
AcDbTableStyle
280
     0
  3
Standard
 70
     0
 71
     0
 40
1.5
 41
1.5
280
     0
281
     0
  7
STANDARD
140
4.5
170
     2
 62
     0
 63
     7
283
     0
 90
        4
 91
        0
  1

274
    -2
284
     1
 64
     0
275
    -2
285
     1
 65
     0
276
    -2
286
     1
 66
     0
277
    -2
287
     1
 67
     0
278
    -2
288
     1
 68
     0
279
    -2
289
     1
 69
     0
  7
STANDARD
140
6.0
170
     5
 62
     0
 63
     7
283
     0
 90
        4
 91
        0
  1

274
    -2
284
     1
 64
     0
275
    -2
285
     1
 65
     0
276
    -2
286
     1
 66
     0
277
    -2
287
     1
 67
     0
278
    -2
288
     1
 68
     0
279
    -2
289
     1
 69
     0
  7
STANDARD
140
4.5
170
     5
 62
     0
 63
     7
283
     0
 90
        4
 91
        0
  1

274
    -2
284
     1
 64
     0
275
    -2
285
     1
 65
     0
276
    -2
286
     1
 66
     0
277
    -2
287
     1
 67
     0
278
    -2
288
     1
 68
     0
279
    -2
289
     1
 69
     0
  0
VISUALSTYLE
  5
4331
102
{ACAD_REACTORS
330
432C
102
}
330
432C
100
AcDbVisualStyle
  2
2dWireframe
 70
     4
177
     3
291
     0
 70
    58
 90
        0
176
     1
 90
        2
176
     1
 90
        0
176
     1
 90
        0
176
     1
 40
0.6
176
     1
 40
30.0
176
     1
 62
     7
420
 16777215
176
     1
 90
        1
176
     1
 90
        4
176
     1
 62
     7
176
     1
 62
   257
176
     1
 90
        1
176
     1
 90
        1
176
     1
 40
1.0
176
     1
 90
        0
176
     1
 62
   257
176
     1
 40
1.0
176
     1
 90
        1
176
     1
 90
        6
176
     1
 90
        2
176
     1
 62
     7
176
     1
 90
        5
176
     1
 90
        0
176
     1
 90
        0
176
     1
290
     0
176
     1
 90
        1
176
     1
 40
0.0
176
     1
 90
        0
176
     1
290
     1
176
     1
290
     1
176
     1
290
     0
176
     1
290
     0
176
     1
290
     0
176
     1
290
     0
176
     1
290
     0
176
     1
290
     0
176
     1
290
     0
176
     1
 90
       50
176
     1
 40
0.0
176
     1
 40
1.0
176
     1
 90
        0
176
     1
 62
    18
420
        0
176
     1
 90
       50
176
     1
 90
        3
176
     1
 62
     5
420
      255
176
     1
290
     0
176
     1
 90
       50
176
     1
 90
       50
176
     1
 90
       50
176
     1
290
     0
176
     1
 90
       50
176
     1
 62
   256
176
     0
 40
1.0
176
     0
 90
        2
176
     1
  1
strokes_ogs.tif
176
     1
290
     0
176
     1
 40
1.0
176
     1
 40
1.0
176
     1
1001
ACAD
1000
AcDbSavedByObjectVersion
1070
     0
  0
VISUALSTYLE
  5
4334
102
{ACAD_REACTORS
330
432C
102
}
330
432C
100
AcDbVisualStyle
  2
Basic
 70
     7
177
     3
291
     1
 70
    58
 90
        1
176
     1
 90
        0
176
     1
 90
        1
176
     1
 90
        0
176
     1
 40
0.6
176
     1
 40
30.0
176
     1
 62
     7
420
 16777215
176
     1
 90
        0
176
     1
 90
        4
176
     1
 62
     7
176
     1
 62
   257
176
     1
 90
        1
176
     1
 90
        1
176
     1
 40
1.0
176
     1
 90
        8
176
     1
 62
     7
176
     1
 40
1.0
176
     1
 90
        1
176
     1
 90
        6
176
     1
 90
        2
176
     1
 62
     7
176
     1
 90
        5
176
     1
 90
        0
176
     1
 90
        0
176
     1
290
     0
176
     1
 90
        1
176
     1
 40
0.0
176
     1
 90
        0
176
     1
290
     0
176
     1
290
     1
176
     1
290
     1
176
     1
290
     0
176
     1
290
     0
176
     1
290
     0
176
     1
290
     0
176
     1
290
     0
176
     1
290
     0
176
     1
 90
       50
176
     1
 40
0.0
176
     1
 40
1.0
176
     1
 90
        0
176
     1
 62
    18
420
        0
176
     1
 90
       50
176
     1
 90
        3
176
     1
 62
     5
420
      255
176
     1
290
     0
176
     1
 90
       50
176
     1
 90
       50
176
     1
 90
       50
176
     1
290
     0
176
     1
 90
       50
176
     1
 62
   256
176
     0
 40
1.0
176
     0
 90
        2
176
     1
  1
strokes_ogs.tif
176
     1
290
     0
176
     1
 40
1.0
176
     1
 40
1.0
176
     1
1001
ACAD
1000
AcDbSavedByObjectVersion
1070
     0
  0
VISUALSTYLE
  5
4338
102
{ACAD_REACTORS
330
432C
102
}
330
432C
100
AcDbVisualStyle
  2
Brighten
 70
    12
177
     3
291
     1
 70
    58
 90
        2
176
     1
 90
        2
176
     1
 90
        0
176
     1
 90
        0
176
     1
 40
0.6
176
     1
 40
30.0
176
     1
 62
     7
420
 16777215
176
     1
 90
        1
176
     1
 90
        4
176
     1
 62
     7
176
     1
 62
   257
176
     1
 90
        1
176
     1
 90
        1
176
     1
 40
1.0
176
     1
 90
        8
176
     1
 62
     7
176
     1
 40
1.0
176
     1
 90
        1
176
     1
 90
        6
176
     1
 90
        2
176
     1
 62
     7
176
     1
 90
        5
176
     1
 90
        0
176
     1
 90
        0
176
     1
290
     0
176
     1
 90
        1
176
     1
 40
50.0
176
     1
 90
        0
176
     1
290
     0
176
     1
290
     1
176
     1
290
     1
176
     1
290
     0
176
     1
290
     0
176
     1
290
     0
176
     1
290
     0
176
     1
290
     0
176
     1
290
     0
176
     1
 90
       50
176
     1
 40
0.0
176
     1
 40
1.0
176
     1
 90
        0
176
     1
 62
    18
420
        0
176
     1
 90
       50
176
     1
 90
        3
176
     1
 62
     5
420
      255
176
     1
290
     0
176
     1
 90
       50
176
     1
 90
       50
176
     1
 90
       50
176
     1
290
     0
176
     1
 90
       50
176
     1
 62
   256
176
     0
 40
1.0
176
     0
 90
        2
176
     1
  1
strokes_ogs.tif
176
     1
290
     0
176
     1
 40
1.0
176
     1
 40
1.0
176
     1
1001
ACAD
1000
AcDbSavedByObjectVersion
1070
     0
  0
VISUALSTYLE
  5
433C
102
{ACAD_REACTORS
330
432C
102
}
330
432C
100
AcDbVisualStyle
  2
ColorChange
 70
    16
177
     3
291
     1
 70
    58
 90
        2
176
     1
 90
        2
176
     1
 90
        3
176
     1
 90
        0
176
     1
 40
0.6
176
     1
 40
30.0
176
     1
 62
     8
420
  8421504
176
     1
 90
        1
176
     1
 90
        4
176
     1
 62
     7
176
     1
 62
   257
176
     1
 90
        1
176
     1
 90
        1
176
     1
 40
1.0
176
     1
 90
        8
176
     1
 62
     8
420
  8421504
176
     1
 40
1.0
176
     1
 90
        1
176
     1
 90
        6
176
     1
 90
        2
176
     1
 62
     7
176
     1
 90
        5
176
     1
 90
        0
176
     1
 90
        0
176
     1
290
     0
176
     1
 90
        1
176
     1
 40
0.0
176
     1
 90
        0
176
     1
290
     0
176
     1
290
     1
176
     1
290
     1
176
     1
290
     0
176
     1
290
     0
176
     1
290
     0
176
     1
290
     0
176
     1
290
     0
176
     1
290
     0
176
     1
 90
       50
176
     1
 40
0.0
176
     1
 40
1.0
176
     1
 90
        0
176
     1
 62
    18
420
        0
176
     1
 90
       50
176
     1
 90
        3
176
     1
 62
     5
420
      255
176
     1
290
     0
176
     1
 90
       50
176
     1
 90
       50
176
     1
 90
       50
176
     1
290
     0
176
     1
 90
       50
176
     1
 62
   256
176
     0
 40
1.0
176
     0
 90
        2
176
     1
  1
strokes_ogs.tif
176
     1
290
     0
176
     1
 40
1.0
176
     1
 40
1.0
176
     1
1001
ACAD
1000
AcDbSavedByObjectVersion
1070
     0
  0
VISUALSTYLE
  5
4336
102
{ACAD_REACTORS
330
432C
102
}
330
432C
100
AcDbVisualStyle
  2
Conceptual
 70
     9
177
     3
291
     0
 70
    58
 90
        3
176
     1
 90
        2
176
     1
 90
        0
176
     1
 90
        0
176
     1
 40
0.6
176
     1
 40
30.0
176
     1
 62
     7
420
 16777215
176
     1
 90
        2
176
     1
 90
        2
176
     1
 62
     7
176
     1
 62
   257
176
     1
 90
        1
176
     1
 90
        1
176
     1
 40
179.0
176
     1
 90
        8
176
     1
 62
     7
176
     1
 40
1.0
176
     1
 90
        1
176
     1
 90
        6
176
     1
 90
        2
176
     1
 62
     7
176
     1
 90
        3
176
     1
 90
        0
176
     1
 90
        0
176
     1
290
     0
176
     1
 90
        1
176
     1
 40
0.0
176
     1
 90
        0
176
     1
290
     0
176
     1
290
     1
176
     1
290
     1
176
     1
290
     0
176
     1
290
     0
176
     1
290
     0
176
     1
290
     0
176
     1
290
     0
176
     1
290
     0
176
     1
 90
       50
176
     1
 40
0.0
176
     1
 40
1.0
176
     1
 90
        0
176
     1
 62
    18
420
        0
176
     1
 90
       50
176
     1
 90
        3
176
     1
 62
     5
420
      255
176
     1
290
     0
176
     1
 90
       50
176
     1
 90
       50
176
     1
 90
       50
176
     1
290
     0
176
     1
 90
       50
176
     1
 62
   256
176
     0
 40
1.0
176
     0
 90
        2
176
     1
  1
strokes_ogs.tif
176
     1
290
     0
176
     1
 40
1.0
176
     1
 40
1.0
176
     1
1001
ACAD
1000
AcDbSavedByObjectVersion
1070
     0
  0
VISUALSTYLE
  5
4337
102
{ACAD_REACTORS
330
432C
102
}
330
432C
100
AcDbVisualStyle
  2
Dim
 70
    11
177
     3
291
     1
 70
    58
 90
        2
176
     1
 90
        2
176
     1
 90
        0
176
     1
 90
        0
176
     1
 40
0.6
176
     1
 40
30.0
176
     1
 62
     7
420
 16777215
176
     1
 90
        1
176
     1
 90
        4
176
     1
 62
     7
176
     1
 62
   257
176
     1
 90
        1
176
     1
 90
        1
176
     1
 40
1.0
176
     1
 90
        8
176
     1
 62
     7
176
     1
 40
1.0
176
     1
 90
        1
176
     1
 90
        6
176
     1
 90
        2
176
     1
 62
     7
176
     1
 90
        5
176
     1
 90
        0
176
     1
 90
        0
176
     1
290
     0
176
     1
 90
        1
176
     1
 40
-50.0
176
     1
 90
        0
176
     1
290
     0
176
     1
290
     1
176
     1
290
     1
176
     1
290
     0
176
     1
290
     0
176
     1
290
     0
176
     1
290
     0
176
     1
290
     0
176
     1
290
     0
176
     1
 90
       50
176
     1
 40
0.0
176
     1
 40
1.0
176
     1
 90
        0
176
     1
 62
    18
420
        0
176
     1
 90
       50
176
     1
 90
        3
176
     1
 62
     5
420
      255
176
     1
290
     0
176
     1
 90
       50
176
     1
 90
       50
176
     1
 90
       50
176
     1
290
     0
176
     1
 90
       50
176
     1
 62
   256
176
     0
 40
1.0
176
     0
 90
        2
176
     1
  1
strokes_ogs.tif
176
     1
290
     0
176
     1
 40
1.0
176
     1
 40
1.0
176
     1
1001
ACAD
1000
AcDbSavedByObjectVersion
1070
     0
  0
VISUALSTYLE
  5
433F
102
{ACAD_REACTORS
330
432C
102
}
330
432C
100
AcDbVisualStyle
  2
EdgeColorOff
 70
    22
177
     3
291
     1
 70
    58
 90
        2
176
     0
 90
        2
176
     0
 90
        0
176
     0
 90
        0
176
     0
 40
0.6
176
     0
 40
30.0
176
     0
 62
     7
420
 16777215
176
     0
 90
        1
176
     0
 90
        4
176
     0
 62
     7
176
     0
 62
   257
176
     0
 90
        1
176
     0
 90
        1
176
     0
 40
1.0
176
     0
 90
        8
176
     2
 62
     7
176
     0
 40
1.0
176
     0
 90
        1
176
     0
 90
        6
176
     0
 90
        2
176
     0
 62
     7
176
     0
 90
        5
176
     0
 90
        0
176
     0
 90
        0
176
     0
290
     0
176
     0
 90
        1
176
     0
 40
0.0
176
     0
 90
        0
176
     0
290
     0
176
     0
290
     1
176
     0
290
     1
176
     0
290
     0
176
     0
290
     0
176
     0
290
     0
176
     0
290
     0
176
     0
290
     0
176
     0
290
     0
176
     0
 90
       50
176
     0
 40
0.0
176
     0
 40
1.0
176
     0
 90
        0
176
     0
 62
    18
420
        0
176
     0
 90
       50
176
     0
 90
        3
176
     0
 62
     5
420
      255
176
     0
290
     0
176
     0
 90
       50
176
     0
 90
       50
176
     0
 90
       50
176
     0
290
     0
176
     0
 90
       50
176
     0
 62
   256
176
     0
 40
1.0
176
     0
 90
        2
176
     0
  1
strokes_ogs.tif
176
     0
290
     0
176
     0
 40
1.0
176
     0
 40
1.0
176
     0
1001
ACAD
1000
AcDbSavedByObjectVersion
1070
     0
  0
VISUALSTYLE
  5
433B
102
{ACAD_REACTORS
330
432C
102
}
330
432C
100
AcDbVisualStyle
  2
Facepattern
 70
    15
177
     3
291
     1
 70
    58
 90
        2
176
     1
 90
        2
176
     1
 90
        0
176
     1
 90
        0
176
     1
 40
0.6
176
     1
 40
30.0
176
     1
 62
     7
420
 16777215
176
     1
 90
        1
176
     1
 90
        4
176
     1
 62
     7
176
     1
 62
   257
176
     1
 90
        1
176
     1
 90
        1
176
     1
 40
1.0
176
     1
 90
        8
176
     1
 62
     7
176
     1
 40
1.0
176
     1
 90
        1
176
     1
 90
        6
176
     1
 90
        2
176
     1
 62
     7
176
     1
 90
        5
176
     1
 90
        0
176
     1
 90
        0
176
     1
290
     0
176
     1
 90
        1
176
     1
 40
0.0
176
     1
 90
        0
176
     1
290
     0
176
     1
290
     1
176
     1
290
     1
176
     1
290
     0
176
     1
290
     0
176
     1
290
     0
176
     1
290
     0
176
     1
290
     0
176
     1
290
     0
176
     1
 90
       50
176
     1
 40
0.0
176
     1
 40
1.0
176
     1
 90
        0
176
     1
 62
    18
420
        0
176
     1
 90
       50
176
     1
 90
        3
176
     1
 62
     5
420
      255
176
     1
290
     0
176
     1
 90
       50
176
     1
 90
       50
176
     1
 90
       50
176
     1
290
     0
176
     1
 90
       50
176
     1
 62
   256
176
     0
 40
1.0
176
     0
 90
        2
176
     1
  1
strokes_ogs.tif
176
     1
290
     0
176
     1
 40
1.0
176
     1
 40
1.0
176
     1
1001
ACAD
1000
AcDbSavedByObjectVersion
1070
     0
  0
VISUALSTYLE
  5
432D
102
{ACAD_REACTORS
330
432C
102
}
330
432C
100
AcDbVisualStyle
  2
Flat
 70
     0
177
     3
291
     1
 70
    58
 90
        2
176
     1
 90
        1
176
     1
 90
        1
176
     1
 90
        2
176
     1
 40
0.6
176
     1
 40
30.0
176
     1
 62
     7
420
 16777215
176
     1
 90
        0
176
     1
 90
        0
176
     1
 62
     7
176
     1
 62
   257
176
     1
 90
        1
176
     1
 90
        1
176
     1
 40
1.0
176
     1
 90
        8
176
     1
 62
     7
176
     1
 40
1.0
176
     1
 90
        1
176
     1
 90
        6
176
     1
 90
        2
176
     1
 62
     7
176
     1
 90
        5
176
     1
 90
        0
176
     1
 90
        0
176
     1
290
     0
176
     1
 90
       13
176
     1
 40
0.0
176
     1
 90
        0
176
     1
290
     0
176
     1
290
     1
176
     1
290
     1
176
     1
290
     0
176
     1
290
     0
176
     1
290
     0
176
     1
290
     0
176
     1
290
     0
176
     1
290
     0
176
     1
 90
       50
176
     1
 40
0.0
176
     1
 40
1.0
176
     1
 90
        0
176
     1
 62
    18
420
        0
176
     1
 90
       50
176
     1
 90
        3
176
     1
 62
     5
420
      255
176
     1
290
     0
176
     1
 90
       50
176
     1
 90
       50
176
     1
 90
       50
176
     1
290
     0
176
     1
 90
       50
176
     1
 62
   256
176
     0
 40
1.0
176
     0
 90
        2
176
     1
  1
strokes_ogs.tif
176
     1
290
     0
176
     1
 40
1.0
176
     1
 40
1.0
176
     1
1001
ACAD
1000
AcDbSavedByObjectVersion
1070
     0
  0
VISUALSTYLE
  5
432E
102
{ACAD_REACTORS
330
432C
102
}
330
432C
100
AcDbVisualStyle
  2
FlatWithEdges
 70
     1
177
     3
291
     1
 70
    58
 90
        2
176
     1
 90
        1
176
     1
 90
        1
176
     1
 90
        2
176
     1
 40
0.6
176
     1
 40
30.0
176
     1
 62
     7
420
 16777215
176
     1
 90
        1
176
     1
 90
        0
176
     1
 62
     7
176
     1
 62
   257
176
     1
 90
        1
176
     1
 90
        1
176
     1
 40
1.0
176
     1
 90
        0
176
     1
 62
   257
176
     1
 40
1.0
176
     1
 90
        1
176
     1
 90
        6
176
     1
 90
        2
176
     1
 62
     7
176
     1
 90
        5
176
     1
 90
        0
176
     1
 90
        0
176
     1
290
     0
176
     1
 90
       13
176
     1
 40
0.0
176
     1
 90
        0
176
     1
290
     0
176
     1
290
     1
176
     1
290
     1
176
     1
290
     0
176
     1
290
     0
176
     1
290
     0
176
     1
290
     0
176
     1
290
     0
176
     1
290
     0
176
     1
 90
       50
176
     1
 40
0.0
176
     1
 40
1.0
176
     1
 90
        0
176
     1
 62
    18
420
        0
176
     1
 90
       50
176
     1
 90
        3
176
     1
 62
     5
420
      255
176
     1
290
     0
176
     1
 90
       50
176
     1
 90
       50
176
     1
 90
       50
176
     1
290
     0
176
     1
 90
       50
176
     1
 62
   256
176
     0
 40
1.0
176
     0
 90
        2
176
     1
  1
strokes_ogs.tif
176
     1
290
     0
176
     1
 40
1.0
176
     1
 40
1.0
176
     1
1001
ACAD
1000
AcDbSavedByObjectVersion
1070
     0
  0
VISUALSTYLE
  5
432F
102
{ACAD_REACTORS
330
432C
102
}
330
432C
100
AcDbVisualStyle
  2
Gouraud
 70
     2
177
     3
291
     1
 70
    58
 90
        2
176
     1
 90
        2
176
     1
 90
        1
176
     1
 90
        2
176
     1
 40
0.6
176
     1
 40
30.0
176
     1
 62
     7
420
 16777215
176
     1
 90
        0
176
     1
 90
        0
176
     1
 62
     7
176
     1
 62
   257
176
     1
 90
        1
176
     1
 90
        1
176
     1
 40
1.0
176
     1
 90
        0
176
     1
 62
     7
176
     1
 40
1.0
176
     1
 90
        1
176
     1
 90
        6
176
     1
 90
        2
176
     1
 62
     7
176
     1
 90
        5
176
     1
 90
        0
176
     1
 90
        0
176
     1
290
     0
176
     1
 90
       13
176
     1
 40
0.0
176
     1
 90
        0
176
     1
290
     0
176
     1
290
     1
176
     1
290
     1
176
     1
290
     0
176
     1
290
     0
176
     1
290
     0
176
     1
290
     0
176
     1
290
     0
176
     1
290
     0
176
     1
 90
       50
176
     1
 40
0.0
176
     1
 40
1.0
176
     1
 90
        0
176
     1
 62
    18
420
        0
176
     1
 90
       50
176
     1
 90
        3
176
     1
 62
     5
420
      255
176
     1
290
     0
176
     1
 90
       50
176
     1
 90
       50
176
     1
 90
       50
176
     1
290
     0
176
     1
 90
       50
176
     1
 62
   256
176
     0
 40
1.0
176
     0
 90
        2
176
     1
  1
strokes_ogs.tif
176
     1
290
     0
176
     1
 40
1.0
176
     1
 40
1.0
176
     1
1001
ACAD
1000
AcDbSavedByObjectVersion
1070
     0
  0
VISUALSTYLE
  5
4330
102
{ACAD_REACTORS
330
432C
102
}
330
432C
100
AcDbVisualStyle
  2
GouraudWithEdges
 70
     3
177
     3
291
     1
 70
    58
 90
        2
176
     1
 90
        2
176
     1
 90
        1
176
     1
 90
        2
176
     1
 40
0.6
176
     1
 40
30.0
176
     1
 62
     7
420
 16777215
176
     1
 90
        1
176
     1
 90
        0
176
     1
 62
     7
176
     1
 62
   257
176
     1
 90
        1
176
     1
 90
        1
176
     1
 40
1.0
176
     1
 90
        0
176
     1
 62
   257
176
     1
 40
1.0
176
     1
 90
        1
176
     1
 90
        6
176
     1
 90
        2
176
     1
 62
     7
176
     1
 90
        5
176
     1
 90
        0
176
     1
 90
        0
176
     1
290
     0
176
     1
 90
       13
176
     1
 40
0.0
176
     1
 90
        0
176
     1
290
     0
176
     1
290
     1
176
     1
290
     1
176
     1
290
     0
176
     1
290
     0
176
     1
290
     0
176
     1
290
     0
176
     1
290
     0
176
     1
290
     0
176
     1
 90
       50
176
     1
 40
0.0
176
     1
 40
1.0
176
     1
 90
        0
176
     1
 62
    18
420
        0
176
     1
 90
       50
176
     1
 90
        3
176
     1
 62
     5
420
      255
176
     1
290
     0
176
     1
 90
       50
176
     1
 90
       50
176
     1
 90
       50
176
     1
290
     0
176
     1
 90
       50
176
     1
 62
   256
176
     0
 40
1.0
176
     0
 90
        2
176
     1
  1
strokes_ogs.tif
176
     1
290
     0
176
     1
 40
1.0
176
     1
 40
1.0
176
     1
1001
ACAD
1000
AcDbSavedByObjectVersion
1070
     0
  0
VISUALSTYLE
  5
4333
102
{ACAD_REACTORS
330
432C
102
}
330
432C
100
AcDbVisualStyle
  2
Hidden
 70
     6
177
     3
291
     0
 70
    58
 90
        1
176
     1
 90
        2
176
     1
 90
        2
176
     1
 90
        0
176
     1
 40
0.6
176
     1
 40
30.0
176
     1
 62
     7
420
 16777215
176
     1
 90
        2
176
     1
 90
        2
176
     1
 62
     7
176
     1
 62
   257
176
     1
 90
        2
176
     1
 90
        1
176
     1
 40
40.0
176
     1
 90
        0
176
     1
 62
   257
176
     1
 40
1.0
176
     1
 90
        1
176
     1
 90
        6
176
     1
 90
        2
176
     1
 62
     7
176
     1
 90
        3
176
     1
 90
        0
176
     1
 90
        0
176
     1
290
     0
176
     1
 90
        1
176
     1
 40
0.0
176
     1
 90
        0
176
     1
290
     0
176
     1
290
     1
176
     1
290
     1
176
     1
290
     0
176
     1
290
     0
176
     1
290
     0
176
     1
290
     0
176
     1
290
     0
176
     1
290
     0
176
     1
 90
       50
176
     1
 40
0.0
176
     1
 40
1.0
176
     1
 90
        0
176
     1
 62
    18
420
        0
176
     1
 90
       50
176
     1
 90
        3
176
     1
 62
     5
420
      255
176
     1
290
     0
176
     1
 90
       50
176
     1
 90
       50
176
     1
 90
       50
176
     1
290
     0
176
     1
 90
       50
176
     1
 62
   256
176
     0
 40
1.0
176
     0
 90
        2
176
     1
  1
strokes_ogs.tif
176
     1
290
     0
176
     1
 40
1.0
176
     1
 40
1.0
176
     1
1001
ACAD
1000
AcDbSavedByObjectVersion
1070
     0
  0
VISUALSTYLE
  5
433D
102
{ACAD_REACTORS
330
432C
102
}
330
432C
100
AcDbVisualStyle
  2
JitterOff
 70
    20
177
     3
291
     1
 70
    58
 90
        2
176
     0
 90
        2
176
     0
 90
        0
176
     0
 90
        0
176
     0
 40
0.6
176
     0
 40
30.0
176
     0
 62
     7
420
 16777215
176
     0
 90
        1
176
     0
 90
        4
176
     0
 62
     7
176
     0
 62
   257
176
     0
 90
        1
176
     0
 90
        1
176
     0
 40
1.0
176
     0
 90
       10
176
     2
 62
     7
176
     0
 40
1.0
176
     0
 90
        1
176
     0
 90
        6
176
     0
 90
        2
176
     0
 62
     7
176
     0
 90
        5
176
     0
 90
        0
176
     0
 90
        0
176
     0
290
     0
176
     0
 90
        1
176
     0
 40
0.0
176
     0
 90
        0
176
     0
290
     0
176
     0
290
     1
176
     0
290
     1
176
     0
290
     0
176
     0
290
     0
176
     0
290
     0
176
     0
290
     0
176
     0
290
     0
176
     0
290
     0
176
     0
 90
       50
176
     0
 40
0.0
176
     0
 40
1.0
176
     0
 90
        0
176
     0
 62
    18
420
        0
176
     0
 90
       50
176
     0
 90
        3
176
     0
 62
     5
420
      255
176
     0
290
     0
176
     0
 90
       50
176
     0
 90
       50
176
     0
 90
       50
176
     0
290
     0
176
     0
 90
       50
176
     0
 62
   256
176
     0
 40
1.0
176
     0
 90
        2
176
     0
  1
strokes_ogs.tif
176
     0
290
     0
176
     0
 40
1.0
176
     0
 40
1.0
176
     0
1001
ACAD
1000
AcDbSavedByObjectVersion
1070
     0
  0
VISUALSTYLE
  5
433A
102
{ACAD_REACTORS
330
432C
102
}
330
432C
100
AcDbVisualStyle
  2
Linepattern
 70
    14
177
     3
291
     1
 70
    58
 90
        2
176
     1
 90
        2
176
     1
 90
        0
176
     1
 90
        0
176
     1
 40
0.6
176
     1
 40
30.0
176
     1
 62
     7
420
 16777215
176
     1
 90
        1
176
     1
 90
        4
176
     1
 62
     7
176
     1
 62
   257
176
     1
 90
        7
176
     1
 90
        7
176
     1
 40
1.0
176
     1
 90
        8
176
     1
 62
     7
176
     1
 40
1.0
176
     1
 90
        1
176
     1
 90
        6
176
     1
 90
        2
176
     1
 62
     7
176
     1
 90
        5
176
     1
 90
        0
176
     1
 90
        0
176
     1
290
     0
176
     1
 90
        1
176
     1
 40
0.0
176
     1
 90
        0
176
     1
290
     0
176
     1
290
     1
176
     1
290
     1
176
     1
290
     0
176
     1
290
     0
176
     1
290
     0
176
     1
290
     0
176
     1
290
     0
176
     1
290
     0
176
     1
 90
       50
176
     1
 40
0.0
176
     1
 40
1.0
176
     1
 90
        0
176
     1
 62
    18
420
        0
176
     1
 90
       50
176
     1
 90
        3
176
     1
 62
     5
420
      255
176
     1
290
     0
176
     1
 90
       50
176
     1
 90
       50
176
     1
 90
       50
176
     1
290
     0
176
     1
 90
       50
176
     1
 62
   256
176
     0
 40
1.0
176
     0
 90
        2
176
     1
  1
strokes_ogs.tif
176
     1
290
     0
176
     1
 40
1.0
176
     1
 40
1.0
176
     1
1001
ACAD
1000
AcDbSavedByObjectVersion
1070
     0
  0
VISUALSTYLE
  5
433E
102
{ACAD_REACTORS
330
432C
102
}
330
432C
100
AcDbVisualStyle
  2
OverhangOff
 70
    21
177
     3
291
     1
 70
    58
 90
        2
176
     0
 90
        2
176
     0
 90
        0
176
     0
 90
        0
176
     0
 40
0.6
176
     0
 40
30.0
176
     0
 62
     7
420
 16777215
176
     0
 90
        1
176
     0
 90
        4
176
     0
 62
     7
176
     0
 62
   257
176
     0
 90
        1
176
     0
 90
        1
176
     0
 40
1.0
176
     0
 90
        9
176
     2
 62
     7
176
     0
 40
1.0
176
     0
 90
        1
176
     0
 90
        6
176
     0
 90
        2
176
     0
 62
     7
176
     0
 90
        5
176
     0
 90
        0
176
     0
 90
        0
176
     0
290
     0
176
     0
 90
        1
176
     0
 40
0.0
176
     0
 90
        0
176
     0
290
     0
176
     0
290
     1
176
     0
290
     1
176
     0
290
     0
176
     0
290
     0
176
     0
290
     0
176
     0
290
     0
176
     0
290
     0
176
     0
290
     0
176
     0
 90
       50
176
     0
 40
0.0
176
     0
 40
1.0
176
     0
 90
        0
176
     0
 62
    18
420
        0
176
     0
 90
       50
176
     0
 90
        3
176
     0
 62
     5
420
      255
176
     0
290
     0
176
     0
 90
       50
176
     0
 90
       50
176
     0
 90
       50
176
     0
290
     0
176
     0
 90
       50
176
     0
 62
   256
176
     0
 40
1.0
176
     0
 90
        2
176
     0
  1
strokes_ogs.tif
176
     0
290
     0
176
     0
 40
1.0
176
     0
 40
1.0
176
     0
1001
ACAD
1000
AcDbSavedByObjectVersion
1070
     0
  0
VISUALSTYLE
  5
4335
102
{ACAD_REACTORS
330
432C
102
}
330
432C
100
AcDbVisualStyle
  2
Realistic
 70
     8
177
     3
291
     0
 70
    58
 90
        2
176
     1
 90
        3
176
     1
 90
        0
176
     1
 90
        2
176
     1
 40
0.6
176
     1
 40
30.0
176
     1
 62
     7
420
 16777215
176
     1
 90
        0
176
     1
 90
        0
176
     1
 62
     7
176
     1
 62
   257
176
     1
 90
        1
176
     1
 90
        1
176
     1
 40
1.0
176
     1
 90
        8
176
     1
 62
   257
176
     1
 40
1.0
176
     1
 90
        1
176
     1
 90
        6
176
     1
 90
        2
176
     1
 62
     7
176
     1
 90
        3
176
     1
 90
        0
176
     1
 90
        0
176
     1
290
     0
176
     1
 90
       13
176
     1
 40
0.0
176
     1
 90
        0
176
     1
290
     0
176
     1
290
     1
176
     1
290
     1
176
     1
290
     0
176
     1
290
     0
176
     1
290
     0
176
     1
290
     0
176
     1
290
     0
176
     1
290
     0
176
     1
 90
       50
176
     1
 40
0.0
176
     1
 40
1.0
176
     1
 90
        0
176
     1
 62
    18
420
        0
176
     1
 90
       50
176
     1
 90
        3
176
     1
 62
     5
420
      255
176
     1
290
     0
176
     1
 90
       50
176
     1
 90
       50
176
     1
 90
       50
176
     1
290
     0
176
     1
 90
       50
176
     1
 62
   256
176
     0
 40
1.0
176
     0
 90
        2
176
     1
  1
strokes_ogs.tif
176
     1
290
     0
176
     1
 40
1.0
176
     1
 40
1.0
176
     1
1001
ACAD
1000
AcDbSavedByObjectVersion
1070
     0
  0
VISUALSTYLE
  5
4344
102
{ACAD_REACTORS
330
432C
102
}
330
432C
100
AcDbVisualStyle
  2
Shaded
 70
    27
177
     3
291
     0
 70
    58
 90
        2
176
     1
 90
        2
176
     1
 90
        1
176
     1
 90
        2
176
     1
 40
0.6
176
     1
 40
30.0
176
     1
 62
     7
420
 16777215
176
     1
 90
        0
176
     1
 90
        4
176
     1
 62
     7
176
     1
 62
   257
176
     1
 90
        1
176
     1
 90
        1
176
     1
 40
1.0
176
     1
 90
        8
176
     1
 62
   257
176
     1
 40
1.0
176
     1
 90
        1
176
     1
 90
        6
176
     1
 90
        2
176
     1
 62
     8
420
  7895160
176
     1
 90
        3
176
     1
 90
        0
176
     1
 90
        0
176
     1
290
     0
176
     1
 90
        5
176
     1
 40
0.0
176
     1
 90
        0
176
     1
290
     0
176
     1
290
     1
176
     1
290
     1
176
     1
290
     0
176
     1
290
     0
176
     1
290
     0
176
     1
290
     0
176
     1
290
     0
176
     1
290
     0
176
     1
 90
       50
176
     1
 40
0.0
176
     1
 40
1.0
176
     1
 90
        0
176
     1
 62
    18
420
        0
176
     1
 90
       50
176
     1
 90
        3
176
     1
 62
     5
420
      255
176
     1
290
     0
176
     1
 90
       50
176
     1
 90
       50
176
     1
 90
       50
176
     1
290
     0
176
     1
 90
       50
176
     1
 62
   256
176
     0
 40
1.0
176
     0
 90
        2
176
     1
  1
strokes_ogs.tif
176
     1
290
     0
176
     1
 40
1.0
176
     1
 40
1.0
176
     1
1001
ACAD
1000
AcDbSavedByObjectVersion
1070
     0
  0
VISUALSTYLE
  5
4343
102
{ACAD_REACTORS
330
432C
102
}
330
432C
100
AcDbVisualStyle
  2
Shaded with edges
 70
    26
177
     3
291
     0
 70
    58
 90
        2
176
     1
 90
        2
176
     1
 90
        1
176
     1
 90
        2
176
     1
 40
0.6
176
     1
 40
30.0
176
     1
 62
     7
420
 16777215
176
     1
 90
        1
176
     1
 90
        2
176
     1
 62
     7
176
     1
 62
   257
176
     1
 90
        2
176
     1
 90
        1
176
     1
 40
1.0
176
     1
 90
        8
176
     1
 62
   257
176
     1
 40
1.0
176
     1
 90
        1
176
     1
 90
        6
176
     1
 90
        2
176
     1
 62
     7
176
     1
 90
        3
176
     1
 90
        0
176
     1
 90
        0
176
     1
290
     0
176
     1
 90
        5
176
     1
 40
0.0
176
     1
 90
        0
176
     1
290
     0
176
     1
290
     1
176
     1
290
     1
176
     1
290
     0
176
     1
290
     0
176
     1
290
     0
176
     1
290
     0
176
     1
290
     0
176
     1
290
     0
176
     1
 90
       50
176
     1
 40
0.0
176
     1
 40
1.0
176
     1
 90
        0
176
     1
 62
    18
420
        0
176
     1
 90
       50
176
     1
 90
        3
176
     1
 62
     5
420
      255
176
     1
290
     0
176
     1
 90
       50
176
     1
 90
       50
176
     1
 90
       50
176
     1
290
     0
176
     1
 90
       50
176
     1
 62
   256
176
     0
 40
1.0
176
     0
 90
        2
176
     1
  1
strokes_ogs.tif
176
     1
290
     0
176
     1
 40
1.0
176
     1
 40
1.0
176
     1
1001
ACAD
1000
AcDbSavedByObjectVersion
1070
     0
  0
VISUALSTYLE
  5
4340
102
{ACAD_REACTORS
330
432C
102
}
330
432C
100
AcDbVisualStyle
  2
Shades of Gray
 70
    23
177
     3
291
     0
 70
    58
 90
        2
176
     1
 90
        2
176
     1
 90
        3
176
     1
 90
        0
176
     1
 40
0.6
176
     1
 40
30.0
176
     1
 62
     7
420
 16777215
176
     1
 90
        2
176
     1
 90
        2
176
     1
 62
     7
176
     1
 62
     7
176
     1
 90
        1
176
     1
 90
        1
176
     1
 40
40.0
176
     1
 90
        8
176
     1
 62
     7
176
     1
 40
1.0
176
     1
 90
        1
176
     1
 90
        6
176
     1
 90
        2
176
     1
 62
     7
176
     1
 90
        3
176
     1
 90
        0
176
     1
 90
        0
176
     1
290
     0
176
     1
 90
        1
176
     1
 40
0.0
176
     1
 90
        0
176
     1
290
     0
176
     1
290
     1
176
     1
290
     1
176
     1
290
     0
176
     1
290
     0
176
     1
290
     0
176
     1
290
     0
176
     1
290
     0
176
     1
290
     0
176
     1
 90
       50
176
     1
 40
0.0
176
     1
 40
1.0
176
     1
 90
        0
176
     1
 62
    18
420
        0
176
     1
 90
       50
176
     1
 90
        3
176
     1
 62
     5
420
      255
176
     1
290
     0
176
     1
 90
       50
176
     1
 90
       50
176
     1
 90
       50
176
     1
290
     0
176
     1
 90
       50
176
     1
 62
   256
176
     0
 40
1.0
176
     0
 90
        2
176
     1
  1
strokes_ogs.tif
176
     1
290
     0
176
     1
 40
1.0
176
     1
 40
1.0
176
     1
1001
ACAD
1000
AcDbSavedByObjectVersion
1070
     0
  0
VISUALSTYLE
  5
4341
102
{ACAD_REACTORS
330
432C
102
}
330
432C
100
AcDbVisualStyle
  2
Sketchy
 70
    24
177
     3
291
     0
 70
    58
 90
        1
176
     1
 90
        2
176
     1
 90
        2
176
     1
 90
        0
176
     1
 40
0.6
176
     1
 40
30.0
176
     1
 62
     7
420
 16777215
176
     1
 90
        2
176
     1
 90
        2
176
     1
 62
     7
176
     1
 62
     7
176
     1
 90
        1
176
     1
 90
        1
176
     1
 40
40.0
176
     1
 90
       11
176
     1
 62
     7
176
     1
 40
1.0
176
     1
 90
        1
176
     1
 90
        6
176
     1
 90
        2
176
     1
 62
     7
176
     1
 90
        6
176
     1
 90
        0
176
     1
 90
        0
176
     1
290
     0
176
     1
 90
        1
176
     1
 40
0.0
176
     1
 90
        0
176
     1
290
     0
176
     1
290
     1
176
     1
290
     1
176
     1
290
     0
176
     1
290
     0
176
     1
290
     0
176
     1
290
     0
176
     1
290
     0
176
     1
290
     0
176
     1
 90
       50
176
     1
 40
0.0
176
     1
 40
1.0
176
     1
 90
        0
176
     1
 62
    18
420
        0
176
     1
 90
       50
176
     1
 90
        3
176
     1
 62
     5
420
      255
176
     1
290
     0
176
     1
 90
       50
176
     1
 90
       50
176
     1
 90
       50
176
     1
290
     0
176
     1
 90
       50
176
     1
 62
   256
176
     0
 40
1.0
176
     0
 90
        2
176
     1
  1
strokes_ogs.tif
176
     1
290
     0
176
     1
 40
1.0
176
     1
 40
1.0
176
     1
1001
ACAD
1000
AcDbSavedByObjectVersion
1070
     0
  0
VISUALSTYLE
  5
4339
102
{ACAD_REACTORS
330
432C
102
}
330
432C
100
AcDbVisualStyle
  2
Thicken
 70
    13
177
     3
291
     1
 70
    58
 90
        2
176
     1
 90
        2
176
     1
 90
        0
176
     1
 90
        0
176
     1
 40
0.6
176
     1
 40
30.0
176
     1
 62
     7
420
 16777215
176
     1
 90
        1
176
     1
 90
        4
176
     1
 62
     7
176
     1
 62
   257
176
     1
 90
        1
176
     1
 90
        1
176
     1
 40
1.0
176
     1
 90
       12
176
     1
 62
     7
176
     1
 40
1.0
176
     1
 90
        1
176
     1
 90
        6
176
     1
 90
        2
176
     1
 62
     7
176
     1
 90
        5
176
     1
 90
        0
176
     1
 90
        0
176
     1
290
     0
176
     1
 90
        1
176
     1
 40
0.0
176
     1
 90
        0
176
     1
290
     0
176
     1
290
     1
176
     1
290
     1
176
     1
290
     0
176
     1
290
     0
176
     1
290
     0
176
     1
290
     0
176
     1
290
     0
176
     1
290
     0
176
     1
 90
       50
176
     1
 40
0.0
176
     1
 40
1.0
176
     1
 90
        0
176
     1
 62
    18
420
        0
176
     1
 90
       50
176
     1
 90
        3
176
     1
 62
     5
420
      255
176
     1
290
     0
176
     1
 90
       50
176
     1
 90
       50
176
     1
 90
       50
176
     1
290
     0
176
     1
 90
       50
176
     1
 62
   256
176
     0
 40
1.0
176
     0
 90
        2
176
     1
  1
strokes_ogs.tif
176
     1
290
     0
176
     1
 40
1.0
176
     1
 40
1.0
176
     1
1001
ACAD
1000
AcDbSavedByObjectVersion
1070
     0
  0
VISUALSTYLE
  5
4332
102
{ACAD_REACTORS
330
432C
102
}
330
432C
100
AcDbVisualStyle
  2
Wireframe
 70
     5
177
     3
291
     0
 70
    58
 90
        0
176
     1
 90
        2
176
     1
 90
        0
176
     1
 90
        0
176
     1
 40
0.6
176
     1
 40
30.0
176
     1
 62
     7
420
 16777215
176
     1
 90
        1
176
     1
 90
        4
176
     1
 62
     7
176
     1
 62
   257
176
     1
 90
        1
176
     1
 90
        1
176
     1
 40
1.0
176
     1
 90
        0
176
     1
 62
   257
176
     1
 40
1.0
176
     1
 90
        1
176
     1
 90
        6
176
     1
 90
        2
176
     1
 62
     7
176
     1
 90
        3
176
     1
 90
        0
176
     1
 90
        0
176
     1
290
     0
176
     1
 90
        1
176
     1
 40
0.0
176
     1
 90
        0
176
     1
290
     0
176
     1
290
     1
176
     1
290
     1
176
     1
290
     0
176
     1
290
     0
176
     1
290
     0
176
     1
290
     0
176
     1
290
     0
176
     1
290
     0
176
     1
 90
       50
176
     1
 40
0.0
176
     1
 40
1.0
176
     1
 90
        0
176
     1
 62
    18
420
        0
176
     1
 90
       50
176
     1
 90
        3
176
     1
 62
     5
420
      255
176
     1
290
     0
176
     1
 90
       50
176
     1
 90
       50
176
     1
 90
       50
176
     1
290
     0
176
     1
 90
       50
176
     1
 62
   256
176
     0
 40
1.0
176
     0
 90
        2
176
     1
  1
strokes_ogs.tif
176
     1
290
     0
176
     1
 40
1.0
176
     1
 40
1.0
176
     1
1001
ACAD
1000
AcDbSavedByObjectVersion
1070
     0
  0
VISUALSTYLE
  5
4342
102
{ACAD_REACTORS
330
432C
102
}
330
432C
100
AcDbVisualStyle
  2
X-Ray
 70
    25
177
     3
291
     0
 70
    58
 90
        2
176
     1
 90
        2
176
     1
 90
        1
176
     1
 90
        1
176
     1
 40
0.5
176
     1
 40
30.0
176
     1
 62
     7
420
 16777215
176
     1
 90
        1
176
     1
 90
        0
176
     1
 62
     7
176
     1
 62
   257
176
     1
 90
        1
176
     1
 90
        1
176
     1
 40
1.0
176
     1
 90
        8
176
     1
 62
     7
176
     1
 40
1.0
176
     1
 90
        1
176
     1
 90
        6
176
     1
 90
        2
176
     1
 62
     7
176
     1
 90
        3
176
     1
 90
        0
176
     1
 90
        0
176
     1
290
     0
176
     1
 90
       13
176
     1
 40
0.0
176
     1
 90
        0
176
     1
290
     0
176
     1
290
     1
176
     1
290
     1
176
     1
290
     0
176
     1
290
     0
176
     1
290
     0
176
     1
290
     0
176
     1
290
     0
176
     1
290
     0
176
     1
 90
       50
176
     1
 40
0.0
176
     1
 40
1.0
176
     1
 90
        0
176
     1
 62
    18
420
        0
176
     1
 90
       50
176
     1
 90
        3
176
     1
 62
     5
420
      255
176
     1
290
     0
176
     1
 90
       50
176
     1
 90
       50
176
     1
 90
       50
176
     1
290
     0
176
     1
 90
       50
176
     1
 62
   256
176
     0
 40
1.0
176
     0
 90
        2
176
     1
  1
strokes_ogs.tif
176
     1
290
     0
176
     1
 40
1.0
176
     1
 40
1.0
176
     1
1001
ACAD
1000
AcDbSavedByObjectVersion
1070
     0
  0
DICTIONARYVAR
  5
4359
102
{ACAD_REACTORS
330
4358
102
}
330
4358
100
DictionaryVariables
280
     0
  1
1:1
  0
DICTIONARYVAR
  5
43DF
102
{ACAD_REACTORS
330
4358
102
}
330
4358
100
DictionaryVariables
280
     0
  1
STANDARD
  0
DICTIONARYVAR
  5
43DE
102
{ACAD_REACTORS
330
4358
102
}
330
4358
100
DictionaryVariables
280
     0
  1
STANDARD
  0
DICTIONARYVAR
  5
43E0
102
{ACAD_REACTORS
330
4358
102
}
330
4358
100
DictionaryVariables
280
     0
  1
Imperial24
  0
DICTIONARYVAR
  5
43E1
102
{ACAD_REACTORS
330
4358
102
}
330
4358
100
DictionaryVariables
280
     0
  1
Imperial24
  0
DICTIONARY
  5
43F7
102
{ACAD_REACTORS
330
43F5
102
}
330
43F5
100
AcDbDictionary
281
     1
  0
DICTIONARY
  5
43F6
102
{ACAD_REACTORS
330
43F5
102
}
330
43F5
100
AcDbDictionary
281
     1
  3
2235783178240
350
43F0
  3
2235783178256
350
43F1
  3
2235783178272
350
43F2
  3
2235783178288
350
43F3
  3
2235783178304
350
43F4
  0
ACAD_PROXY_OBJECT
  5
4352
102
{ACAD_REACTORS
330
4351
102
}
330
4351
100
AcDbProxyObject
 90
      499
 91
      506
 95
   393245
 70
     0
162
                 0
161
              1146
310
63948C9594D95D1D5C001C185C985B595D195C9CC00013585E15DA591D1A000200000000000000001014DB585B1B195CDD000200000000000000000011D85C129D5B5C000200000000000000380FD058D8DD5C9858DE40018001400000131A5B995CCB99949958DBD9DB9A5E9940014000400000105C98DCCB99949958DBD9
310
DB9A5E994001400040000000000000000C
 94
        0
  0
XRECORD
  5
4356
102
{ACAD_REACTORS
330
434B
102
}
330
434B
100
AcDbXrecord
280
     1
300
MC_VERSION_DATA
 90
       95
310
0600000002000000570000001C000000E404000000000000000000007801936764E5D8CF7A8393818115C460606066E0646662626666706006F214793899F8DE3171E725E6E53B3BBA2878E6951050AF75FEFFFFFF520032DE0F3057000000
  0
XRECORD
  5
434C
102
{ACAD_REACTORS
330
434B
102
}
330
434B
100
AcDbXrecord
280
     1
300
MCS_DOCUMENT_ID
 90
       60
310
0600000002000000150000001C000000E404000000000000000000007801E30D2FCF0CCB578BF4DC5ADDDAAE3BDB61F77F2000005C140ACD15000000
  0
XRECORD
  5
4354
102
{ACAD_REACTORS
330
434B
102
}
330
434B
100
AcDbXrecord
280
     1
300
MCS_PARAMS_DATA
 90
     3313
310
0600000002000000F64B00001C000000E404000000000000000000007801C55C5B6C5CC519DE9D595FD6B9DF494B53970A1A6F4A58DF92A6426A1A1210527090E23EF0543976A2BA75E25CAC160A6DA92AF5A55255A96AD556551F4A49A0CF15A03EC0438190865E482021147221409310B6900B3826B1FB7F7366CEFC73E6
310
1CAFBDDE3D9B07D8FF3F73CEF7DFE6FB67E6ECBA757EA3143929F767A4FCCE8636299AA49C90529036BB402C105929F279912F89C6DEAF6FD8BC69AB14A46C51EAC2B9898909BA39945F872C1FCD848A834A91A13B1AD51D6D5266E8A9FAF627E9AABE92BD45CA6F03BD81A3CFC24D59D990C96408C7E066656E0232E13A03
310
14B0AB01724443F05CC3F08780DFC8F19B03FC710A073DC8486413411B49060E3311A05C24C45064703B01D7CCE196A818E5C59C9268B967CBD6DED68ED59DC52EEB78BEF08E09F8223D745649346F1DE9DB35D0B777C089FC5FC3C8EB60BF1A286CF47FE3467F17CC59C5CD990B0CD948C1A77FB9F5CA0E4F479188EA541E
310
3C25A2E22BC99C8892456878B2821857F6B05492C2AD881B41409C21325211340605C9C6DC6006EC49AC088A0CCBB25B1159B72248E415019155047D5453031360047082A7405D92B72AB0F03379693EAB50870260AC609E2C6F6510BB3D081DFE4EF5EFECD71494A7B3590EC7F12C5B25CB32539229914732934ECE22AF1D
310
D259AC8B7B7649E437DE7BDFA69EADF76EE95186E95A7ED74C032DBFA66A9BF1CEF341B19B78E45DDED9EF56FE29189043E4814BF734E1FF34659991678231F23A51010DA578E8294D435524988818E84710A7B2643B4F7C134F5CC6936D1E4176D01398C4D0A83AE0A6BDC86B0BB5C3E1E8299D70A5A945AC12322FE697C4
310
9C8DC3BBBE34D2BA77FBEEA1BEFEED79D15C120DF70F0FEE1A093EF60C8FF47F4BCAB3B0ED666EDB17F5733E2B445B5E2C298985C507BB8BEBBA3A3A3774178B1D777FA5B36B9D327BBE1ED84C030BC74C9EDAB5B64D88BC405AEF1E1CD9D73A34B88F70838775AD5DDBD1B9B6BBABBB73A0ABA37F5D7BE0E757F57D1DB80F
310
037BFBB60D6D6F1DDED1DA3B3CB47D6FDF2EF8A0AD5933506CEF2FF6F7ADD9D6B56D5DFF9A60D6A95222FF670B51F8295953F8455019945B7EE9315C7A8AFEC352DE9D4B4A5050256AA6D1B42D5F0C265BEED4473538E9811F770DEFDCDD3732B86D706870E4A1D69DC303E45F6349C807B6EFCB8B8692103DC352AE816545
310
9E9E798813B5E9A692C86DD9B1A355A5424F8E0BF018466AF90D150136590E2905AA568F782650907D5A7180140B84AD0159F8156902B8F63BDA8BE1A72E29AF48322EA98B5F578631B6F5489B26184C63434803DB221A328E6B58DEAED6DB808FEB6DC068BD0DF8A4DE065CABB7018B3045EB390B3EAD7704C6EA6DC07518
310
10B79C17773A0DB6C361F03BDD064B22C8C7303844629E5064B47323116EB9039777E096BB70247238880C6E39831B9F221C81B3E543C57019D4736C30574EE2DD4AD73B12B9771099772B997713E97A974DF4CECD5D9582B938116EC00926492C777A7F676A8F441E4C882C98032C983211AE26DE8974E196022EC7174366
310
F9AE62C95769E105B5C4B012E2E82ED8CD3516C5E34D519CF0D1F6765A8551C6CC0505130A3E8ABEC46EF81CED54DC1DA04AB7BC4DB0CA082453194AB29B82400C2B438BA6322032B88FE093B3E13470C11297490C8EEF78E88158D51A8AD42283A38F61044E78707A57F8BBDFE2DF2167F36975041D1DA7FCF59430C35792
310
05112533A905D5D3CAAB4759DBB4CA160F3E9309466F934A1794E7E1154C402D3088858048DCDF7EA3E7FECD5B7A7B376D5480CBF43A7E5E49CCBE6BEB37D945B2402FC65F52AB73B67E7F3A58AE93F37A04F6B7011D680556EBCCA2819BC8A21C320F385BBDB4EE56E6E32CE2CB18E358AD7676B4C7C096B1674BAF7B1278
310
1E906198B0DF8681EA696AF34D20563061CAB731C0DB01185B8B0DCA46538BD880EB0E2C6FC3120B40E62289BC162112587895C11513E18290E892090EBF46A9321968C513E0BB89A0AE8F2431B88A7DFC9E07A7BD0A8E668E3AF3CDEA083A3A8ECFB770A00AB53712018F2859D8DB3D93C2E4D422CB77A40BB73A5DB807A7
310
0857A5727AC8838BE45965D0D3D5B29CBEEF99145F4E558AC0C3E9C23D922EDC0FD285FBA107E7958EEDE721E98018A3E3AAC64E7F5C166D7ABA81B65C437BB31D766C74A6ED6E1FBC2766B7AFDAD87156F9771BF44A2A724C461AB43EE729AAFB710D63E2111810BBA3ABC9AE6037E09AB9BF3AB40BE8309F8736AB64CAB2
310
BE7E3364E5AC569CA6976081AF5A311628A8EF68C5B3A4609E3E86AC3AA156E3E83562F4B5A292099A878C61EB3B549CF92354989982613F016CE7AD5A4D09AA1F5126387AAD451EE384D9C035A925859E39C1AA865EE9A9B8DA21CEE289167F7CF1D4C4BC7A125EC5AED5D8BB0B5A9D9144D134CFA71BF85A8D44BE568348
310
F6AA55A2F3CAEACF6982FD29118CC249D3CBF852A586F278BA70FBD3853B90085793EDE51E143F0AD06C6B4CB2242BDDBDD1419166C2865E85F9CE1648F3CBF54B2E655D5432557AB8C599EEE6E763403914E55050D879E2BFFA30F366F009F0CB378371CA9B99D05949929DD07465EA8797A3808B6B06B9536E64AF9C844C
310
903AF2F3709D3783A318A078E4F37AEBBCEC2DD1B228B722F785DC2DB9D64C476675A63353CC74E937B1FA39BFA7DB58A6AFC19E49583A4A9B6110A6BA038D3C80418F79D091B18A763C1D8524AA5361F194EC4CC4B23EDBA3192533E95398E41423EB6DCA1C239B4DBF91D13F6D762A6897D7013D496371DC8BECCAA7D45E
310
0C251095ABC98AA38E1B6540CD3DACF829EF15C38D27C2B92DA64A071D13897001094F16523EC1C9E5A99FF465029665AB5B13C49AF8984D174EA40B273D389D33BB29A272F6749622C2719C22AC925104534E7A8CF33714555C6B3CF3BE4BE0AF28994CA9B8353E0F28878DD26D8D2F007FBAAD11BD305CEB4EAB35BE08B8
310
B8D678FEB81BD9134AB6ADF10A644BBEF9C2334A81E4EAA6772450D87DD2AF49C178F020A0EBD3055FF292CC5B8AB3FC4114C86BA708ACDB15F49C43C04EBBE7FCBD0CA8A1CB2AF59CC3897035E1E39713E16AD873FE91085A131FFF19C04DBEDBF8D75406FD3B3A2842E56C8ABE82A171BC3BF89ECB0E0F287926BC7B0450
310
75E4DDA3C09F2EEF56BE2579157071BCBBE7881BD93E255BDE7D04B225A07C61BD5230DE1DBA8C1158736B225E412358525F03747D78F79897E472BCCBAF5BAF2BA0DDE3804E9B765F2F035A65DA3D910857134A7A2311AE52DA8D6E0E9C1341735A873DD47F12A16BE2E99BE9C275792B70532835F1AEDB838B7404B509F7
310
74C449519D9AA19EB28205FF5B08785CE3F9307262735AC933693C270155C7C6730AF8E9359ED3808B6B3CA387DDC6734EC9B6F1C897238DE72006D89713F9C2E58B91C6F3388D608DE70CA0A7DA7866D30F8008DC16BEAA2D26A2AAB848F4108A0CF46D0F54D7A73989E2C56D75B6B8431D2F6EAB64C5CD94644C04869974
310
1626C5B6A280378D1BEE62BCE2C3917700E714386FAA719B1D7E7D464DF7DD444F8317374E8CAA75BEF65E19D0F8F0523EC21D7470DCC60B8CAEF29753FC38EF4760CFDBF99B4673F680D0869F6742513F06849341B61DF57EE3400A02734628D75C0DBC8B68A868B98655ECA330208EA3C6F1B52E3DF1E8849E2433679564
310
431A886148B568E62C4406F75F64308EFD2F9D7039EA6D259B5B2BF91AD8396F72B01004EFC5CD6C88F911E8CCDF849C077E5C64E9488747967101058B73015D99FA9B900B808B63FFB117DCC85E50324556799F2F34BC086EC70CD18A4318C0D9FF2AB6807CDB718046B0A4BE0FE8B4D9FFA207EA504E3D7E65FA014C7226
310
B329B0E8D703AAFEBAA304E869379E693123CD68457958A4FF2F11AE86ECFF6119D078F6E7138AD87FF2370F86D6E1E34789702D76FED2134932CCA824CB8C811832A3160D33426421BD940847AF6F0C11D33DEECB1CFE9B7175D1F926045DE5BD8DBFBDBE9C081764D0049324E6DDB40A8607F34A225C4D16463974B5B836
310
F3B3A32E193EACE499B49986C93A780A6DA631A981D7A6CD34012EAECDFCF23937B23F51B26D337F80CCDBCC36A5C0ECD07DE7E7A7236D663D8D6033A419D0536D33E07F56B8C4CA7C0D48229F9610695A461A0883CE7B494E8DD95B004DF38E8247AB09FE45AC1A52EDAC32A0861DD8DA85D8A76276989D08579353913989
310
700119397510D9BB4CAB9DF096393711B4263ECE4B176E7EBA700B3C389DB3F0B5335AA6A7234288EA142D784A9083AFB414616018456CF64C3293C4CD2F49D3E5A5F0410CEE3E0F2E6A6FEA11580893E29AEE529C2FC11C4DF48D4AA628982DB44A422820F8563073C8F989CF2240392BED74F7768B819FDEDE6E09E0E29A
310
EE0AFA030B3CB273954C91D5916E83CC9BEE074FAB1E6B73B11CFB6CBEB73B4C23589D2D05F4CC9AAE2E4C768646F0614DBB4BD40606BDCC4B726A4DF72640A7DD749797013521AB4ED3C5971C1BF2225712D922FD192CAA82F186C253F467B664EED8B163100EA1787299890C1D4314EEF90B040C236113FD72905624B8F0
310
99FF03A92412CEF64B0000
  0
DICTIONARY
  5
43FA
330
4391
100
AcDbDictionary
280
     1
281
     1
  3
ACAD_XREC_ROUNDTRIP
360
43FB
  0
DICTIONARY
  5
43F8
330
4390
100
AcDbDictionary
280
     1
281
     1
  3
ACAD_XREC_ROUNDTRIP
360
43F9
  0
DICTIONARY
  5
43ED
330
4350
100
AcDbDictionary
280
     1
281
     1
  3
ACAD_ROUNDTRIP_2008_TABLESTYLE_CELLSTYLEMAP
360
43EE
  0
XRECORD
  5
43F0
102
{ACAD_REACTORS
330
43F6
102
}
330
43F6
100
AcDbXrecord
280
     1
  1
AcDb_Thumbnail_Schema
102
{ATTRRECORD
341
43F1
  2
AcDbDs::TreatedAsObjectData
280
     1
291
     1
102
ATTRRECORD}
102
{ATTRRECORD
341
43F2
  2
AcDbDs::Legacy
280
     1
291
     1
102
ATTRRECORD}
  2
AcDbDs::ID
280
    10
 91
        8
102
{ATTRRECORD
341
43F3
  2
AcDs:Indexable
280
     1
291
     1
102
ATTRRECORD}
102
{ATTRRECORD
341
43F4
  2
AcDbDs::HandleAttribute
280
     7
282
     1
102
ATTRRECORD}
  2
Thumbnail_Data
280
    15
 91
        0
  0
XRECORD
  5
43F1
102
{ACAD_REACTORS
330
43F6
102
}
330
43F6
100
AcDbXrecord
280
     1
  1
AcDbDs::TreatedAsObjectDataSchema
  2
AcDbDs::TreatedAsObjectData
280
     1
 91
        0
  0
XRECORD
  5
43F2
102
{ACAD_REACTORS
330
43F6
102
}
330
43F6
100
AcDbXrecord
280
     1
  1
AcDbDs::LegacySchema
  2
AcDbDs::Legacy
280
     1
 91
        0
  0
XRECORD
  5
43F3
102
{ACAD_REACTORS
330
43F6
102
}
330
43F6
100
AcDbXrecord
280
     1
  1
AcDbDs::IndexedPropertySchema
  2
AcDs:Indexable
280
     1
 91
        0
  0
XRECORD
  5
43F4
102
{ACAD_REACTORS
330
43F6
102
}
330
43F6
100
AcDbXrecord
280
     1
  1
AcDbDs::HandleAttributeSchema
  2
AcDbDs::HandleAttribute
280
     7
 91
        1
284
     1
  0
XRECORD
  5
43FB
102
{ACAD_REACTORS
330
43FA
102
}
330
43FA
100
AcDbXrecord
280
     1
102
DISPLAYNAME
  1
Imperial24
102
FLAGS
 90
        0
  0
XRECORD
  5
43F9
102
{ACAD_REACTORS
330
43F8
102
}
330
43F8
100
AcDbXrecord
280
     1
102
DISPLAYNAME
  1
Imperial24
102
FLAGS
 90
        0
  0
CELLSTYLEMAP
  5
43EE
102
{ACAD_REACTORS
330
43ED
102
}
330
43ED
100
AcDbCellStyleMap
 90
        3
300
CELLSTYLE
  1
TABLEFORMAT_BEGIN
 90
        5
170
     1
 91
        0
 92
        0
 62
   257
 93
        1
300
CONTENTFORMAT
  1
CONTENTFORMAT_BEGIN
 90
        0
 91
        0
 92
        4
 93
        0
300

 40
0.0
140
1.0
 94
        5
 62
     0
340
4304
144
6.0
309
CONTENTFORMAT_END
171
     1
301
MARGIN
  1
CELLMARGIN_BEGIN
 40
1.5
 40
1.5
 40
1.5
 40
1.5
 40
4.5
 40
4.5
309
CELLMARGIN_END
 94
        6
 95
        1
302
GRIDFORMAT
  1
GRIDFORMAT_BEGIN
 90
        0
 91
        1
 62
     0
 92
       -2
340
42F3
 93
        0
 40
1.125
309
GRIDFORMAT_END
 95
        2
302
GRIDFORMAT
  1
GRIDFORMAT_BEGIN
 90
        0
 91
        1
 62
     0
 92
       -2
340
42F3
 93
        0
 40
1.125
309
GRIDFORMAT_END
 95
        4
302
GRIDFORMAT
  1
GRIDFORMAT_BEGIN
 90
        0
 91
        1
 62
     0
 92
       -2
340
42F3
 93
        0
 40
1.125
309
GRIDFORMAT_END
 95
        8
302
GRIDFORMAT
  1
GRIDFORMAT_BEGIN
 90
        0
 91
        1
 62
     0
 92
       -2
340
42F3
 93
        0
 40
1.125
309
GRIDFORMAT_END
 95
       16
302
GRIDFORMAT
  1
GRIDFORMAT_BEGIN
 90
        0
 91
        1
 62
     0
 92
       -2
340
42F3
 93
        0
 40
1.125
309
GRIDFORMAT_END
 95
       32
302
GRIDFORMAT
  1
GRIDFORMAT_BEGIN
 90
        0
 91
        1
 62
     0
 92
       -2
340
42F3
 93
        0
 40
1.125
309
GRIDFORMAT_END
309
TABLEFORMAT_END
  1
CELLSTYLE_BEGIN
 90
        1
 91
        1
300
_TITLE
309
CELLSTYLE_END
300
CELLSTYLE
  1
TABLEFORMAT_BEGIN
 90
        5
170
     1
 91
        0
 92
        0
 62
   257
 93
        1
300
CONTENTFORMAT
  1
CONTENTFORMAT_BEGIN
 90
        0
 91
        0
 92
        4
 93
        0
300

 40
0.0
140
1.0
 94
        5
 62
     0
340
4304
144
4.5
309
CONTENTFORMAT_END
171
     1
301
MARGIN
  1
CELLMARGIN_BEGIN
 40
1.5
 40
1.5
 40
1.5
 40
1.5
 40
4.5
 40
4.5
309
CELLMARGIN_END
 94
        6
 95
        1
302
GRIDFORMAT
  1
GRIDFORMAT_BEGIN
 90
        0
 91
        1
 62
     0
 92
       -2
340
42F3
 93
        0
 40
1.125
309
GRIDFORMAT_END
 95
        2
302
GRIDFORMAT
  1
GRIDFORMAT_BEGIN
 90
        0
 91
        1
 62
     0
 92
       -2
340
42F3
 93
        0
 40
1.125
309
GRIDFORMAT_END
 95
        4
302
GRIDFORMAT
  1
GRIDFORMAT_BEGIN
 90
        0
 91
        1
 62
     0
 92
       -2
340
42F3
 93
        0
 40
1.125
309
GRIDFORMAT_END
 95
        8
302
GRIDFORMAT
  1
GRIDFORMAT_BEGIN
 90
        0
 91
        1
 62
     0
 92
       -2
340
42F3
 93
        0
 40
1.125
309
GRIDFORMAT_END
 95
       16
302
GRIDFORMAT
  1
GRIDFORMAT_BEGIN
 90
        0
 91
        1
 62
     0
 92
       -2
340
42F3
 93
        0
 40
1.125
309
GRIDFORMAT_END
 95
       32
302
GRIDFORMAT
  1
GRIDFORMAT_BEGIN
 90
        0
 91
        1
 62
     0
 92
       -2
340
42F3
 93
        0
 40
1.125
309
GRIDFORMAT_END
309
TABLEFORMAT_END
  1
CELLSTYLE_BEGIN
 90
        2
 91
        1
300
_HEADER
309
CELLSTYLE_END
300
CELLSTYLE
  1
TABLEFORMAT_BEGIN
 90
        5
170
     1
 91
        0
 92
        0
 62
   257
 93
        1
300
CONTENTFORMAT
  1
CONTENTFORMAT_BEGIN
 90
        0
 91
        0
 92
        4
 93
        0
300

 40
0.0
140
1.0
 94
        2
 62
     0
340
4304
144
4.5
309
CONTENTFORMAT_END
171
     1
301
MARGIN
  1
CELLMARGIN_BEGIN
 40
1.5
 40
1.5
 40
1.5
 40
1.5
 40
4.5
 40
4.5
309
CELLMARGIN_END
 94
        6
 95
        1
302
GRIDFORMAT
  1
GRIDFORMAT_BEGIN
 90
        0
 91
        1
 62
     0
 92
       -2
340
42F3
 93
        0
 40
1.125
309
GRIDFORMAT_END
 95
        2
302
GRIDFORMAT
  1
GRIDFORMAT_BEGIN
 90
        0
 91
        1
 62
     0
 92
       -2
340
42F3
 93
        0
 40
1.125
309
GRIDFORMAT_END
 95
        4
302
GRIDFORMAT
  1
GRIDFORMAT_BEGIN
 90
        0
 91
        1
 62
     0
 92
       -2
340
42F3
 93
        0
 40
1.125
309
GRIDFORMAT_END
 95
        8
302
GRIDFORMAT
  1
GRIDFORMAT_BEGIN
 90
        0
 91
        1
 62
     0
 92
       -2
340
42F3
 93
        0
 40
1.125
309
GRIDFORMAT_END
 95
       16
302
GRIDFORMAT
  1
GRIDFORMAT_BEGIN
 90
        0
 91
        1
 62
     0
 92
       -2
340
42F3
 93
        0
 40
1.125
309
GRIDFORMAT_END
 95
       32
302
GRIDFORMAT
  1
GRIDFORMAT_BEGIN
 90
        0
 91
        1
 62
     0
 92
       -2
340
42F3
 93
        0
 40
1.125
309
GRIDFORMAT_END
309
TABLEFORMAT_END
  1
CELLSTYLE_BEGIN
 90
        3
 91
        2
300
_DATA
309
CELLSTYLE_END
  0
ENDSEC
  0
SECTION
  2
ACDSDATA
 70
     2
 71
     8
  0
ACDSSCHEMA
 90
        0
  1
AcDb_Thumbnail_Schema
  2
AcDbDs::ID
280
    10
 91
        8
  2
Thumbnail_Data
280
    15
 91
        0
101
ACDSRECORD
 95
        0
 90
        1
  2
AcDbDs::TreatedAsObjectData
280
     1
291
     1
101
ACDSRECORD
 95
        0
 90
        2
  2
AcDbDs::Legacy
280
     1
291
     1
101
ACDSRECORD
  1
AcDbDs::ID
 90
        3
  2
AcDs:Indexable
280
     1
291
     1
101
ACDSRECORD
  1
AcDbDs::ID
 90
        4
  2
AcDbDs::HandleAttribute
280
     7
282
     1
  0
ACDSSCHEMA
 90
        1
  1
AcDbDs::TreatedAsObjectDataSchema
  2
AcDbDs::TreatedAsObjectData
280
     1
 91
        0
  0
ACDSSCHEMA
 90
        2
  1
AcDbDs::LegacySchema
  2
AcDbDs::Legacy
280
     1
 91
        0
  0
ACDSSCHEMA
 90
        3
  1
AcDbDs::IndexedPropertySchema
  2
AcDs:Indexable
280
     1
 91
        0
  0
ACDSSCHEMA
 90
        4
  1
AcDbDs::HandleAttributeSchema
  2
AcDbDs::HandleAttribute
280
     7
 91
        1
284
     1
  0
ACDSRECORD
 90
        0
  2
AcDbDs::ID
280
    10
320
42FC
  2
Thumbnail_Data
280
    15
 94
     2087
310
89504E470D0A1A0A0000000D49484452000001000000006408030000005EBE1EAC00000300504C5445FFFFFFFFFFFFFFFFFF0000000000000000000000000000000000000000000000000000330000660000990000CC0000FF0033000033330033660033990033CC0033FF0066000066330066660066990066CC0066FF0099
310
000099330099660099990099CC0099FF00CC0000CC3300CC6600CC9900CCCC00CCFF00FF0000FF3300FF6600FF9900FFCC00FFFF3300003300333300663300993300CC3300FF3333003333333333663333993333CC3333FF3366003366333366663366993366CC3366FF3399003399333399663399993399CC3399FF33CC00
310
33CC3333CC6633CC9933CCCC33CCFF33FF0033FF3333FF6633FF9933FFCC33FFFF6600006600336600666600996600CC6600FF6633006633336633666633996633CC6633FF6666006666336666666666996666CC6666FF6699006699336699666699996699CC6699FF66CC0066CC3366CC6666CC9966CCCC66CCFF66FF0066
310
FF3366FF6666FF9966FFCC66FFFF9900009900339900669900999900CC9900FF9933009933339933669933999933CC9933FF9966009966339966669966999966CC9966FF9999009999339999669999999999CC9999FF99CC0099CC3399CC6699CC9999CCCC99CCFF99FF0099FF3399FF6699FF9999FFCC99FFFFCC0000CC00
310
33CC0066CC0099CC00CCCC00FFCC3300CC3333CC3366CC3399CC33CCCC33FFCC6600CC6633CC6666CC6699CC66CCCC66FFCC9900CC9933CC9966CC9999CC99CCCC99FFCCCC00CCCC33CCCC66CCCC99CCCCCCCCCCFFCCFF00CCFF33CCFF66CCFF99CCFFCCCCFFFFFF0000FF0033FF0066FF0099FF00CCFF00FFFF3300FF3333
310
FF3366FF3399FF33CCFF33FFFF6600FF6633FF6666FF6699FF66CCFF66FFFF9900FF9933FF9966FF9999FF99CCFF99FFFFCC00FFCC33FFCC66FFCC99FFCCCCFFCCFFFFFF00FFFF33FFFF66FFFF99FFFFCCFFFFFF0000000D0D0D1A1A1A2828283535354343435050505D5D5D6B6B6B787878868686939393A1A1A1AEAEAEBB
310
BBBBC9C9C9D6D6D6E4E4E4F1F1F1FFFFFF000000000000000000000000000000000000000000000000000000000000AD4AB4E4000004E24944415478DAED9C41725C310844B9FF31FB242967FE87D748A9CA2A153452C589EDC90604A8BB418AB8EBAEBBEEBAEBAEBBEEBAEBAE7FB4F4ACAFB5DC7EFC2AEBFFE494EFD8FAEE
310
06D87DBA0B68EAEB8CDF5FF5D1C92E786CFBFCF363FC63FAF347A74781B0F5BF0DFE38229E38B09A78ECF63FF1FEEC3ADD927121FCF6B8EDCF50174EC227197E9C23BDFFF5B020C86DADBC4F0CF4B1393F53FE75E0F62B6D4706D0018893933CC0EC571909077C8CCFF3300BE349F667AAF733410881CA059D130495FE8FAD
310
AA734F1E1C70040BE278FB2540E0AC07B500916AE34FF14015FD4D3D7C775F0904500D45B47042FD13CA40D5838483EFF76A69A0F9F64705B51929D003C64356CDE7403820001C0101F6801FA9978CB75C6A7C00E07807E07D93E2C907E281F76B3E2012C21F802003C30F02C44906FF6C66A48AE92CEC95E38609EC100433
310
9CEF801DD9918C1ED31B151A04CE9A6A7FCB632638EA406EB6014359D04C76008F7FC2DE22862F2E042CAAFC9F8B07DF8D16EA9EC33F850C0A56F457F4188C1C8A016A8F232CE54D076A0E5042A18C93992428EC2C57D707619EE89992CDC6B68D84A2A74A879E0961A5CF2A6301A789454015F660B86B29C813418A468EAB
310
464E04C40A6A9BCE798454780F4088A412F5C2A965B0121FDB979BEC283868B67068423C9916022C6BA47AEA2BA27BA96802D5138D744022DA5DEEB7EF368269B96F5E19D4CA08A4581AC0DBC6B84587C64700C3B8C1012B6E9E272B9BD6C00090853D39901A56224B76408046C16807B48A2E134C19F9E12071AA36E89CA7
310
6C663FA4F5C86C6E4A262528263A80463AE02D85882160D9210B9E98278E2AA99C6F392A82B6ACD10629D8441A5605DF74B690360CEC47A129832D53BC980E04822EFD19F76FDEE0790180A818E9002B5D5EDBAC196A93838C7889B33431AF0690D680F2B48950D3FC4A3A0EAD82C1583928155FAD8783FF622182E893CC73
310
8085B29A08D029801C0F6B1DA19957045DF83759A00740C0593E24A6993530D6B65700FC6C38600E0F9492CE099AC174988280AA366E1CE0354FB2B991890E2881CF58B18290BF1F80E60C69335737A90A16F7539B8A339E040EEC0EA0AA3E3105043E50329F4CED329DD4E68783AAF0405DDCE63CA879B7F1704F762711C4
310
0D9AE880E4F24D18EB34D83490E82573A6FD81A1177585C419905AD207DBE56333C0B45CA9CFC95118934F5347974262E8ECBC38F1DA0721B5E43803DDD5E3B13322CEEBC2CE3CD90040BB416ABDB4FECD402C04CD0B9340C5FD63D3336C238543878430270D2584C8AE0BC48600A4183E29285E7E69E24818EF01F5631998
310
CA035630240C41AF17E44C3753B4AED17007C0141C0B7621C87BA670405816CC0D01DE88A02AB87448D90F737834DA01D5F3F3E997B089400301448111C3E7E5B5CE82D5995868D9CA9F55CFF117264CE4AB8928FC188E888D104D77005A44657CC89F0BF00122D38EE28C5B53BC0461D705D0FB522700C7DC9FDD4CFE1A2C
310
CA4928F14AA51F87F33DC056616A3ED170AF29071167DD9D05F99545C2A6EE55049C747B9A3C8FB4986560BD6373CA820E5ACE68A28164378BE2B01714DAD038647FD34F798DE6B06744383DAECE952DFFE74A407F11049404FD6E54F4D9E903172D9609DEED62CCB92F29B5B9E94683CF7C40677581FCFE303E539CFF9A1A
310
1E8AD83D8FF01D8F0A5633DCEDFDB63715BFF845C9C50F5F69FB5D77DD75D77FB67E01D661481B8DA53F440000000049454E44AE426082
  0
ENDSEC
  0
EOF
