  0
SECTION
  2
HEADER
  9
$ACADVER
  1
AC1027
  9
$ACADMAINTVER
 70
   125
  9
$DWGCODEPAGE
  3
ANSI_1252
  9
$REQUIREDVERSIONS
160
                 0
  9
$INSBASE
 10
0.0
 20
0.0
 30
0.0
  9
$EXTMIN
 10
1.000000000000000E+20
 20
1.000000000000000E+20
 30
1.000000000000000E+20
  9
$EXTMAX
 10
-1.000000000000000E+20
 20
-1.000000000000000E+20
 30
-1.000000000000000E+20
  9
$LIMMIN
 10
0.0
 20
0.0
  9
$LIMMAX
 10
12.0
 20
9.0
  9
$ORTHOMODE
 70
     0
  9
$REGENMODE
 70
     1
  9
$FILLMODE
 70
     1
  9
$QTEXTMODE
 70
     0
  9
$MIRRTEXT
 70
     0
  9
$LTSCALE
 40
1.0
  9
$ATTMODE
 70
     1
  9
$TEXTSIZE
 40
0.2
  9
$TRACEWID
 40
0.05
  9
$TEXTSTYLE
  7
Standard
  9
$CLAYER
  8
0
  9
$CELTYPE
  6
ByLayer
  9
$CECOLOR
 62
   256
  9
$CELTSCALE
 40
1.0
  9
$DISPSILH
 70
     0
  9
$DIMSCALE
 40
1.0
  9
$DIMASZ
 40
0.18
  9
$DIMEXO
 40
0.0625
  9
$DIMDLI
 40
0.38
  9
$DIMRND
 40
0.0
  9
$DIMDLE
 40
0.0
  9
$DIMEXE
 40
0.18
  9
$DIMTP
 40
0.0
  9
$DIMTM
 40
0.0
  9
$DIMTXT
 40
0.18
  9
$DIMCEN
 40
0.09
  9
$DIMTSZ
 40
0.0
  9
$DIMTOL
 70
     0
  9
$DIMLIM
 70
     0
  9
$DIMTIH
 70
     1
  9
$DIMTOH
 70
     1
  9
$DIMSE1
 70
     0
  9
$DIMSE2
 70
     0
  9
$DIMTAD
 70
     0
  9
$DIMZIN
 70
     0
  9
$DIMBLK
  1

  9
$DIMASO
 70
     1
  9
$DIMSHO
 70
     1
  9
$DIMPOST
  1

  9
$DIMAPOST
  1

  9
$DIMALT
 70
     0
  9
$DIMALTD
 70
     2
  9
$DIMALTF
 40
25.4
  9
$DIMLFAC
 40
1.0
  9
$DIMTOFL
 70
     0
  9
$DIMTVP
 40
0.0
  9
$DIMTIX
 70
     0
  9
$DIMSOXD
 70
     0
  9
$DIMSAH
 70
     0
  9
$DIMBLK1
  1

  9
$DIMBLK2
  1

  9
$DIMSTYLE
  2
Standard
  9
$DIMCLRD
 70
     0
  9
$DIMCLRE
 70
     0
  9
$DIMCLRT
 70
     0
  9
$DIMTFAC
 40
1.0
  9
$DIMGAP
 40
0.09
  9
$DIMJUST
 70
     0
  9
$DIMSD1
 70
     0
  9
$DIMSD2
 70
     0
  9
$DIMTOLJ
 70
     1
  9
$DIMTZIN
 70
     0
  9
$DIMALTZ
 70
     0
  9
$DIMALTTZ
 70
     0
  9
$DIMUPT
 70
     0
  9
$DIMDEC
 70
     4
  9
$DIMTDEC
 70
     4
  9
$DIMALTU
 70
     2
  9
$DIMALTTD
 70
     2
  9
$DIMTXSTY
  7
Standard
  9
$DIMAUNIT
 70
     0
  9
$DIMADEC
 70
     0
  9
$DIMALTRND
 40
0.0
  9
$DIMAZIN
 70
     0
  9
$DIMDSEP
 70
    46
  9
$DIMATFIT
 70
     3
  9
$DIMFRAC
 70
     0
  9
$DIMLDRBLK
  1

  9
$DIMLUNIT
 70
     2
  9
$DIMLWD
 70
    -2
  9
$DIMLWE
 70
    -2
  9
$DIMTMOVE
 70
     0
  9
$DIMFXL
 40
1.0
  9
$DIMFXLON
 70
     0
  9
$DIMJOGANG
 40
0.7853981633974483
  9
$DIMTFILL
 70
     0
  9
$DIMTFILLCLR
 70
     0
  9
$DIMARCSYM
 70
     0
  9
$DIMLTYPE
  6

  9
$DIMLTEX1
  6

  9
$DIMLTEX2
  6

  9
$DIMTXTDIRECTION
 70
     0
  9
$LUNITS
 70
     2
  9
$LUPREC
 70
     4
  9
$SKETCHINC
 40
0.1
  9
$FILLETRAD
 40
0.0
  9
$AUNITS
 70
     0
  9
$AUPREC
 70
     0
  9
$MENU
  1
.
  9
$ELEVATION
 40
0.0
  9
$PELEVATION
 40
0.0
  9
$THICKNESS
 40
0.0
  9
$LIMCHECK
 70
     0
  9
$CHAMFERA
 40
0.0
  9
$CHAMFERB
 40
0.0
  9
$CHAMFERC
 40
0.0
  9
$CHAMFERD
 40
0.0
  9
$SKPOLY
 70
     0
  9
$TDCREATE
 40
2460427.974421296
  9
$TDUCREATE
 40
2460427.599421296
  9
$TDUPDATE
 40
2460427.974421296
  9
$TDUUPDATE
 40
2460427.599421296
  9
$TDINDWG
 40
0.0000000000
  9
$TDUSRTIMER
 40
0.0000000000
  9
$USRTIMER
 70
     1
  9
$ANGBASE
 50
0.0
  9
$ANGDIR
 70
     0
  9
$PDMODE
 70
     0
  9
$PDSIZE
 40
0.0
  9
$PLINEWID
 40
0.0
  9
$SPLFRAME
 70
     0
  9
$SPLINETYPE
 70
     6
  9
$SPLINESEGS
 70
     8
  9
$HANDSEED
  5
F4
  9
$SURFTAB1
 70
     6
  9
$SURFTAB2
 70
     6
  9
$SURFTYPE
 70
     6
  9
$SURFU
 70
     6
  9
$SURFV
 70
     6
  9
$UCSBASE
  2

  9
$UCSNAME
  2

  9
$UCSORG
 10
0.0
 20
0.0
 30
0.0
  9
$UCSXDIR
 10
1.0
 20
0.0
 30
0.0
  9
$UCSYDIR
 10
0.0
 20
1.0
 30
0.0
  9
$UCSORTHOREF
  2

  9
$UCSORTHOVIEW
 70
     0
  9
$UCSORGTOP
 10
0.0
 20
0.0
 30
0.0
  9
$UCSORGBOTTOM
 10
0.0
 20
0.0
 30
0.0
  9
$UCSORGLEFT
 10
0.0
 20
0.0
 30
0.0
  9
$UCSORGRIGHT
 10
0.0
 20
0.0
 30
0.0
  9
$UCSORGFRONT
 10
0.0
 20
0.0
 30
0.0
  9
$UCSORGBACK
 10
0.0
 20
0.0
 30
0.0
  9
$PUCSBASE
  2

  9
$PUCSNAME
  2

  9
$PUCSORG
 10
0.0
 20
0.0
 30
0.0
  9
$PUCSXDIR
 10
1.0
 20
0.0
 30
0.0
  9
$PUCSYDIR
 10
0.0
 20
1.0
 30
0.0
  9
$PUCSORTHOREF
  2

  9
$PUCSORTHOVIEW
 70
     0
  9
$PUCSORGTOP
 10
0.0
 20
0.0
 30
0.0
  9
$PUCSORGBOTTOM
 10
0.0
 20
0.0
 30
0.0
  9
$PUCSORGLEFT
 10
0.0
 20
0.0
 30
0.0
  9
$PUCSORGRIGHT
 10
0.0
 20
0.0
 30
0.0
  9
$PUCSORGFRONT
 10
0.0
 20
0.0
 30
0.0
  9
$PUCSORGBACK
 10
0.0
 20
0.0
 30
0.0
  9
$USERI1
 70
     0
  9
$USERI2
 70
     0
  9
$USERI3
 70
     0
  9
$USERI4
 70
     0
  9
$USERI5
 70
     0
  9
$USERR1
 40
0.0
  9
$USERR2
 40
0.0
  9
$USERR3
 40
0.0
  9
$USERR4
 40
0.0
  9
$USERR5
 40
0.0
  9
$WORLDVIEW
 70
     1
  9
$SHADEDGE
 70
     3
  9
$SHADEDIF
 70
    70
  9
$TILEMODE
 70
     1
  9
$MAXACTVP
 70
    64
  9
$PINSBASE
 10
0.0
 20
0.0
 30
0.0
  9
$PLIMCHECK
 70
     0
  9
$PEXTMIN
 10
1.000000000000000E+20
 20
1.000000000000000E+20
 30
1.000000000000000E+20
  9
$PEXTMAX
 10
-1.000000000000000E+20
 20
-1.000000000000000E+20
 30
-1.000000000000000E+20
  9
$PLIMMIN
 10
0.0
 20
0.0
  9
$PLIMMAX
 10
12.0
 20
9.0
  9
$UNITMODE
 70
     0
  9
$VISRETAIN
 70
     1
  9
$PLINEGEN
 70
     0
  9
$PSLTSCALE
 70
     1
  9
$TREEDEPTH
 70
  3020
  9
$CMLSTYLE
  2
Standard
  9
$CMLJUST
 70
     0
  9
$CMLSCALE
 40
1.0
  9
$PROXYGRAPHICS
 70
     1
  9
$MEASUREMENT
 70
     0
  9
$CELWEIGHT
370
    -1
  9
$ENDCAPS
280
     0
  9
$JOINSTYLE
280
     0
  9
$LWDISPLAY
290
     1
  9
$INSUNITS
 70
     4
  9
$HYPERLINKBASE
  1

  9
$STYLESHEET
  1

  9
$XEDIT
290
     1
  9
$CEPSNTYPE
380
     0
  9
$PSTYLEMODE
290
     1
  9
$FINGERPRINTGUID
  2
{03F3C309-8995-8542-924E-4CB22A29D65F}
  9
$VERSIONGUID
  2
{EAAEA163-E056-DE49-8C8D-109AE739CBA7}
  9
$EXTNAMES
290
     1
  9
$PSVPSCALE
 40
0.0
  9
$OLESTARTUP
290
     0
  9
$SORTENTS
280
   127
  9
$INDEXCTL
280
     0
  9
$HIDETEXT
280
     1
  9
$XCLIPFRAME
280
     2
  9
$HALOGAP
280
     0
  9
$OBSCOLOR
 70
   257
  9
$OBSLTYPE
280
     0
  9
$INTERSECTIONDISPLAY
280
     0
  9
$INTERSECTIONCOLOR
 70
   257
  9
$DIMASSOC
280
     2
  9
$PROJECTNAME
  1

  9
$CAMERADISPLAY
290
     0
  9
$LENSLENGTH
 40
50.0
  9
$CAMERAHEIGHT
 40
0.0
  9
$STEPSPERSEC
 40
2.0
  9
$STEPSIZE
 40
6.0
  9
$3DDWFPREC
 40
2.0
  9
$PSOLWIDTH
 40
0.25
  9
$PSOLHEIGHT
 40
4.0
  9
$LOFTANG1
 40
1.570796326794896
  9
$LOFTANG2
 40
1.570796326794896
  9
$LOFTMAG1
 40
0.0
  9
$LOFTMAG2
 40
0.0
  9
$LOFTPARAM
 70
     7
  9
$LOFTNORMALS
280
     1
  9
$LATITUDE
 40
37.795
  9
$LONGITUDE
 40
-122.394
  9
$NORTHDIRECTION
 40
0.0
  9
$TIMEZONE
 70
 -8000
  9
$LIGHTGLYPHDISPLAY
280
     1
  9
$TILEMODELIGHTSYNCH
280
     1
  9
$CMATERIAL
347
11
  9
$SOLIDHIST
280
     0
  9
$SHOWHIST
280
     1
  9
$DWFFRAME
280
     2
  9
$DGNFRAME
280
     0
  9
$REALWORLDSCALE
290
     1
  9
$INTERFERECOLOR
 62
     1
  9
$INTERFEREOBJVS
345
33
  9
$INTERFEREVPVS
346
30
  9
$CSHADOW
280
     0
  9
$SHADOWPLANELOCATION
 40
0.0
  0
ENDSEC
  0
SECTION
  2
CLASSES
  0
CLASS
  1
ACDBDICTIONARYWDFLT
  2
AcDbDictionaryWithDefault
  3
ObjectDBX Classes
 90
        0
 91
        1
280
     0
281
     0
  0
CLASS
  1
MATERIAL
  2
AcDbMaterial
  3
ObjectDBX Classes
 90
     1153
 91
        3
280
     0
281
     0
  0
CLASS
  1
VISUALSTYLE
  2
AcDbVisualStyle
  3
ObjectDBX Classes
 90
     4095
 91
       24
280
     0
281
     0
  0
CLASS
  1
SCALE
  2
AcDbScale
  3
ObjectDBX Classes
 90
     1153
 91
       17
280
     0
281
     0
  0
CLASS
  1
TABLESTYLE
  2
AcDbTableStyle
  3
ObjectDBX Classes
 90
     4095
 91
        1
280
     0
281
     0
  0
CLASS
  1
MLEADERSTYLE
  2
AcDbMLeaderStyle
  3
ACDB_MLEADERSTYLE_CLASS
 90
     4095
 91
        1
280
     0
281
     0
  0
CLASS
  1
ACDBSECTIONVIEWSTYLE
  2
AcDbSectionViewStyle
  3
ObjectDBX Classes
 90
     1025
 91
        1
280
     0
281
     0
  0
CLASS
  1
ACDBDETAILVIEWSTYLE
  2
AcDbDetailViewStyle
  3
ObjectDBX Classes
 90
     1025
 91
        1
280
     0
281
     0
  0
CLASS
  1
DICTIONARYVAR
  2
AcDbDictionaryVar
  3
ObjectDBX Classes
 90
        0
 91
        5
280
     0
281
     0
  0
CLASS
  1
CELLSTYLEMAP
  2
AcDbCellStyleMap
  3
ObjectDBX Classes
 90
     1152
 91
        1
280
     0
281
     0
  0
ENDSEC
  0
SECTION
  2
TABLES
  0
TABLE
  2
VPORT
  5
8
330
0
100
AcDbSymbolTable
 70
     1
1001
ACAD
1000
DbSaveVer
1071
      301
  0
VPORT
  5
57
330
8
100
AcDbSymbolTableRecord
100
AcDbViewportTableRecord
  2
*Active
 70
     0
 10
0.0
 20
0.0
 11
1.0
 21
1.0
 12
0.0
 22
0.0
 13
0.0
 23
0.0
 14
1.0
 24
1.0
 15
0.0
 25
0.0
 16
0.0
 26
0.0
 36
1.0
 17
635.9474144864549
 27
-151.6010249933318
 37
0.0
 40
309.2660909863968
 41
4.19487542722371
 42
50.0
 43
0.0
 44
0.0
 50
0.0
 51
0.0
 71
     0
 72
   100
 73
     1
 74
     1
 75
     0
 76
     0
 77
     0
 78
     0
281
     0
 65
     1
110
0.0
120
0.0
130
0.0
111
1.0
121
0.0
131
0.0
112
0.0
122
1.0
132
0.0
 79
     0
146
0.0
 60
     3
 61
     5
292
     1
282
     1
141
0.0
142
0.0
 63
   250
421
  3355443
  0
ENDTAB
  0
TABLE
  2
LTYPE
  5
5
330
0
100
AcDbSymbolTable
 70
     1
  0
LTYPE
  5
5B
330
5
100
AcDbSymbolTableRecord
100
AcDbLinetypeTableRecord
  2
ByBlock
 70
     0
  3

 72
    65
 73
     0
 40
0.0
  0
LTYPE
  5
5C
330
5
100
AcDbSymbolTableRecord
100
AcDbLinetypeTableRecord
  2
ByLayer
 70
     0
  3

 72
    65
 73
     0
 40
0.0
  0
LTYPE
  5
5D
330
5
100
AcDbSymbolTableRecord
100
AcDbLinetypeTableRecord
  2
Continuous
 70
     0
  3
Solid line
 72
    65
 73
     0
 40
0.0
  0
ENDTAB
  0
TABLE
  2
LAYER
  5
2
330
0
100
AcDbSymbolTable
 70
     2
  0
LAYER
  5
54
330
2
100
AcDbSymbolTableRecord
100
AcDbLayerTableRecord
  2
0
 70
     0
 62
     7
  6
Continuous
370
    -3
390
F
347
21
348
0
  0
LAYER
  5
78
330
2
100
AcDbSymbolTableRecord
100
AcDbLayerTableRecord
  2
Calque 1
 70
     0
 62
     7
  6
Continuous
370
     0
390
F
347
21
348
0
  0
ENDTAB
  0
TABLE
  2
STYLE
  5
3
330
0
100
AcDbSymbolTable
 70
     2
  0
STYLE
  5
55
330
3
100
AcDbSymbolTableRecord
100
AcDbTextStyleTableRecord
  2
Standard
 70
     0
 40
0.0
 41
1.0
 50
0.0
 71
     0
 42
0.2
  3
txt
  4

  0
STYLE
  5
5A
330
3
100
AcDbSymbolTableRecord
100
AcDbTextStyleTableRecord
  2
Annotative
 70
     0
 40
0.0
 41
1.0
 50
0.0
 71
     0
 42
0.2
  3
txt
  4

1001
AcadAnnotative
1000
AnnotativeData
1002
{
1070
     1
1070
     1
1002
}
  0
ENDTAB
  0
TABLE
  2
VIEW
  5
6
330
0
100
AcDbSymbolTable
 70
     0
  0
ENDTAB
  0
TABLE
  2
UCS
  5
7
330
0
100
AcDbSymbolTable
 70
     0
  0
ENDTAB
  0
TABLE
  2
APPID
  5
9
330
0
100
AcDbSymbolTable
 70
     2
  0
APPID
  5
56
330
9
100
AcDbSymbolTableRecord
100
AcDbRegAppTableRecord
  2
ACAD
 70
     0
  0
APPID
  5
5E
330
9
100
AcDbSymbolTableRecord
100
AcDbRegAppTableRecord
  2
AcadAnnotative
 70
     0
  0
ENDTAB
  0
TABLE
  2
DIMSTYLE
  5
A
330
0
100
AcDbSymbolTable
 70
     2
100
AcDbDimStyleTable
 71
     0
  0
DIMSTYLE
105
58
330
A
100
AcDbSymbolTableRecord
100
AcDbDimStyleTableRecord
  2
Standard
 70
     0
340
55
  0
DIMSTYLE
105
59
330
A
100
AcDbSymbolTableRecord
100
AcDbDimStyleTableRecord
  2
Annotative
 70
     0
340
55
1001
AcadAnnotative
1000
AnnotativeData
1002
{
1070
     1
1070
     1
1002
}
  0
ENDTAB
  0
TABLE
  2
BLOCK_RECORD
  5
1
330
0
100
AcDbSymbolTable
 70
    11
  0
BLOCK_RECORD
  5
70
330
1
100
AcDbSymbolTableRecord
100
AcDbBlockTableRecord
  2
*Model_Space
340
73
 70
     0
280
     1
281
     0
  0
BLOCK_RECORD
  5
6C
330
1
100
AcDbSymbolTableRecord
100
AcDbBlockTableRecord
  2
*Paper_Space
340
6F
 70
     0
280
     1
281
     0
  0
BLOCK_RECORD
  5
74
330
1
100
AcDbSymbolTableRecord
100
AcDbBlockTableRecord
  2
*Paper_Space0
340
77
 70
     0
280
     1
281
     0
  0
BLOCK_RECORD
  5
79
330
1
100
AcDbSymbolTableRecord
100
AcDbBlockTableRecord
  2
Block_0
340
0
102
{BLKREFS
331
7A
102
}
 70
     0
280
     1
281
     0
  0
BLOCK_RECORD
  5
87
330
1
100
AcDbSymbolTableRecord
100
AcDbBlockTableRecord
  2
Block_1
340
0
102
{BLKREFS
331
88
102
}
 70
     0
280
     1
281
     0
  0
BLOCK_RECORD
  5
9B
330
1
100
AcDbSymbolTableRecord
100
AcDbBlockTableRecord
  2
Block_2
340
0
102
{BLKREFS
331
9C
102
}
 70
     0
280
     1
281
     0
  0
BLOCK_RECORD
  5
9F
330
1
100
AcDbSymbolTableRecord
100
AcDbBlockTableRecord
  2
Block_3
340
0
102
{BLKREFS
331
A0
102
}
 70
     0
280
     1
281
     0
  0
BLOCK_RECORD
  5
AE
330
1
100
AcDbSymbolTableRecord
100
AcDbBlockTableRecord
  2
Block_4
340
0
102
{BLKREFS
331
AF
102
}
 70
     0
280
     1
281
     0
  0
BLOCK_RECORD
  5
B2
330
1
100
AcDbSymbolTableRecord
100
AcDbBlockTableRecord
  2
Block_5
340
0
102
{BLKREFS
331
B3
102
}
 70
     0
280
     1
281
     0
  0
BLOCK_RECORD
  5
C1
330
1
100
AcDbSymbolTableRecord
100
AcDbBlockTableRecord
  2
Block_6
340
0
102
{BLKREFS
331
C2
102
}
 70
     0
280
     1
281
     0
  0
BLOCK_RECORD
  5
C5
330
1
100
AcDbSymbolTableRecord
100
AcDbBlockTableRecord
  2
Block_7
340
0
102
{BLKREFS
331
C6
102
}
 70
     0
280
     1
281
     0
  0
BLOCK_RECORD
  5
D4
330
1
100
AcDbSymbolTableRecord
100
AcDbBlockTableRecord
  2
Block_8
340
0
102
{BLKREFS
331
D5
102
}
 70
     0
280
     1
281
     0
  0
BLOCK_RECORD
  5
D8
330
1
100
AcDbSymbolTableRecord
100
AcDbBlockTableRecord
  2
Block_9
340
0
102
{BLKREFS
331
D9
102
}
 70
     0
280
     1
281
     0
  0
ENDTAB
  0
ENDSEC
  0
SECTION
  2
BLOCKS
  0
BLOCK
  5
71
330
70
100
AcDbEntity
  8
0
100
AcDbBlockBegin
  2
*Model_Space
 70
     0
 10
0.0
 20
0.0
 30
0.0
  3
*Model_Space
  1

  0
ENDBLK
  5
72
330
70
100
AcDbEntity
  8
0
100
AcDbBlockEnd
  0
BLOCK
  5
6D
330
6C
100
AcDbEntity
 67
     1
  8
0
100
AcDbBlockBegin
  2
*Paper_Space
 70
     0
 10
0.0
 20
0.0
 30
0.0
  3
*Paper_Space
  1

  0
ENDBLK
  5
6E
330
6C
100
AcDbEntity
 67
     1
  8
0
100
AcDbBlockEnd
  0
BLOCK
  5
75
330
74
100
AcDbEntity
 67
     1
  8
0
100
AcDbBlockBegin
  2
*Paper_Space0
 70
     0
 10
0.0
 20
0.0
 30
0.0
  3
*Paper_Space0
  1

  0
ENDBLK
  5
76
330
74
100
AcDbEntity
 67
     1
  8
0
100
AcDbBlockEnd
  0
BLOCK
  5
7B
330
79
100
AcDbEntity
  8
0
100
AcDbBlockBegin
  2
Block_0
 70
     0
 10
0.0
 20
0.0
 30
0.0
  3
Block_0
  1

  0
ELLIPSE
  5
7D
330
79
100
AcDbEntity
  8
Calque 1
 62
   250
420
  1907995
370
    13
100
AcDbEllipse
 10
145.6977532021566
 20
-121.0000131508708
 30
0.0
 11
22.49999999437502
 21
0.0
 31
0.0
210
0.0
220
0.0
230
1.0
 40
0.4444444444444536
 41
0.0
 42
6.283185307179585
  0
SPLINE
  5
7E
330
79
100
AcDbEntity
  8
Calque 1
 62
   250
420
  1907995
370
    13
100
AcDbSpline
210
0.0
220
0.0
230
1.0
 70
     9
 71
     3
 72
    41
 73
    37
 74
     0
 42
0.0000000001
 43
0.0000000001
 40
0.0
 40
0.0
 40
0.0
 40
0.0
 40
1.0
 40
1.0
 40
1.0
 40
2.0
 40
2.0
 40
2.0
 40
3.0
 40
3.0
 40
3.0
 40
4.0
 40
4.0
 40
4.0
 40
5.0
 40
5.0
 40
5.0
 40
6.0
 40
6.0
 40
6.0
 40
7.0
 40
7.0
 40
7.0
 40
8.0
 40
8.0
 40
8.0
 40
9.0
 40
9.0
 40
9.0
 40
10.0
 40
10.0
 40
10.0
 40
11.0
 40
11.0
 40
11.0
 40
12.0
 40
12.0
 40
12.0
 40
12.0
 10
183.1977463263264
 20
-201.0000049119906
 30
0.0
 10
183.1977463263264
 20
-201.0000049119906
 30
0.0
 10
183.1977463263264
 20
-251.000010663922
 30
0.0
 10
183.1977463263264
 20
-251.000010663922
 30
0.0
 10
183.1977463263264
 20
-251.000010663922
 30
0.0
 10
178.1976639301155
 20
-251.000010663922
 30
0.0
 10
178.1976639301155
 20
-251.000010663922
 30
0.0
 10
122.9692305468414
 20
-251.000010663922
 30
0.0
 10
78.19776008548686
 20
-206.2285186707204
 30
0.0
 10
78.19776008548686
 20
-151.000106819293
 30
0.0
 10
78.19776008548686
 20
-151.000106819293
 30
0.0
 10
78.19776008548686
 20
-150.9999991600591
 30
0.0
 10
78.19775321903185
 20
-151.0000131433717
 30
0.0
 10
78.19775321903185
 20
-151.0000131433717
 30
0.0
 10
78.19775321903185
 20
-150.9999081433719
 30
0.0
 10
78.19775321903185
 20
-150.9999081433719
 30
0.0
 10
78.19775321903185
 20
-93.01006741951995
 30
0.0
 10
125.2078074689309
 20
-46.00001316962148
 30
0.0
 10
183.1976481927823
 20
-46.00001316962148
 30
0.0
 10
183.1976481927823
 20
-46.00001316962148
 30
0.0
 10
183.197753192782
 20
-46.00001316962148
 30
0.0
 10
183.197753192782
 20
-46.00001316962148
 30
0.0
 10
183.197753192782
 20
-46.00001316962148
 30
0.0
 10
183.197753192782
 20
-151.0000131433717
 30
0.0
 10
183.197753192782
 20
-151.0000131433717
 30
0.0
 10
183.1977463263264
 20
-150.9999991600591
 30
0.0
 10
183.1977463263264
 20
-166.0000094983773
 30
0.0
 10
183.1977463263264
 20
-166.0000094983773
 30
0.0
 10
183.1977463263264
 20
-166.0000094983773
 30
0.0
 10
183.1977463263264
 20
-180.9999983048486
 30
0.0
 10
183.1977463263264
 20
-180.9999983048486
 30
0.0
 10
166.6292055454208
 20
-180.9999983048486
 30
0.0
 10
153.1977471815369
 20
-185.4771582700922
 30
0.0
 10
153.1977471815369
 20
-191.000012374343
 30
0.0
 10
153.1977471815369
 20
-196.522844946747
 30
0.0
 10
166.6292055454208
 20
-201.0000049119906
 30
0.0
 10
183.1977463263264
 20
-201.0000049119906
 30
0.0
  0
LWPOLYLINE
  5
7F
330
79
100
AcDbEntity
  8
Calque 1
 62
    12
420
 14878227
370
    13
100
AcDbPolyline
 90
        3
 70
     0
 43
0.0
 10
168.6977485339987
 20
-150.9999991600591
 10
171.1977466684106
 20
-166.0000094983773
 10
183.1977463263264
 20
-166.0000094983773
  0
LINE
  5
80
330
79
100
AcDbEntity
  8
Calque 1
 62
    12
420
 14878227
370
    13
100
AcDbLine
 10
108.9515104344625
 20
-76.75377038505246
 30
0.0
 11
130.1647138647562
 21
-97.96697381534551
 31
0.0
  0
LINE
  5
81
330
79
100
AcDbEntity
  8
Calque 1
 62
    12
420
 14878227
370
    13
100
AcDbLine
 10
129.8058228275136
 20
-201.7174182296063
 30
0.0
 11
108.0894917853976
 21
-222.4152675289718
 31
0.0
  0
ELLIPSE
  5
82
330
79
100
AcDbEntity
  8
Calque 1
 62
   250
420
  1907995
370
    13
100
AcDbEllipse
 10
272.0932655830399
 20
-121.0000131501973
 30
0.0
 11
22.49999999437534
 21
0.0
 31
0.0
210
0.0
220
0.0
230
1.0
 40
0.4444444444444508
 41
0.0
 42
6.283185307179585
  0
SPLINE
  5
83
330
79
100
AcDbEntity
  8
Calque 1
 62
   250
420
  1907995
370
    13
100
AcDbSpline
210
0.0
220
0.0
230
1.0
 70
     9
 71
     3
 72
    41
 73
    37
 74
     0
 42
0.0000000001
 43
0.0000000001
 40
0.0
 40
0.0
 40
0.0
 40
0.0
 40
1.0
 40
1.0
 40
1.0
 40
2.0
 40
2.0
 40
2.0
 40
3.0
 40
3.0
 40
3.0
 40
4.0
 40
4.0
 40
4.0
 40
5.0
 40
5.0
 40
5.0
 40
6.0
 40
6.0
 40
6.0
 40
7.0
 40
7.0
 40
7.0
 40
8.0
 40
8.0
 40
8.0
 40
9.0
 40
9.0
 40
9.0
 40
10.0
 40
10.0
 40
10.0
 40
11.0
 40
11.0
 40
11.0
 40
12.0
 40
12.0
 40
12.0
 40
12.0
 10
234.5932724552782
 20
-201.0000049096329
 30
0.0
 10
234.5932724552782
 20
-201.0000049096329
 30
0.0
 10
234.5932724530336
 20
-251.0000106615644
 30
0.0
 10
234.5932724530336
 20
-251.0000106615644
 30
0.0
 10
234.5932724530336
 20
-251.0000106615644
 30
0.0
 10
239.5933548492445
 20
-251.000010661789
 30
0.0
 10
239.5933548492445
 20
-251.000010661789
 30
0.0
 10
294.8217882325185
 20
-251.0000106642685
 30
0.0
 10
339.5932586958832
 20
-206.2285186730779
 30
0.0
 10
339.5932586983627
 20
-151.00010682165
 30
0.0
 10
339.5932586983627
 20
-151.00010682165
 30
0.0
 10
339.5932586983627
 20
-150.9999991624167
 30
0.0
 10
339.5932655648184
 20
-151.000013145728
 30
0.0
 10
339.5932655648184
 20
-151.000013145728
 30
0.0
 10
339.5932655648184
 20
-150.9999081457283
 30
0.0
 10
339.5932655648184
 20
-150.9999081457283
 30
0.0
 10
339.5932655674211
 20
-93.01006742187693
 30
0.0
 10
292.5832113196335
 20
-46.0000131698679
 30
0.0
 10
234.5933705957822
 20
-46.0000131672642
 30
0.0
 10
234.5933705957822
 20
-46.0000131672642
 30
0.0
 10
234.5932655957824
 20
-46.0000131672642
 30
0.0
 10
234.5932655957824
 20
-46.0000131672642
 30
0.0
 10
234.5932655957824
 20
-46.0000131672642
 30
0.0
 10
234.5932655910685
 20
-151.0000131410141
 30
0.0
 10
234.5932655910685
 20
-151.0000131410141
 30
0.0
 10
234.5932724575229
 20
-150.9999991577022
 30
0.0
 10
234.5932724568491
 20
-166.0000094960197
 30
0.0
 10
234.5932724568491
 20
-166.0000094960197
 30
0.0
 10
234.5932724568491
 20
-166.0000094960197
 30
0.0
 10
234.5932724561766
 20
-180.999998302491
 30
0.0
 10
234.5932724561766
 20
-180.999998302491
 30
0.0
 10
251.1618132370822
 20
-180.9999983032354
 30
0.0
 10
264.5932716007646
 20
-185.4771582690822
 30
0.0
 10
264.5932716005169
 20
-191.0000123733329
 30
0.0
 10
264.5932716002692
 20
-196.5228449457369
 30
0.0
 10
251.1618132361838
 20
-201.0000049103773
 30
0.0
 10
234.5932724552782
 20
-201.0000049096329
 30
0.0
  0
LWPOLYLINE
  5
84
330
79
100
AcDbEntity
  8
Calque 1
 62
    12
420
 14878227
370
    13
100
AcDbPolyline
 90
        3
 70
     0
 43
0.0
 10
249.0932702498506
 20
-150.9999991583535
 10
246.5932721147649
 20
-166.0000094965587
 10
234.5932724568491
 20
-166.0000094960197
  0
LINE
  5
85
330
79
100
AcDbEntity
  8
Calque 1
 62
    12
420
 14878227
370
    13
100
AcDbLine
 10
308.8395083527204
 20
-76.75377038602881
 30
0.0
 11
287.6263049214751
 21
-97.96697381536926
 31
0.0
  0
LINE
  5
86
330
79
100
AcDbEntity
  8
Calque 1
 62
    12
420
 14878227
370
    13
100
AcDbLine
 10
287.9851959540588
 20
-201.7174182296461
 30
0.0
 11
309.7015269952451
 21
-222.4152675299863
 31
0.0
  0
ENDBLK
  5
7C
330
79
100
AcDbEntity
  8
0
100
AcDbBlockEnd
  0
BLOCK
  5
89
330
87
100
AcDbEntity
  8
0
100
AcDbBlockBegin
  2
Block_1
 70
     0
 10
0.0
 20
0.0
 30
0.0
  3
Block_1
  1

  0
ELLIPSE
  5
8B
330
87
100
AcDbEntity
  8
Calque 1
 62
   250
420
  1907995
370
    13
100
AcDbEllipse
 10
520.0357499294003
 20
-121.0000132748932
 30
0.0
 11
22.49999999437566
 21
0.0
 31
0.0
210
0.0
220
0.0
230
1.0
 40
0.4444444444444302
 41
0.0
 42
6.283185307179585
  0
LWPOLYLINE
  5
8C
330
87
100
AcDbEntity
  8
Calque 1
 62
    12
420
 14878227
370
    13
100
AcDbPolyline
 90
        3
 70
     0
 43
0.0
 10
543.0357452612444
 20
-150.9999992840816
 10
545.5357433956532
 20
-166.0000096223997
 10
557.5357430535721
 20
-166.0000096223997
  0
LINE
  5
8D
330
87
100
AcDbEntity
  8
Calque 1
 62
    12
420
 14878227
370
    13
100
AcDbLine
 10
483.2895071617044
 20
-76.7537705090746
 30
0.0
 11
504.5027105919981
 21
-97.96697393936797
 31
0.0
  0
LINE
  5
8E
330
87
100
AcDbEntity
  8
Calque 1
 62
    12
420
 14878227
370
    13
100
AcDbLine
 10
504.1438195547594
 20
-201.7174183536288
 30
0.0
 11
482.4274885126401
 21
-222.4152676529942
 31
0.0
  0
ELLIPSE
  5
8F
330
87
100
AcDbEntity
  8
Calque 1
 62
   250
420
  1907995
370
    13
100
AcDbEllipse
 10
595.035749911884
 20
-121.0000132742199
 30
0.0
 11
22.49999999437502
 21
0.0
 31
0.0
210
0.0
220
0.0
230
1.0
 40
0.4444444444444357
 41
0.0
 42
6.283185307179585
  0
SPLINE
  5
90
330
87
100
AcDbEntity
  8
Calque 1
 62
   250
420
  1907995
370
    13
100
AcDbSpline
210
0.0
220
0.0
230
1.0
 70
     8
 71
     3
 72
    20
 73
    16
 74
     0
 42
0.0000000001
 43
0.0000000001
 40
0.0
 40
0.0
 40
0.0
 40
0.0
 40
1.0
 40
1.0
 40
1.0
 40
2.0
 40
2.0
 40
2.0
 40
3.0
 40
3.0
 40
3.0
 40
4.0
 40
4.0
 40
4.0
 40
5.0
 40
5.0
 40
5.0
 40
5.0
 10
557.5357125415997
 20
-201.000005036013
 30
0.0
 10
540.9672148243877
 20
-201.000005036013
 30
0.0
 10
527.5357349286589
 20
-196.5228450707695
 30
0.0
 10
527.5357349286589
 20
-191.0000124983654
 30
0.0
 10
527.5357349286589
 20
-185.4771583941147
 30
0.0
 10
540.9672148243877
 20
-180.9999984288711
 30
0.0
 10
557.5357125415997
 20
-180.9999984288711
 30
0.0
 10
557.5357125415997
 20
-180.9999984288711
 30
0.0
 10
557.5357556052925
 20
-180.9999984288711
 30
0.0
 10
557.5357556052925
 20
-180.9999984288711
 30
0.0
 10
574.1042963862007
 20
-180.9999984288711
 30
0.0
 10
587.5357762819295
 20
-185.4771583941147
 30
0.0
 10
587.5357762819295
 20
-191.0000124983654
 30
0.0
 10
587.5357762819295
 20
-196.5228450707695
 30
0.0
 10
574.1042963862007
 20
-201.000005036013
 30
0.0
 10
557.5357556052925
 20
-201.000005036013
 30
0.0
  0
SPLINE
  5
91
330
87
100
AcDbEntity
  8
Calque 1
 62
   250
420
  1907995
370
    13
100
AcDbSpline
210
0.0
220
0.0
230
1.0
 70
    11
 71
     3
 72
    44
 73
    40
 74
     0
 42
0.0000000001
 43
0.0000000001
 40
0.0
 40
0.0
 40
0.0
 40
0.0
 40
1.0
 40
1.0
 40
1.0
 40
2.0
 40
2.0
 40
2.0
 40
3.0
 40
3.0
 40
3.0
 40
4.0
 40
4.0
 40
4.0
 40
5.0
 40
5.0
 40
5.0
 40
6.0
 40
6.0
 40
6.0
 40
7.0
 40
7.0
 40
7.0
 40
8.0
 40
8.0
 40
8.0
 40
9.0
 40
9.0
 40
9.0
 40
10.0
 40
10.0
 40
10.0
 40
11.0
 40
11.0
 40
11.0
 40
12.0
 40
12.0
 40
12.0
 40
13.0
 40
13.0
 40
13.0
 40
13.0
 10
557.5357556052925
 20
-251.0000107879445
 30
0.0
 10
557.5357556052925
 20
-251.0000107879445
 30
0.0
 10
562.5358380015061
 20
-251.0000107879445
 30
0.0
 10
562.5358380015061
 20
-251.0000107879445
 30
0.0
 10
617.7642498529315
 20
-251.0000107879445
 30
0.0
 10
662.5357633779819
 20
-206.2285187947428
 30
0.0
 10
662.5357633779819
 20
-151.0001069433155
 30
0.0
 10
662.5357633779819
 20
-151.0001069433155
 30
0.0
 10
662.5357633779819
 20
-150.9999992840816
 30
0.0
 10
662.5357633779819
 20
-150.9999992840816
 30
0.0
 10
662.5357633779819
 20
-150.9999992840816
 30
0.0
 10
662.5357633779819
 20
-150.9999131566944
 30
0.0
 10
662.5357633779819
 20
-150.9999131566944
 30
0.0
 10
662.5357633779819
 20
-93.01006348721839
 30
0.0
 10
615.5257129340051
 20
-46.00001304324175
 30
0.0
 10
557.5358847963739
 20
-46.00001304324175
 30
0.0
 10
557.5358847963739
 20
-46.00001304324175
 30
0.0
 10
557.5357556052925
 20
-46.00001304324175
 30
0.0
 10
557.5357556052925
 20
-46.00001304324175
 30
0.0
 10
557.5357556052925
 20
-46.00001304324175
 30
0.0
 10
557.5356264142145
 20
-46.00001304324175
 30
0.0
 10
557.5356264142145
 20
-46.00001304324175
 30
0.0
 10
499.5457982765833
 20
-46.00001304324175
 30
0.0
 10
452.5357478326066
 20
-93.01006348721839
 30
0.0
 10
452.5357478326066
 20
-150.9999131566944
 30
0.0
 10
452.5357478326066
 20
-150.9999131566944
 30
0.0
 10
452.5357478326066
 20
-150.9999992840816
 30
0.0
 10
452.5357478326066
 20
-150.9999992840816
 30
0.0
 10
452.5357478326066
 20
-150.9999992840816
 30
0.0
 10
452.5357478326066
 20
-151.0001069433155
 30
0.0
 10
452.5357478326066
 20
-151.0001069433155
 30
0.0
 10
452.5357478326066
 20
-206.2285187947428
 30
0.0
 10
497.3072182939609
 20
-251.0000107879445
 30
0.0
 10
552.5356732090823
 20
-251.0000107879445
 30
0.0
 10
552.5356732090823
 20
-251.0000107879445
 30
0.0
 10
557.5357125415997
 20
-251.0000107879445
 30
0.0
 10
557.5357125415997
 20
-251.0000107879445
 30
0.0
 10
557.5357125415997
 20
-251.0000107879445
 30
0.0
 10
557.5357556052925
 20
-251.0000107879445
 30
0.0
 10
557.5357556052925
 20
-251.0000107879445
 30
0.0
  0
LWPOLYLINE
  5
92
330
87
100
AcDbEntity
  8
Calque 1
 62
    12
420
 14878227
370
    13
100
AcDbPolyline
 90
        3
 70
     0
 43
0.0
 10
572.0357545786949
 20
-150.9999992823759
 10
569.5357564436086
 20
-166.0000096205812
 10
557.5357567856941
 20
-166.0000096200428
  0
LINE
  5
93
330
87
100
AcDbEntity
  8
Calque 1
 62
    12
420
 14878227
370
    13
100
AcDbLine
 10
631.7819926815648
 20
-76.75377051005094
 30
0.0
 11
610.5687892503194
 21
-97.96697393939204
 31
0.0
  0
LINE
  5
94
330
87
100
AcDbEntity
  8
Calque 1
 62
    12
420
 14878227
370
    13
100
AcDbLine
 10
610.9276802829014
 20
-201.7174183536686
 30
0.0
 11
632.6440113240888
 21
-222.4152676540094
 31
0.0
  0
ENDBLK
  5
8A
330
87
100
AcDbEntity
  8
0
100
AcDbBlockEnd
  0
BLOCK
  5
9D
330
9B
100
AcDbEntity
  8
0
100
AcDbBlockBegin
  2
Block_2
 70
     0
 10
0.0
 20
0.0
 30
0.0
  3
Block_2
  1

  0
INSERT
  5
A0
330
9B
100
AcDbEntity
  8
Calque 1
100
AcDbBlockReference
  2
Block_3
 10
0.0
 20
0.0
 30
0.0
  0
ENDBLK
  5
9E
330
9B
100
AcDbEntity
  8
0
100
AcDbBlockEnd
  0
BLOCK
  5
A1
330
9F
100
AcDbEntity
  8
0
100
AcDbBlockBegin
  2
Block_3
 70
     0
 10
0.0
 20
0.0
 30
0.0
  3
Block_3
  1

  0
SPLINE
  5
A3
330
9F
100
AcDbEntity
  8
Calque 1
100
AcDbSpline
210
0.0
220
0.0
230
1.0
 70
    11
 71
     3
 72
    77
 73
    73
 74
     0
 42
0.0000000001
 43
0.0000000001
 40
0.0
 40
0.0
 40
0.0
 40
0.0
 40
1.0
 40
1.0
 40
1.0
 40
2.0
 40
2.0
 40
2.0
 40
3.0
 40
3.0
 40
3.0
 40
4.0
 40
4.0
 40
4.0
 40
5.0
 40
5.0
 40
5.0
 40
6.0
 40
6.0
 40
6.0
 40
7.0
 40
7.0
 40
7.0
 40
8.0
 40
8.0
 40
8.0
 40
9.0
 40
9.0
 40
9.0
 40
10.0
 40
10.0
 40
10.0
 40
11.0
 40
11.0
 40
11.0
 40
12.0
 40
12.0
 40
12.0
 40
13.0
 40
13.0
 40
13.0
 40
14.0
 40
14.0
 40
14.0
 40
15.0
 40
15.0
 40
15.0
 40
16.0
 40
16.0
 40
16.0
 40
17.0
 40
17.0
 40
17.0
 40
18.0
 40
18.0
 40
18.0
 40
19.0
 40
19.0
 40
19.0
 40
20.0
 40
20.0
 40
20.0
 40
21.0
 40
21.0
 40
21.0
 40
22.0
 40
22.0
 40
22.0
 40
23.0
 40
23.0
 40
23.0
 40
24.0
 40
24.0
 40
24.0
 40
24.0
 10
1136.454662801824
 20
-39.05205212782379
 30
0.0
 10
1136.454662801824
 20
-39.05205212782379
 30
0.0
 10
1132.49418103198
 20
-39.05205212782379
 30
0.0
 10
1132.49418103198
 20
-39.05205212782379
 30
0.0
 10
1132.49418103198
 20
-39.05205212782379
 30
0.0
 10
1132.49418103198
 20
-38.47741020088412
 30
0.0
 10
1132.49418103198
 20
-38.47741020088412
 30
0.0
 10
1132.49418103198
 20
-38.47741020088412
 30
0.0
 10
1134.11061983366
 20
-36.8361667117111
 30
0.0
 10
1134.11061983366
 20
-36.8361667117111
 30
0.0
 10
1134.411032159974
 20
-36.53299830900912
 30
0.0
 10
1134.663902168591
 20
-36.26290282296553
 30
0.0
 10
1134.869229859512
 20
-36.02588025358034
 30
0.0
 10
1135.074557550432
 20
-35.78885768419515
 30
0.0
 10
1135.230964885463
 20
-35.55528021029521
 30
0.0
 10
1135.338451864603
 20
-35.32514783188052
 30
0.0
 10
1135.445938843743
 20
-35.09501545346584
 30
0.0
 10
1135.499682333312
 20
-34.84214544484849
 30
0.0
 10
1135.499682333312
 20
-34.56653780602851
 30
0.0
 10
1135.499682333312
 20
-34.22478433389172
 30
0.0
 10
1135.398396526046
 20
-33.96364609610979
 30
0.0
 10
1135.195824911513
 20
-33.78312309268269
 30
0.0
 10
1134.993253296981
 20
-33.6026000892556
 30
0.0
 10
1134.726602906422
 20
-33.51233858754206
 30
0.0
 10
1134.395873739838
 20
-33.51233858754206
 30
0.0
 10
1134.106485719077
 20
-33.51233858754206
 30
0.0
 10
1133.850170614975
 20
-33.56194796252965
 30
0.0
 10
1133.626928427531
 20
-33.66116671250485
 30
0.0
 10
1133.403686240086
 20
-33.76038546248004
 30
0.0
 10
1133.174931899866
 20
-33.90094535827824
 30
0.0
 10
1132.940665406869
 20
-34.08284639989943
 30
0.0
 10
1132.940665406869
 20
-34.08284639989943
 30
0.0
 10
1132.572729209044
 20
-33.61982556668186
 30
0.0
 10
1132.572729209044
 20
-33.61982556668186
 30
0.0
 10
1132.73258163956
 20
-33.48477782366006
 30
0.0
 10
1132.906903471113
 20
-33.36488850077336
 30
0.0
 10
1133.095694703705
 20
-33.26015759802177
 30
0.0
 10
1133.284485936297
 20
-33.15542669527018
 30
0.0
 10
1133.487057550829
 20
-33.07274440362418
 30
0.0
 10
1133.703409547303
 20
-33.01211072308378
 30
0.0
 10
1133.919761543777
 20
-32.95147704254338
 30
0.0
 10
1134.150582941289
 20
-32.92116020227318
 30
0.0
 10
1134.395873739838
 20
-32.92116020227318
 30
0.0
 10
1134.767944052246
 20
-32.92116020227318
 30
0.0
 10
1135.089026951471
 20
-32.98592799739588
 30
0.0
 10
1135.359122437514
 20
-33.11546358764128
 30
0.0
 10
1135.629217923558
 20
-33.24499917788667
 30
0.0
 10
1135.837990709964
 20
-33.42965629589606
 30
0.0
 10
1135.985440796733
 20
-33.66943494166945
 30
0.0
 10
1136.132890883502
 20
-33.90921358744284
 30
0.0
 10
1136.206615926886
 20
-34.19446749362152
 30
0.0
 10
1136.206615926886
 20
-34.52519666020551
 30
0.0
 10
1136.206615926886
 20
-34.84490152123669
 30
0.0
 10
1136.143226169957
 20
-35.14186875206523
 30
0.0
 10
1136.0164466561
 20
-35.41609835269112
 30
0.0
 10
1135.889667142243
 20
-35.690327953317
 30
0.0
 10
1135.711900215204
 20
-35.96180147755469
 30
0.0
 10
1135.483145874983
 20
-36.23051892540418
 30
0.0
 10
1135.254391534763
 20
-36.49923637325367
 30
0.0
 10
1134.987052125107
 20
-36.7838012603353
 30
0.0
 10
1134.681127646017
 20
-37.08421358664909
 30
0.0
 10
1134.681127646017
 20
-37.08421358664909
 30
0.0
 10
1133.366479208846
 20
-38.39472790923813
 30
0.0
 10
1133.366479208846
 20
-38.39472790923813
 30
0.0
 10
1133.366479208846
 20
-38.39472790923813
 30
0.0
 10
1133.366479208846
 20
-38.42366671131422
 30
0.0
 10
1133.366479208846
 20
-38.42366671131422
 30
0.0
 10
1133.366479208846
 20
-38.42366671131422
 30
0.0
 10
1136.454662801824
 20
-38.42366671131422
 30
0.0
 10
1136.454662801824
 20
-38.42366671131422
 30
0.0
 10
1136.454662801824
 20
-38.42366671131422
 30
0.0
 10
1136.454662801824
 20
-39.05205212782379
 30
0.0
 10
1136.454662801824
 20
-39.05205212782379
 30
0.0
  0
HATCH
  5
A4
330
9F
100
AcDbEntity
  8
Calque 1
 62
    12
420
 14878227
440
 33554687
100
AcDbHatch
 10
0.0
 20
0.0
 30
0.0
210
0.0
220
0.0
230
1.0
  2
SOLID
 70
     1
 71
     1
 91
        1
 92
        1
 93
        1
 72
     4
 94
        3
 73
     0
 74
     0
 95
       77
 96
       73
 40
0.0
 40
0.0
 40
0.0
 40
0.0
 40
1.0
 40
1.0
 40
1.0
 40
2.0
 40
2.0
 40
2.0
 40
3.0
 40
3.0
 40
3.0
 40
4.0
 40
4.0
 40
4.0
 40
5.0
 40
5.0
 40
5.0
 40
6.0
 40
6.0
 40
6.0
 40
7.0
 40
7.0
 40
7.0
 40
8.0
 40
8.0
 40
8.0
 40
9.0
 40
9.0
 40
9.0
 40
10.0
 40
10.0
 40
10.0
 40
11.0
 40
11.0
 40
11.0
 40
12.0
 40
12.0
 40
12.0
 40
13.0
 40
13.0
 40
13.0
 40
14.0
 40
14.0
 40
14.0
 40
15.0
 40
15.0
 40
15.0
 40
16.0
 40
16.0
 40
16.0
 40
17.0
 40
17.0
 40
17.0
 40
18.0
 40
18.0
 40
18.0
 40
19.0
 40
19.0
 40
19.0
 40
20.0
 40
20.0
 40
20.0
 40
21.0
 40
21.0
 40
21.0
 40
22.0
 40
22.0
 40
22.0
 40
23.0
 40
23.0
 40
23.0
 40
24.0
 40
24.0
 40
24.0
 40
24.0
 10
1136.454662801824
 20
-39.05205212782379
 10
1136.454662801824
 20
-39.05205212782379
 10
1132.49418103198
 20
-39.05205212782379
 10
1132.49418103198
 20
-39.05205212782379
 10
1132.49418103198
 20
-39.05205212782379
 10
1132.49418103198
 20
-38.47741020088412
 10
1132.49418103198
 20
-38.47741020088412
 10
1132.49418103198
 20
-38.47741020088412
 10
1134.11061983366
 20
-36.8361667117111
 10
1134.11061983366
 20
-36.8361667117111
 10
1134.411032159974
 20
-36.53299830900912
 10
1134.663902168591
 20
-36.26290282296553
 10
1134.869229859512
 20
-36.02588025358034
 10
1135.074557550432
 20
-35.78885768419515
 10
1135.230964885463
 20
-35.55528021029521
 10
1135.338451864603
 20
-35.32514783188052
 10
1135.445938843743
 20
-35.09501545346584
 10
1135.499682333312
 20
-34.84214544484849
 10
1135.499682333312
 20
-34.56653780602851
 10
1135.499682333312
 20
-34.22478433389172
 10
1135.398396526046
 20
-33.96364609610979
 10
1135.195824911513
 20
-33.78312309268269
 10
1134.993253296981
 20
-33.6026000892556
 10
1134.726602906422
 20
-33.51233858754206
 10
1134.395873739838
 20
-33.51233858754206
 10
1134.106485719077
 20
-33.51233858754206
 10
1133.850170614975
 20
-33.56194796252965
 10
1133.626928427531
 20
-33.66116671250485
 10
1133.403686240086
 20
-33.76038546248004
 10
1133.174931899866
 20
-33.90094535827824
 10
1132.940665406869
 20
-34.08284639989943
 10
1132.940665406869
 20
-34.08284639989943
 10
1132.572729209044
 20
-33.61982556668186
 10
1132.572729209044
 20
-33.61982556668186
 10
1132.73258163956
 20
-33.48477782366006
 10
1132.906903471113
 20
-33.36488850077336
 10
1133.095694703705
 20
-33.26015759802177
 10
1133.284485936297
 20
-33.15542669527018
 10
1133.487057550829
 20
-33.07274440362418
 10
1133.703409547303
 20
-33.01211072308378
 10
1133.919761543777
 20
-32.95147704254338
 10
1134.150582941289
 20
-32.92116020227318
 10
1134.395873739838
 20
-32.92116020227318
 10
1134.767944052246
 20
-32.92116020227318
 10
1135.089026951471
 20
-32.98592799739588
 10
1135.359122437514
 20
-33.11546358764128
 10
1135.629217923558
 20
-33.24499917788667
 10
1135.837990709964
 20
-33.42965629589606
 10
1135.985440796733
 20
-33.66943494166945
 10
1136.132890883502
 20
-33.90921358744284
 10
1136.206615926886
 20
-34.19446749362152
 10
1136.206615926886
 20
-34.52519666020551
 10
1136.206615926886
 20
-34.84490152123669
 10
1136.143226169957
 20
-35.14186875206523
 10
1136.0164466561
 20
-35.41609835269112
 10
1135.889667142243
 20
-35.690327953317
 10
1135.711900215204
 20
-35.96180147755469
 10
1135.483145874983
 20
-36.23051892540418
 10
1135.254391534763
 20
-36.49923637325367
 10
1134.987052125107
 20
-36.7838012603353
 10
1134.681127646017
 20
-37.08421358664909
 10
1134.681127646017
 20
-37.08421358664909
 10
1133.366479208846
 20
-38.39472790923813
 10
1133.366479208846
 20
-38.39472790923813
 10
1133.366479208846
 20
-38.39472790923813
 10
1133.366479208846
 20
-38.42366671131422
 10
1133.366479208846
 20
-38.42366671131422
 10
1133.366479208846
 20
-38.42366671131422
 10
1136.454662801824
 20
-38.42366671131422
 10
1136.454662801824
 20
-38.42366671131422
 10
1136.454662801824
 20
-38.42366671131422
 10
1136.454662801824
 20
-39.05205212782379
 10
1136.454662801824
 20
-39.05205212782379
 97
        0
 97
        1
330
A3
 75
     2
 76
     1
 98
        1
 10
0.0
 20
0.0
450
        0
451
        0
460
0.0
461
0.0
452
        0
462
0.0
453
        0
470

  0
SPLINE
  5
A5
330
9F
100
AcDbEntity
  8
Calque 1
100
AcDbSpline
210
0.0
220
0.0
230
1.0
 70
     9
 71
     3
 72
    83
 73
    79
 74
     0
 42
0.0000000001
 43
0.0000000001
 40
0.0
 40
0.0
 40
0.0
 40
0.0
 40
1.0
 40
1.0
 40
1.0
 40
2.0
 40
2.0
 40
2.0
 40
3.0
 40
3.0
 40
3.0
 40
4.0
 40
4.0
 40
4.0
 40
5.0
 40
5.0
 40
5.0
 40
6.0
 40
6.0
 40
6.0
 40
7.0
 40
7.0
 40
7.0
 40
8.0
 40
8.0
 40
8.0
 40
9.0
 40
9.0
 40
9.0
 40
10.0
 40
10.0
 40
10.0
 40
11.0
 40
11.0
 40
11.0
 40
12.0
 40
12.0
 40
12.0
 40
13.0
 40
13.0
 40
13.0
 40
14.0
 40
14.0
 40
14.0
 40
15.0
 40
15.0
 40
15.0
 40
16.0
 40
16.0
 40
16.0
 40
17.0
 40
17.0
 40
17.0
 40
18.0
 40
18.0
 40
18.0
 40
19.0
 40
19.0
 40
19.0
 40
20.0
 40
20.0
 40
20.0
 40
21.0
 40
21.0
 40
21.0
 40
22.0
 40
22.0
 40
22.0
 40
23.0
 40
23.0
 40
23.0
 40
24.0
 40
24.0
 40
24.0
 40
25.0
 40
25.0
 40
25.0
 40
26.0
 40
26.0
 40
26.0
 40
26.0
 10
1139.245190144876
 20
-35.35615369124777
 30
0.0
 10
1139.655845526718
 20
-35.35615369124777
 30
0.0
 10
1140.01275741899
 20
-35.42574462004981
 30
0.0
 10
1140.315925821692
 20
-35.56492647765391
 30
0.0
 10
1140.619094224394
 20
-35.704108335258
 30
0.0
 10
1140.854049736488
 20
-35.90599093069364
 30
0.0
 10
1141.020792357974
 20
-36.17057426396083
 30
0.0
 10
1141.18753497946
 20
-36.43515759722802
 30
0.0
 10
1141.270906290203
 20
-36.7562404964533
 30
0.0
 10
1141.270906290203
 20
-37.13382296163668
 30
0.0
 10
1141.270906290203
 20
-37.54723441986666
 30
0.0
 10
1141.181333807587
 20
-37.9034572930415
 30
0.0
 10
1141.002188842354
 20
-38.20249158116118
 30
0.0
 10
1140.82304387712
 20
-38.50152586928087
 30
0.0
 10
1140.565350734824
 20
-38.73165824769556
 30
0.0
 10
1140.229109415463
 20
-38.89288871640525
 30
0.0
 10
1139.892868096103
 20
-39.05411918511494
 30
0.0
 10
1139.490480943426
 20
-39.1347344194698
 30
0.0
 10
1139.021947957432
 20
-39.1347344194698
 30
0.0
 10
1138.707755249177
 20
-39.1347344194698
 30
0.0
 10
1138.415611152028
 20
-39.1071736555878
 30
0.0
 10
1138.145515665984
 20
-39.05205212782379
 30
0.0
 10
1137.875420179941
 20
-38.9969306000598
 30
0.0
 10
1137.648043877914
 20
-38.9142483084138
 30
0.0
 10
1137.463386759905
 20
-38.80400525288581
 30
0.0
 10
1137.463386759905
 20
-38.80400525288581
 30
0.0
 10
1137.463386759905
 20
-38.15081514888244
 30
0.0
 10
1137.463386759905
 20
-38.15081514888244
 30
0.0
 10
1137.664580336243
 20
-38.27208250996323
 30
0.0
 10
1137.908493096599
 20
-38.36854518355023
 30
0.0
 10
1138.195125040972
 20
-38.44020316964343
 30
0.0
 10
1138.481756985345
 20
-38.51186115573662
 30
0.0
 10
1138.760120700553
 20
-38.54769014878322
 30
0.0
 10
1139.030216186596
 20
-38.54769014878322
 30
0.0
 10
1139.336140665687
 20
-38.54769014878322
 30
0.0
 10
1139.604169094439
 20
-38.49876979289268
 30
0.0
 10
1139.834301472854
 20
-38.40092908111158
 30
0.0
 10
1140.064433851268
 20
-38.30308836933048
 30
0.0
 10
1140.243578816501
 20
-38.15426024436769
 30
0.0
 10
1140.371736368553
 20
-37.9544447062232
 30
0.0
 10
1140.499893920604
 20
-37.75462916807871
 30
0.0
 10
1140.56397269663
 20
-37.50313719765547
 30
0.0
 10
1140.56397269663
 20
-37.19996879495349
 30
0.0
 10
1140.56397269663
 20
-36.7975816422763
 30
0.0
 10
1140.440638278258
 20
-36.48683402950677
 30
0.0
 10
1140.193969441514
 20
-36.26772595664487
 30
0.0
 10
1139.94730060477
 20
-36.04861788378299
 30
0.0
 10
1139.558004814937
 20
-35.93906384735204
 30
0.0
 10
1139.026082072014
 20
-35.93906384735204
 30
0.0
 10
1138.855205335946
 20
-35.93906384735204
 30
0.0
 10
1138.667792141548
 20
-35.95284422929304
 30
0.0
 10
1138.463842488822
 20
-35.98040499317504
 30
0.0
 10
1138.259892836095
 20
-36.00796575705704
 30
0.0
 10
1138.091772176414
 20
-36.03828259732724
 30
0.0
 10
1137.959480509781
 20
-36.07135551398564
 30
0.0
 10
1137.959480509781
 20
-36.07135551398564
 30
0.0
 10
1137.612214884867
 20
-35.84397921195915
 30
0.0
 10
1137.612214884867
 20
-35.84397921195915
 30
0.0
 10
1137.612214884867
 20
-35.84397921195915
 30
0.0
 10
1137.843725301476
 20
-33.00797660850148
 30
0.0
 10
1137.843725301476
 20
-33.00797660850148
 30
0.0
 10
1137.843725301476
 20
-33.00797660850148
 30
0.0
 10
1140.849226602808
 20
-33.00797660850148
 30
0.0
 10
1140.849226602808
 20
-33.00797660850148
 30
0.0
 10
1140.849226602808
 20
-33.00797660850148
 30
0.0
 10
1140.849226602808
 20
-33.63636202501105
 30
0.0
 10
1140.849226602808
 20
-33.63636202501105
 30
0.0
 10
1140.849226602808
 20
-33.63636202501105
 30
0.0
 10
1138.430769572163
 20
-33.63636202501105
 30
0.0
 10
1138.430769572163
 20
-33.63636202501105
 30
0.0
 10
1138.430769572163
 20
-33.63636202501105
 30
0.0
 10
1138.277807332618
 20
-35.45950655580526
 30
0.0
 10
1138.277807332618
 20
-35.45950655580526
 30
0.0
 10
1138.38253823537
 20
-35.43745794469967
 30
0.0
 10
1138.517585978391
 20
-35.41472031449702
 30
0.0
 10
1138.682950561683
 20
-35.39129366519732
 30
0.0
 10
1138.848315144975
 20
-35.36786701589762
 30
0.0
 10
1139.035728339373
 20
-35.35615369124777
 30
0.0
 10
1139.245190144876
 20
-35.35615369124777
 30
0.0
  0
HATCH
  5
A6
330
9F
100
AcDbEntity
  8
Calque 1
 62
    12
420
 14878227
440
 33554687
100
AcDbHatch
 10
0.0
 20
0.0
 30
0.0
210
0.0
220
0.0
230
1.0
  2
SOLID
 70
     1
 71
     1
 91
        1
 92
        1
 93
        1
 72
     4
 94
        3
 73
     0
 74
     0
 95
       83
 96
       79
 40
0.0
 40
0.0
 40
0.0
 40
0.0
 40
1.0
 40
1.0
 40
1.0
 40
2.0
 40
2.0
 40
2.0
 40
3.0
 40
3.0
 40
3.0
 40
4.0
 40
4.0
 40
4.0
 40
5.0
 40
5.0
 40
5.0
 40
6.0
 40
6.0
 40
6.0
 40
7.0
 40
7.0
 40
7.0
 40
8.0
 40
8.0
 40
8.0
 40
9.0
 40
9.0
 40
9.0
 40
10.0
 40
10.0
 40
10.0
 40
11.0
 40
11.0
 40
11.0
 40
12.0
 40
12.0
 40
12.0
 40
13.0
 40
13.0
 40
13.0
 40
14.0
 40
14.0
 40
14.0
 40
15.0
 40
15.0
 40
15.0
 40
16.0
 40
16.0
 40
16.0
 40
17.0
 40
17.0
 40
17.0
 40
18.0
 40
18.0
 40
18.0
 40
19.0
 40
19.0
 40
19.0
 40
20.0
 40
20.0
 40
20.0
 40
21.0
 40
21.0
 40
21.0
 40
22.0
 40
22.0
 40
22.0
 40
23.0
 40
23.0
 40
23.0
 40
24.0
 40
24.0
 40
24.0
 40
25.0
 40
25.0
 40
25.0
 40
26.0
 40
26.0
 40
26.0
 40
26.0
 10
1139.245190144876
 20
-35.35615369124777
 10
1139.655845526718
 20
-35.35615369124777
 10
1140.01275741899
 20
-35.42574462004981
 10
1140.315925821692
 20
-35.56492647765391
 10
1140.619094224394
 20
-35.704108335258
 10
1140.854049736488
 20
-35.90599093069364
 10
1141.020792357974
 20
-36.17057426396083
 10
1141.18753497946
 20
-36.43515759722802
 10
1141.270906290203
 20
-36.7562404964533
 10
1141.270906290203
 20
-37.13382296163668
 10
1141.270906290203
 20
-37.54723441986666
 10
1141.181333807587
 20
-37.9034572930415
 10
1141.002188842354
 20
-38.20249158116118
 10
1140.82304387712
 20
-38.50152586928087
 10
1140.565350734824
 20
-38.73165824769556
 10
1140.229109415463
 20
-38.89288871640525
 10
1139.892868096103
 20
-39.05411918511494
 10
1139.490480943426
 20
-39.1347344194698
 10
1139.021947957432
 20
-39.1347344194698
 10
1138.707755249177
 20
-39.1347344194698
 10
1138.415611152028
 20
-39.1071736555878
 10
1138.145515665984
 20
-39.05205212782379
 10
1137.875420179941
 20
-38.9969306000598
 10
1137.648043877914
 20
-38.9142483084138
 10
1137.463386759905
 20
-38.80400525288581
 10
1137.463386759905
 20
-38.80400525288581
 10
1137.463386759905
 20
-38.15081514888244
 10
1137.463386759905
 20
-38.15081514888244
 10
1137.664580336243
 20
-38.27208250996323
 10
1137.908493096599
 20
-38.36854518355023
 10
1138.195125040972
 20
-38.44020316964343
 10
1138.481756985345
 20
-38.51186115573662
 10
1138.760120700553
 20
-38.54769014878322
 10
1139.030216186596
 20
-38.54769014878322
 10
1139.336140665687
 20
-38.54769014878322
 10
1139.604169094439
 20
-38.49876979289268
 10
1139.834301472854
 20
-38.40092908111158
 10
1140.064433851268
 20
-38.30308836933048
 10
1140.243578816501
 20
-38.15426024436769
 10
1140.371736368553
 20
-37.9544447062232
 10
1140.499893920604
 20
-37.75462916807871
 10
1140.56397269663
 20
-37.50313719765547
 10
1140.56397269663
 20
-37.19996879495349
 10
1140.56397269663
 20
-36.7975816422763
 10
1140.440638278258
 20
-36.48683402950677
 10
1140.193969441514
 20
-36.26772595664487
 10
1139.94730060477
 20
-36.04861788378299
 10
1139.558004814937
 20
-35.93906384735204
 10
1139.026082072014
 20
-35.93906384735204
 10
1138.855205335946
 20
-35.93906384735204
 10
1138.667792141548
 20
-35.95284422929304
 10
1138.463842488822
 20
-35.98040499317504
 10
1138.259892836095
 20
-36.00796575705704
 10
1138.091772176414
 20
-36.03828259732724
 10
1137.959480509781
 20
-36.07135551398564
 10
1137.959480509781
 20
-36.07135551398564
 10
1137.612214884867
 20
-35.84397921195915
 10
1137.612214884867
 20
-35.84397921195915
 10
1137.612214884867
 20
-35.84397921195915
 10
1137.843725301476
 20
-33.00797660850148
 10
1137.843725301476
 20
-33.00797660850148
 10
1137.843725301476
 20
-33.00797660850148
 10
1140.849226602808
 20
-33.00797660850148
 10
1140.849226602808
 20
-33.00797660850148
 10
1140.849226602808
 20
-33.00797660850148
 10
1140.849226602808
 20
-33.63636202501105
 10
1140.849226602808
 20
-33.63636202501105
 10
1140.849226602808
 20
-33.63636202501105
 10
1138.430769572163
 20
-33.63636202501105
 10
1138.430769572163
 20
-33.63636202501105
 10
1138.430769572163
 20
-33.63636202501105
 10
1138.277807332618
 20
-35.45950655580526
 10
1138.277807332618
 20
-35.45950655580526
 10
1138.38253823537
 20
-35.43745794469967
 10
1138.517585978391
 20
-35.41472031449702
 10
1138.682950561683
 20
-35.39129366519732
 10
1138.848315144975
 20
-35.36786701589762
 10
1139.035728339373
 20
-35.35615369124777
 10
1139.245190144876
 20
-35.35615369124777
 97
        0
 97
        1
330
A5
 75
     2
 76
     1
 98
        1
 10
0.0
 20
0.0
450
        0
451
        0
460
0.0
461
0.0
452
        0
462
0.0
453
        0
470

  0
SPLINE
  5
A7
330
9F
100
AcDbEntity
  8
Calque 1
100
AcDbSpline
210
0.0
220
0.0
230
1.0
 70
     9
 71
     3
 72
    41
 73
    37
 74
     0
 42
0.0000000001
 43
0.0000000001
 40
0.0
 40
0.0
 40
0.0
 40
0.0
 40
1.0
 40
1.0
 40
1.0
 40
2.0
 40
2.0
 40
2.0
 40
3.0
 40
3.0
 40
3.0
 40
4.0
 40
4.0
 40
4.0
 40
5.0
 40
5.0
 40
5.0
 40
6.0
 40
6.0
 40
6.0
 40
7.0
 40
7.0
 40
7.0
 40
8.0
 40
8.0
 40
8.0
 40
9.0
 40
9.0
 40
9.0
 40
10.0
 40
10.0
 40
10.0
 40
11.0
 40
11.0
 40
11.0
 40
12.0
 40
12.0
 40
12.0
 40
12.0
 10
1142.874942748135
 20
-36.02174613899804
 30
0.0
 10
1142.874942748135
 20
-36.58398572219081
 30
0.0
 10
1142.917661932153
 20
-37.05251870818479
 30
0.0
 10
1143.003100300187
 20
-37.42734509697997
 30
0.0
 10
1143.088538668221
 20
-37.80217148577516
 30
0.0
 10
1143.227031506728
 20
-38.08260225827449
 30
0.0
 10
1143.418578815708
 20
-38.26863741447798
 30
0.0
 10
1143.610126124688
 20
-38.45467257068147
 30
0.0
 10
1143.861618095111
 20
-38.54769014878322
 30
0.0
 10
1144.173054726977
 20
-38.54769014878322
 30
0.0
 10
1144.484491358844
 20
-38.54769014878322
 30
0.0
 10
1144.735983329267
 20
-38.45536158977852
 30
0.0
 10
1144.927530638247
 20
-38.27070447176913
 30
0.0
 10
1145.119077947227
 20
-38.08604735375974
 30
0.0
 10
1145.258259804831
 20
-37.80630560035746
 30
0.0
 10
1145.345076211059
 20
-37.43147921156227
 30
0.0
 10
1145.431892617288
 20
-37.05665282276709
 30
0.0
 10
1145.475300820402
 20
-36.58674179857901
 30
0.0
 10
1145.475300820402
 20
-36.02174613899804
 30
0.0
 10
1145.475300820402
 20
-35.46777478496986
 30
0.0
 10
1145.432581636385
 20
-35.00406493265523
 30
0.0
 10
1145.347143268351
 20
-34.63061658205415
 30
0.0
 10
1145.261704900316
 20
-34.25716823145307
 30
0.0
 10
1145.123901080906
 20
-33.97604843985668
 30
0.0
 10
1144.933731810121
 20
-33.787257207265
 30
0.0
 10
1144.743562539335
 20
-33.5984659746733
 30
0.0
 10
1144.490003511621
 20
-33.50407035837746
 30
0.0
 10
1144.173054726977
 20
-33.50407035837746
 30
0.0
 10
1143.856105942334
 20
-33.50407035837746
 30
0.0
 10
1143.60254691462
 20
-33.5984659746733
 30
0.0
 10
1143.412377643834
 20
-33.787257207265
 30
0.0
 10
1143.222208373048
 20
-33.97604843985668
 30
0.0
 10
1143.085093572736
 20
-34.25716823145307
 30
0.0
 10
1143.001033242895
 20
-34.63061658205415
 30
0.0
 10
1142.916972913055
 20
-35.00406493265523
 30
0.0
 10
1142.874942748135
 20
-35.46777478496986
 30
0.0
 10
1142.874942748135
 20
-36.02174613899804
 30
0.0
  0
SPLINE
  5
A8
330
9F
100
AcDbEntity
  8
Calque 1
100
AcDbSpline
210
0.0
220
0.0
230
1.0
 70
     9
 71
     3
 72
    44
 73
    40
 74
     0
 42
0.0000000001
 43
0.0000000001
 40
0.0
 40
0.0
 40
0.0
 40
0.0
 40
1.0
 40
1.0
 40
1.0
 40
2.0
 40
2.0
 40
2.0
 40
3.0
 40
3.0
 40
3.0
 40
4.0
 40
4.0
 40
4.0
 40
5.0
 40
5.0
 40
5.0
 40
6.0
 40
6.0
 40
6.0
 40
7.0
 40
7.0
 40
7.0
 40
8.0
 40
8.0
 40
8.0
 40
9.0
 40
9.0
 40
9.0
 40
10.0
 40
10.0
 40
10.0
 40
11.0
 40
11.0
 40
11.0
 40
12.0
 40
12.0
 40
12.0
 40
13.0
 40
13.0
 40
13.0
 40
13.0
 10
1146.169832070228
 20
-36.02174613899804
 30
0.0
 10
1146.169832070228
 20
-36.51232773609762
 30
0.0
 10
1146.132625038988
 20
-36.9505438818214
 30
0.0
 10
1146.058210976506
 20
-37.33639457616938
 30
0.0
 10
1145.983796914025
 20
-37.72224527051736
 30
0.0
 10
1145.866663667526
 20
-38.04884032251904
 30
0.0
 10
1145.706811237011
 20
-38.31617973217443
 30
0.0
 10
1145.546958806495
 20
-38.58351914182982
 30
0.0
 10
1145.34025307738
 20
-38.78677977545956
 30
0.0
 10
1145.086694049666
 20
-38.92596163306365
 30
0.0
 10
1144.833135021951
 20
-39.06514349066775
 30
0.0
 10
1144.528588581055
 20
-39.1347344194698
 30
0.0
 10
1144.173054726977
 20
-39.1347344194698
 30
0.0
 10
1143.723814275701
 20
-39.1347344194698
 30
0.0
 10
1143.352432982391
 20
-39.0120890201949
 30
0.0
 10
1143.058910847048
 20
-38.76679822164511
 30
0.0
 10
1142.765388711704
 20
-38.52150742309532
 30
0.0
 10
1142.546280638843
 20
-38.16666258811459
 30
0.0
 10
1142.401586628462
 20
-37.70226371670291
 30
0.0
 10
1142.256892618081
 20
-37.23786484529123
 30
0.0
 10
1142.184545612891
 20
-36.67769231938961
 30
0.0
 10
1142.184545612891
 20
-36.02174613899804
 30
0.0
 10
1142.184545612891
 20
-35.37682426415927
 30
0.0
 10
1142.250002427111
 20
-34.82216389103405
 30
0.0
 10
1142.38091605555
 20
-34.35776501962236
 30
0.0
 10
1142.51182968399
 20
-33.89336614821069
 30
0.0
 10
1142.723358546784
 20
-33.53645425593881
 30
0.0
 10
1143.015502643933
 20
-33.28702934280672
 30
0.0
 10
1143.307646741082
 20
-33.03760442967463
 30
0.0
 10
1143.693497435431
 20
-32.91289197310859
 30
0.0
 10
1144.173054726977
 20
-32.91289197310859
 30
0.0
 10
1144.62780733103
 20
-32.91289197310859
 30
0.0
 10
1145.002633719826
 20
-33.03622639148052
 30
0.0
 10
1145.297533893363
 20
-33.28289522822442
 30
0.0
 10
1145.5924340669
 20
-33.52956406496831
 30
0.0
 10
1145.811542139762
 20
-33.88509791904609
 30
0.0
 10
1145.954858111949
 20
-34.34949679045776
 30
0.0
 10
1146.098174084135
 20
-34.81389566186944
 30
0.0
 10
1146.169832070228
 20
-35.37131211138287
 30
0.0
 10
1146.169832070228
 20
-36.02174613899804
 30
0.0
  0
HATCH
  5
A9
330
9F
100
AcDbEntity
  8
Calque 1
 62
    12
420
 14878227
440
 33554687
100
AcDbHatch
 10
0.0
 20
0.0
 30
0.0
210
0.0
220
0.0
230
1.0
  2
SOLID
 70
     1
 71
     1
 91
        2
 92
        1
 93
        1
 72
     4
 94
        3
 73
     0
 74
     0
 95
       41
 96
       37
 40
0.0
 40
0.0
 40
0.0
 40
0.0
 40
1.0
 40
1.0
 40
1.0
 40
2.0
 40
2.0
 40
2.0
 40
3.0
 40
3.0
 40
3.0
 40
4.0
 40
4.0
 40
4.0
 40
5.0
 40
5.0
 40
5.0
 40
6.0
 40
6.0
 40
6.0
 40
7.0
 40
7.0
 40
7.0
 40
8.0
 40
8.0
 40
8.0
 40
9.0
 40
9.0
 40
9.0
 40
10.0
 40
10.0
 40
10.0
 40
11.0
 40
11.0
 40
11.0
 40
12.0
 40
12.0
 40
12.0
 40
12.0
 10
1142.874942748135
 20
-36.02174613899804
 10
1142.874942748135
 20
-36.58398572219081
 10
1142.917661932153
 20
-37.05251870818479
 10
1143.003100300187
 20
-37.42734509697997
 10
1143.088538668221
 20
-37.80217148577516
 10
1143.227031506728
 20
-38.08260225827449
 10
1143.418578815708
 20
-38.26863741447798
 10
1143.610126124688
 20
-38.45467257068147
 10
1143.861618095111
 20
-38.54769014878322
 10
1144.173054726977
 20
-38.54769014878322
 10
1144.484491358844
 20
-38.54769014878322
 10
1144.735983329267
 20
-38.45536158977852
 10
1144.927530638247
 20
-38.27070447176913
 10
1145.119077947227
 20
-38.08604735375974
 10
1145.258259804831
 20
-37.80630560035746
 10
1145.345076211059
 20
-37.43147921156227
 10
1145.431892617288
 20
-37.05665282276709
 10
1145.475300820402
 20
-36.58674179857901
 10
1145.475300820402
 20
-36.02174613899804
 10
1145.475300820402
 20
-35.46777478496986
 10
1145.432581636385
 20
-35.00406493265523
 10
1145.347143268351
 20
-34.63061658205415
 10
1145.261704900316
 20
-34.25716823145307
 10
1145.123901080906
 20
-33.97604843985668
 10
1144.933731810121
 20
-33.787257207265
 10
1144.743562539335
 20
-33.5984659746733
 10
1144.490003511621
 20
-33.50407035837746
 10
1144.173054726977
 20
-33.50407035837746
 10
1143.856105942334
 20
-33.50407035837746
 10
1143.60254691462
 20
-33.5984659746733
 10
1143.412377643834
 20
-33.787257207265
 10
1143.222208373048
 20
-33.97604843985668
 10
1143.085093572736
 20
-34.25716823145307
 10
1143.001033242895
 20
-34.63061658205415
 10
1142.916972913055
 20
-35.00406493265523
 10
1142.874942748135
 20
-35.46777478496986
 10
1142.874942748135
 20
-36.02174613899804
 97
        0
 97
        1
330
A7
 92
        1
 93
        1
 72
     4
 94
        3
 73
     0
 74
     0
 95
       44
 96
       40
 40
0.0
 40
0.0
 40
0.0
 40
0.0
 40
1.0
 40
1.0
 40
1.0
 40
2.0
 40
2.0
 40
2.0
 40
3.0
 40
3.0
 40
3.0
 40
4.0
 40
4.0
 40
4.0
 40
5.0
 40
5.0
 40
5.0
 40
6.0
 40
6.0
 40
6.0
 40
7.0
 40
7.0
 40
7.0
 40
8.0
 40
8.0
 40
8.0
 40
9.0
 40
9.0
 40
9.0
 40
10.0
 40
10.0
 40
10.0
 40
11.0
 40
11.0
 40
11.0
 40
12.0
 40
12.0
 40
12.0
 40
13.0
 40
13.0
 40
13.0
 40
13.0
 10
1146.169832070228
 20
-36.02174613899804
 10
1146.169832070228
 20
-36.51232773609762
 10
1146.132625038988
 20
-36.9505438818214
 10
1146.058210976506
 20
-37.33639457616938
 10
1145.983796914025
 20
-37.72224527051736
 10
1145.866663667526
 20
-38.04884032251904
 10
1145.706811237011
 20
-38.31617973217443
 10
1145.546958806495
 20
-38.58351914182982
 10
1145.34025307738
 20
-38.78677977545956
 10
1145.086694049666
 20
-38.92596163306365
 10
1144.833135021951
 20
-39.06514349066775
 10
1144.528588581055
 20
-39.1347344194698
 10
1144.173054726977
 20
-39.1347344194698
 10
1143.723814275701
 20
-39.1347344194698
 10
1143.352432982391
 20
-39.0120890201949
 10
1143.058910847048
 20
-38.76679822164511
 10
1142.765388711704
 20
-38.52150742309532
 10
1142.546280638843
 20
-38.16666258811459
 10
1142.401586628462
 20
-37.70226371670291
 10
1142.256892618081
 20
-37.23786484529123
 10
1142.184545612891
 20
-36.67769231938961
 10
1142.184545612891
 20
-36.02174613899804
 10
1142.184545612891
 20
-35.37682426415927
 10
1142.250002427111
 20
-34.82216389103405
 10
1142.38091605555
 20
-34.35776501962236
 10
1142.51182968399
 20
-33.89336614821069
 10
1142.723358546784
 20
-33.53645425593881
 10
1143.015502643933
 20
-33.28702934280672
 10
1143.307646741082
 20
-33.03760442967463
 10
1143.693497435431
 20
-32.91289197310859
 10
1144.173054726977
 20
-32.91289197310859
 10
1144.62780733103
 20
-32.91289197310859
 10
1145.002633719826
 20
-33.03622639148052
 10
1145.297533893363
 20
-33.28289522822442
 10
1145.5924340669
 20
-33.52956406496831
 10
1145.811542139762
 20
-33.88509791904609
 10
1145.954858111949
 20
-34.34949679045776
 10
1146.098174084135
 20
-34.81389566186944
 10
1146.169832070228
 20
-35.37131211138287
 10
1146.169832070228
 20
-36.02174613899804
 97
        0
 97
        1
330
A8
 75
     2
 76
     1
 98
        1
 10
0.0
 20
0.0
450
        0
451
        0
460
0.0
461
0.0
452
        0
462
0.0
453
        0
470

  0
SPLINE
  5
AA
330
9F
100
AcDbEntity
  8
Calque 1
100
AcDbSpline
210
0.0
220
0.0
230
1.0
 70
     9
 71
     3
 72
   101
 73
    97
 74
     0
 42
0.0000000001
 43
0.0000000001
 40
0.0
 40
0.0
 40
0.0
 40
0.0
 40
1.0
 40
1.0
 40
1.0
 40
2.0
 40
2.0
 40
2.0
 40
3.0
 40
3.0
 40
3.0
 40
4.0
 40
4.0
 40
4.0
 40
5.0
 40
5.0
 40
5.0
 40
6.0
 40
6.0
 40
6.0
 40
7.0
 40
7.0
 40
7.0
 40
8.0
 40
8.0
 40
8.0
 40
9.0
 40
9.0
 40
9.0
 40
10.0
 40
10.0
 40
10.0
 40
11.0
 40
11.0
 40
11.0
 40
12.0
 40
12.0
 40
12.0
 40
13.0
 40
13.0
 40
13.0
 40
14.0
 40
14.0
 40
14.0
 40
15.0
 40
15.0
 40
15.0
 40
16.0
 40
16.0
 40
16.0
 40
17.0
 40
17.0
 40
17.0
 40
18.0
 40
18.0
 40
18.0
 40
19.0
 40
19.0
 40
19.0
 40
20.0
 40
20.0
 40
20.0
 40
21.0
 40
21.0
 40
21.0
 40
22.0
 40
22.0
 40
22.0
 40
23.0
 40
23.0
 40
23.0
 40
24.0
 40
24.0
 40
24.0
 40
25.0
 40
25.0
 40
25.0
 40
26.0
 40
26.0
 40
26.0
 40
27.0
 40
27.0
 40
27.0
 40
28.0
 40
28.0
 40
28.0
 40
29.0
 40
29.0
 40
29.0
 40
30.0
 40
30.0
 40
30.0
 40
31.0
 40
31.0
 40
31.0
 40
32.0
 40
32.0
 40
32.0
 40
32.0
 10
1154.44219534941
 20
-34.43838025397722
 30
0.0
 10
1154.941045175674
 20
-34.43838025397722
 30
0.0
 10
1155.317249602664
 20
-34.56860486331966
 30
0.0
 10
1155.570808630378
 20
-34.82905408200455
 30
0.0
 10
1155.824367658092
 20
-35.08950330068943
 30
0.0
 10
1155.95114717195
 20
-35.50773789259876
 30
0.0
 10
1155.95114717195
 20
-36.08375785773254
 30
0.0
 10
1155.95114717195
 20
-36.08375785773254
 30
0.0
 10
1155.95114717195
 20
-39.05205212782379
 30
0.0
 10
1155.95114717195
 20
-39.05205212782379
 30
0.0
 10
1155.95114717195
 20
-39.05205212782379
 30
0.0
 10
1155.273152380452
 20
-39.05205212782379
 30
0.0
 10
1155.273152380452
 20
-39.05205212782379
 30
0.0
 10
1155.273152380452
 20
-39.05205212782379
 30
0.0
 10
1155.273152380452
 20
-36.11683077439094
 30
0.0
 10
1155.273152380452
 20
-36.11683077439094
 30
0.0
 10
1155.273152380452
 20
-35.75027261476035
 30
0.0
 10
1155.193915184292
 20
-35.47535399503742
 30
0.0
 10
1155.03544079197
 20
-35.29207491522213
 30
0.0
 10
1154.876966399648
 20
-35.10879583540683
 30
0.0
 10
1154.642010887555
 20
-35.01715629549919
 30
0.0
 10
1154.330574255688
 20
-35.01715629549919
 30
0.0
 10
1153.892358109964
 20
-35.01715629549919
 30
0.0
 10
1153.574031287127
 20
-35.14393580935638
 30
0.0
 10
1153.375593787177
 20
-35.39749483707077
 30
0.0
 10
1153.177156287226
 20
-35.65105386478516
 30
0.0
 10
1153.077937537251
 20
-36.02450221538624
 30
0.0
 10
1153.077937537251
 20
-36.51783988887402
 30
0.0
 10
1153.077937537251
 20
-36.51783988887402
 30
0.0
 10
1153.077937537251
 20
-39.05205212782379
 30
0.0
 10
1153.077937537251
 20
-39.05205212782379
 30
0.0
 10
1153.077937537251
 20
-39.05205212782379
 30
0.0
 10
1152.395808631172
 20
-39.05205212782379
 30
0.0
 10
1152.395808631172
 20
-39.05205212782379
 30
0.0
 10
1152.395808631172
 20
-39.05205212782379
 30
0.0
 10
1152.395808631172
 20
-36.11683077439094
 30
0.0
 10
1152.395808631172
 20
-36.11683077439094
 30
0.0
 10
1152.395808631172
 20
-35.87153997584115
 30
0.0
 10
1152.360668657222
 20
-35.66759032311435
 30
0.0
 10
1152.290388709323
 20
-35.50498181621056
 30
0.0
 10
1152.220108761424
 20
-35.34237330930678
 30
0.0
 10
1152.115377858673
 20
-35.22041692912893
 30
0.0
 10
1151.976196001068
 20
-35.13911267567703
 30
0.0
 10
1151.837014143464
 20
-35.05780842222514
 30
0.0
 10
1151.661314273717
 20
-35.01715629549919
 30
0.0
 10
1151.449096391825
 20
-35.01715629549919
 30
0.0
 10
1151.148684065511
 20
-35.01715629549919
 30
0.0
 10
1150.907527381544
 20
-35.07916801423368
 30
0.0
 10
1150.725626339923
 20
-35.20319145170268
 30
0.0
 10
1150.543725298301
 20
-35.32721488917167
 30
0.0
 10
1150.412122650765
 20
-35.51118298808401
 30
0.0
 10
1150.330818397313
 20
-35.7550957484397
 30
0.0
 10
1150.249514143861
 20
-35.99900850879539
 30
0.0
 10
1150.208862017135
 20
-36.29873181601212
 30
0.0
 10
1150.208862017135
 20
-36.65426567008991
 30
0.0
 10
1150.208862017135
 20
-36.65426567008991
 30
0.0
 10
1150.208862017135
 20
-39.05205212782379
 30
0.0
 10
1150.208862017135
 20
-39.05205212782379
 30
0.0
 10
1150.208862017135
 20
-39.05205212782379
 30
0.0
 10
1149.522598996473
 20
-39.05205212782379
 30
0.0
 10
1149.522598996473
 20
-39.05205212782379
 30
0.0
 10
1149.522598996473
 20
-39.05205212782379
 30
0.0
 10
1149.522598996473
 20
-34.52106254562321
 30
0.0
 10
1149.522598996473
 20
-34.52106254562321
 30
0.0
 10
1149.522598996473
 20
-34.52106254562321
 30
0.0
 10
1150.076570350502
 20
-34.52106254562321
 30
0.0
 10
1150.076570350502
 20
-34.52106254562321
 30
0.0
 10
1150.076570350502
 20
-34.52106254562321
 30
0.0
 10
1150.179923215059
 20
-35.16185030587968
 30
0.0
 10
1150.179923215059
 20
-35.16185030587968
 30
0.0
 10
1150.179923215059
 20
-35.16185030587968
 30
0.0
 10
1150.2171302463
 20
-35.16185030587968
 30
0.0
 10
1150.2171302463
 20
-35.16185030587968
 30
0.0
 10
1150.30808076711
 20
-35.00475395175229
 30
0.0
 10
1150.422457937221
 20
-34.8724622851187
 30
0.0
 10
1150.560261756631
 20
-34.76497530597889
 30
0.0
 10
1150.698065576041
 20
-34.6574883268391
 30
0.0
 10
1150.85240585378
 20
-34.57618407338721
 30
0.0
 10
1151.023282589848
 20
-34.52106254562321
 30
0.0
 10
1151.194159325917
 20
-34.46594101785921
 30
0.0
 10
1151.376060367538
 20
-34.43838025397722
 30
0.0
 10
1151.568985714712
 20
-34.43838025397722
 30
0.0
 10
1151.913495263237
 20
-34.43838025397722
 30
0.0
 10
1152.202194264901
 20
-34.50245903000286
 30
0.0
 10
1152.435082719704
 20
-34.63061658205415
 30
0.0
 10
1152.667971174506
 20
-34.75877413410545
 30
0.0
 10
1152.836780853284
 20
-34.95376653857059
 30
0.0
 10
1152.941511756035
 20
-35.21559379544958
 30
0.0
 10
1152.941511756035
 20
-35.21559379544958
 30
0.0
 10
1152.978718787276
 20
-35.21559379544958
 30
0.0
 10
1152.978718787276
 20
-35.21559379544958
 30
0.0
 10
1153.127546912239
 20
-34.95376653857059
 30
0.0
 10
1153.331496564966
 20
-34.75877413410545
 30
0.0
 10
1153.590567745456
 20
-34.63061658205415
 30
0.0
 10
1153.849638925947
 20
-34.50245903000286
 30
0.0
 10
1154.133514793932
 20
-34.43838025397722
 30
0.0
 10
1154.44219534941
 20
-34.43838025397722
 30
0.0
  0
HATCH
  5
AB
330
9F
100
AcDbEntity
  8
Calque 1
 62
    12
420
 14878227
440
 33554687
100
AcDbHatch
 10
0.0
 20
0.0
 30
0.0
210
0.0
220
0.0
230
1.0
  2
SOLID
 70
     1
 71
     1
 91
        1
 92
        1
 93
        1
 72
     4
 94
        3
 73
     0
 74
     0
 95
      101
 96
       97
 40
0.0
 40
0.0
 40
0.0
 40
0.0
 40
1.0
 40
1.0
 40
1.0
 40
2.0
 40
2.0
 40
2.0
 40
3.0
 40
3.0
 40
3.0
 40
4.0
 40
4.0
 40
4.0
 40
5.0
 40
5.0
 40
5.0
 40
6.0
 40
6.0
 40
6.0
 40
7.0
 40
7.0
 40
7.0
 40
8.0
 40
8.0
 40
8.0
 40
9.0
 40
9.0
 40
9.0
 40
10.0
 40
10.0
 40
10.0
 40
11.0
 40
11.0
 40
11.0
 40
12.0
 40
12.0
 40
12.0
 40
13.0
 40
13.0
 40
13.0
 40
14.0
 40
14.0
 40
14.0
 40
15.0
 40
15.0
 40
15.0
 40
16.0
 40
16.0
 40
16.0
 40
17.0
 40
17.0
 40
17.0
 40
18.0
 40
18.0
 40
18.0
 40
19.0
 40
19.0
 40
19.0
 40
20.0
 40
20.0
 40
20.0
 40
21.0
 40
21.0
 40
21.0
 40
22.0
 40
22.0
 40
22.0
 40
23.0
 40
23.0
 40
23.0
 40
24.0
 40
24.0
 40
24.0
 40
25.0
 40
25.0
 40
25.0
 40
26.0
 40
26.0
 40
26.0
 40
27.0
 40
27.0
 40
27.0
 40
28.0
 40
28.0
 40
28.0
 40
29.0
 40
29.0
 40
29.0
 40
30.0
 40
30.0
 40
30.0
 40
31.0
 40
31.0
 40
31.0
 40
32.0
 40
32.0
 40
32.0
 40
32.0
 10
1154.44219534941
 20
-34.43838025397722
 10
1154.941045175674
 20
-34.43838025397722
 10
1155.317249602664
 20
-34.56860486331966
 10
1155.570808630378
 20
-34.82905408200455
 10
1155.824367658092
 20
-35.08950330068943
 10
1155.95114717195
 20
-35.50773789259876
 10
1155.95114717195
 20
-36.08375785773254
 10
1155.95114717195
 20
-36.08375785773254
 10
1155.95114717195
 20
-39.05205212782379
 10
1155.95114717195
 20
-39.05205212782379
 10
1155.95114717195
 20
-39.05205212782379
 10
1155.273152380452
 20
-39.05205212782379
 10
1155.273152380452
 20
-39.05205212782379
 10
1155.273152380452
 20
-39.05205212782379
 10
1155.273152380452
 20
-36.11683077439094
 10
1155.273152380452
 20
-36.11683077439094
 10
1155.273152380452
 20
-35.75027261476035
 10
1155.193915184292
 20
-35.47535399503742
 10
1155.03544079197
 20
-35.29207491522213
 10
1154.876966399648
 20
-35.10879583540683
 10
1154.642010887555
 20
-35.01715629549919
 10
1154.330574255688
 20
-35.01715629549919
 10
1153.892358109964
 20
-35.01715629549919
 10
1153.574031287127
 20
-35.14393580935638
 10
1153.375593787177
 20
-35.39749483707077
 10
1153.177156287226
 20
-35.65105386478516
 10
1153.077937537251
 20
-36.02450221538624
 10
1153.077937537251
 20
-36.51783988887402
 10
1153.077937537251
 20
-36.51783988887402
 10
1153.077937537251
 20
-39.05205212782379
 10
1153.077937537251
 20
-39.05205212782379
 10
1153.077937537251
 20
-39.05205212782379
 10
1152.395808631172
 20
-39.05205212782379
 10
1152.395808631172
 20
-39.05205212782379
 10
1152.395808631172
 20
-39.05205212782379
 10
1152.395808631172
 20
-36.11683077439094
 10
1152.395808631172
 20
-36.11683077439094
 10
1152.395808631172
 20
-35.87153997584115
 10
1152.360668657222
 20
-35.66759032311435
 10
1152.290388709323
 20
-35.50498181621056
 10
1152.220108761424
 20
-35.34237330930678
 10
1152.115377858673
 20
-35.22041692912893
 10
1151.976196001068
 20
-35.13911267567703
 10
1151.837014143464
 20
-35.05780842222514
 10
1151.661314273717
 20
-35.01715629549919
 10
1151.449096391825
 20
-35.01715629549919
 10
1151.148684065511
 20
-35.01715629549919
 10
1150.907527381544
 20
-35.07916801423368
 10
1150.725626339923
 20
-35.20319145170268
 10
1150.543725298301
 20
-35.32721488917167
 10
1150.412122650765
 20
-35.51118298808401
 10
1150.330818397313
 20
-35.7550957484397
 10
1150.249514143861
 20
-35.99900850879539
 10
1150.208862017135
 20
-36.29873181601212
 10
1150.208862017135
 20
-36.65426567008991
 10
1150.208862017135
 20
-36.65426567008991
 10
1150.208862017135
 20
-39.05205212782379
 10
1150.208862017135
 20
-39.05205212782379
 10
1150.208862017135
 20
-39.05205212782379
 10
1149.522598996473
 20
-39.05205212782379
 10
1149.522598996473
 20
-39.05205212782379
 10
1149.522598996473
 20
-39.05205212782379
 10
1149.522598996473
 20
-34.52106254562321
 10
1149.522598996473
 20
-34.52106254562321
 10
1149.522598996473
 20
-34.52106254562321
 10
1150.076570350502
 20
-34.52106254562321
 10
1150.076570350502
 20
-34.52106254562321
 10
1150.076570350502
 20
-34.52106254562321
 10
1150.179923215059
 20
-35.16185030587968
 10
1150.179923215059
 20
-35.16185030587968
 10
1150.179923215059
 20
-35.16185030587968
 10
1150.2171302463
 20
-35.16185030587968
 10
1150.2171302463
 20
-35.16185030587968
 10
1150.30808076711
 20
-35.00475395175229
 10
1150.422457937221
 20
-34.8724622851187
 10
1150.560261756631
 20
-34.76497530597889
 10
1150.698065576041
 20
-34.6574883268391
 10
1150.85240585378
 20
-34.57618407338721
 10
1151.023282589848
 20
-34.52106254562321
 10
1151.194159325917
 20
-34.46594101785921
 10
1151.376060367538
 20
-34.43838025397722
 10
1151.568985714712
 20
-34.43838025397722
 10
1151.913495263237
 20
-34.43838025397722
 10
1152.202194264901
 20
-34.50245903000286
 10
1152.435082719704
 20
-34.63061658205415
 10
1152.667971174506
 20
-34.75877413410545
 10
1152.836780853284
 20
-34.95376653857059
 10
1152.941511756035
 20
-35.21559379544958
 10
1152.941511756035
 20
-35.21559379544958
 10
1152.978718787276
 20
-35.21559379544958
 10
1152.978718787276
 20
-35.21559379544958
 10
1153.127546912239
 20
-34.95376653857059
 10
1153.331496564966
 20
-34.75877413410545
 10
1153.590567745456
 20
-34.63061658205415
 10
1153.849638925947
 20
-34.50245903000286
 10
1154.133514793932
 20
-34.43838025397722
 10
1154.44219534941
 20
-34.43838025397722
 97
        0
 97
        1
330
AA
 75
     2
 76
     1
 98
        1
 10
0.0
 20
0.0
450
        0
451
        0
460
0.0
461
0.0
452
        0
462
0.0
453
        0
470

  0
SPLINE
  5
AC
330
9F
100
AcDbEntity
  8
Calque 1
100
AcDbSpline
210
0.0
220
0.0
230
1.0
 70
     9
 71
     3
 72
   101
 73
    97
 74
     0
 42
0.0000000001
 43
0.0000000001
 40
0.0
 40
0.0
 40
0.0
 40
0.0
 40
1.0
 40
1.0
 40
1.0
 40
2.0
 40
2.0
 40
2.0
 40
3.0
 40
3.0
 40
3.0
 40
4.0
 40
4.0
 40
4.0
 40
5.0
 40
5.0
 40
5.0
 40
6.0
 40
6.0
 40
6.0
 40
7.0
 40
7.0
 40
7.0
 40
8.0
 40
8.0
 40
8.0
 40
9.0
 40
9.0
 40
9.0
 40
10.0
 40
10.0
 40
10.0
 40
11.0
 40
11.0
 40
11.0
 40
12.0
 40
12.0
 40
12.0
 40
13.0
 40
13.0
 40
13.0
 40
14.0
 40
14.0
 40
14.0
 40
15.0
 40
15.0
 40
15.0
 40
16.0
 40
16.0
 40
16.0
 40
17.0
 40
17.0
 40
17.0
 40
18.0
 40
18.0
 40
18.0
 40
19.0
 40
19.0
 40
19.0
 40
20.0
 40
20.0
 40
20.0
 40
21.0
 40
21.0
 40
21.0
 40
22.0
 40
22.0
 40
22.0
 40
23.0
 40
23.0
 40
23.0
 40
24.0
 40
24.0
 40
24.0
 40
25.0
 40
25.0
 40
25.0
 40
26.0
 40
26.0
 40
26.0
 40
27.0
 40
27.0
 40
27.0
 40
28.0
 40
28.0
 40
28.0
 40
29.0
 40
29.0
 40
29.0
 40
30.0
 40
30.0
 40
30.0
 40
31.0
 40
31.0
 40
31.0
 40
32.0
 40
32.0
 40
32.0
 40
32.0
 10
1162.280476597451
 20
-34.43838025397722
 30
0.0
 10
1162.779326423715
 20
-34.43838025397722
 30
0.0
 10
1163.155530850704
 20
-34.56860486331966
 30
0.0
 10
1163.409089878419
 20
-34.82905408200455
 30
0.0
 10
1163.662648906133
 20
-35.08950330068943
 30
0.0
 10
1163.78942841999
 20
-35.50773789259876
 30
0.0
 10
1163.78942841999
 20
-36.08375785773254
 30
0.0
 10
1163.78942841999
 20
-36.08375785773254
 30
0.0
 10
1163.78942841999
 20
-39.05205212782379
 30
0.0
 10
1163.78942841999
 20
-39.05205212782379
 30
0.0
 10
1163.78942841999
 20
-39.05205212782379
 30
0.0
 10
1163.111433628493
 20
-39.05205212782379
 30
0.0
 10
1163.111433628493
 20
-39.05205212782379
 30
0.0
 10
1163.111433628493
 20
-39.05205212782379
 30
0.0
 10
1163.111433628493
 20
-36.11683077439094
 30
0.0
 10
1163.111433628493
 20
-36.11683077439094
 30
0.0
 10
1163.111433628493
 20
-35.75027261476035
 30
0.0
 10
1163.032196432332
 20
-35.47535399503742
 30
0.0
 10
1162.873722040011
 20
-35.29207491522213
 30
0.0
 10
1162.715247647689
 20
-35.10879583540683
 30
0.0
 10
1162.480292135595
 20
-35.01715629549919
 30
0.0
 10
1162.168855503729
 20
-35.01715629549919
 30
0.0
 10
1161.730639358005
 20
-35.01715629549919
 30
0.0
 10
1161.412312535168
 20
-35.14393580935638
 30
0.0
 10
1161.213875035217
 20
-35.39749483707077
 30
0.0
 10
1161.015437535267
 20
-35.65105386478516
 30
0.0
 10
1160.916218785292
 20
-36.02450221538624
 30
0.0
 10
1160.916218785292
 20
-36.51783988887402
 30
0.0
 10
1160.916218785292
 20
-36.51783988887402
 30
0.0
 10
1160.916218785292
 20
-39.05205212782379
 30
0.0
 10
1160.916218785292
 20
-39.05205212782379
 30
0.0
 10
1160.916218785292
 20
-39.05205212782379
 30
0.0
 10
1160.234089879212
 20
-39.05205212782379
 30
0.0
 10
1160.234089879212
 20
-39.05205212782379
 30
0.0
 10
1160.234089879212
 20
-39.05205212782379
 30
0.0
 10
1160.234089879212
 20
-36.11683077439094
 30
0.0
 10
1160.234089879212
 20
-36.11683077439094
 30
0.0
 10
1160.234089879212
 20
-35.87153997584115
 30
0.0
 10
1160.198949905263
 20
-35.66759032311435
 30
0.0
 10
1160.128669957363
 20
-35.50498181621056
 30
0.0
 10
1160.058390009464
 20
-35.34237330930678
 30
0.0
 10
1159.953659106713
 20
-35.22041692912893
 30
0.0
 10
1159.814477249109
 20
-35.13911267567703
 30
0.0
 10
1159.675295391505
 20
-35.05780842222514
 30
0.0
 10
1159.499595521757
 20
-35.01715629549919
 30
0.0
 10
1159.287377639866
 20
-35.01715629549919
 30
0.0
 10
1158.986965313552
 20
-35.01715629549919
 30
0.0
 10
1158.745808629584
 20
-35.07916801423368
 30
0.0
 10
1158.563907587963
 20
-35.20319145170268
 30
0.0
 10
1158.382006546342
 20
-35.32721488917167
 30
0.0
 10
1158.250403898805
 20
-35.51118298808401
 30
0.0
 10
1158.169099645353
 20
-35.7550957484397
 30
0.0
 10
1158.087795391901
 20
-35.99900850879539
 30
0.0
 10
1158.047143265175
 20
-36.29873181601212
 30
0.0
 10
1158.047143265175
 20
-36.65426567008991
 30
0.0
 10
1158.047143265175
 20
-36.65426567008991
 30
0.0
 10
1158.047143265175
 20
-39.05205212782379
 30
0.0
 10
1158.047143265175
 20
-39.05205212782379
 30
0.0
 10
1158.047143265175
 20
-39.05205212782379
 30
0.0
 10
1157.360880244514
 20
-39.05205212782379
 30
0.0
 10
1157.360880244514
 20
-39.05205212782379
 30
0.0
 10
1157.360880244514
 20
-39.05205212782379
 30
0.0
 10
1157.360880244514
 20
-34.52106254562321
 30
0.0
 10
1157.360880244514
 20
-34.52106254562321
 30
0.0
 10
1157.360880244514
 20
-34.52106254562321
 30
0.0
 10
1157.914851598542
 20
-34.52106254562321
 30
0.0
 10
1157.914851598542
 20
-34.52106254562321
 30
0.0
 10
1157.914851598542
 20
-34.52106254562321
 30
0.0
 10
1158.018204463099
 20
-35.16185030587968
 30
0.0
 10
1158.018204463099
 20
-35.16185030587968
 30
0.0
 10
1158.018204463099
 20
-35.16185030587968
 30
0.0
 10
1158.05541149434
 20
-35.16185030587968
 30
0.0
 10
1158.05541149434
 20
-35.16185030587968
 30
0.0
 10
1158.146362015151
 20
-35.00475395175229
 30
0.0
 10
1158.260739185261
 20
-34.8724622851187
 30
0.0
 10
1158.398543004671
 20
-34.76497530597889
 30
0.0
 10
1158.536346824081
 20
-34.6574883268391
 30
0.0
 10
1158.69068710182
 20
-34.57618407338721
 30
0.0
 10
1158.861563837889
 20
-34.52106254562321
 30
0.0
 10
1159.032440573957
 20
-34.46594101785921
 30
0.0
 10
1159.214341615578
 20
-34.43838025397722
 30
0.0
 10
1159.407266962752
 20
-34.43838025397722
 30
0.0
 10
1159.751776511277
 20
-34.43838025397722
 30
0.0
 10
1160.040475512941
 20
-34.50245903000286
 30
0.0
 10
1160.273363967744
 20
-34.63061658205415
 30
0.0
 10
1160.506252422547
 20
-34.75877413410545
 30
0.0
 10
1160.675062101324
 20
-34.95376653857059
 30
0.0
 10
1160.779793004076
 20
-35.21559379544958
 30
0.0
 10
1160.779793004076
 20
-35.21559379544958
 30
0.0
 10
1160.817000035316
 20
-35.21559379544958
 30
0.0
 10
1160.817000035316
 20
-35.21559379544958
 30
0.0
 10
1160.965828160279
 20
-34.95376653857059
 30
0.0
 10
1161.169777813006
 20
-34.75877413410545
 30
0.0
 10
1161.428848993497
 20
-34.63061658205415
 30
0.0
 10
1161.687920173988
 20
-34.50245903000286
 30
0.0
 10
1161.971796041972
 20
-34.43838025397722
 30
0.0
 10
1162.280476597451
 20
-34.43838025397722
 30
0.0
  0
HATCH
  5
AD
330
9F
100
AcDbEntity
  8
Calque 1
 62
    12
420
 14878227
440
 33554687
100
AcDbHatch
 10
0.0
 20
0.0
 30
0.0
210
0.0
220
0.0
230
1.0
  2
SOLID
 70
     1
 71
     1
 91
        1
 92
        1
 93
        1
 72
     4
 94
        3
 73
     0
 74
     0
 95
      101
 96
       97
 40
0.0
 40
0.0
 40
0.0
 40
0.0
 40
1.0
 40
1.0
 40
1.0
 40
2.0
 40
2.0
 40
2.0
 40
3.0
 40
3.0
 40
3.0
 40
4.0
 40
4.0
 40
4.0
 40
5.0
 40
5.0
 40
5.0
 40
6.0
 40
6.0
 40
6.0
 40
7.0
 40
7.0
 40
7.0
 40
8.0
 40
8.0
 40
8.0
 40
9.0
 40
9.0
 40
9.0
 40
10.0
 40
10.0
 40
10.0
 40
11.0
 40
11.0
 40
11.0
 40
12.0
 40
12.0
 40
12.0
 40
13.0
 40
13.0
 40
13.0
 40
14.0
 40
14.0
 40
14.0
 40
15.0
 40
15.0
 40
15.0
 40
16.0
 40
16.0
 40
16.0
 40
17.0
 40
17.0
 40
17.0
 40
18.0
 40
18.0
 40
18.0
 40
19.0
 40
19.0
 40
19.0
 40
20.0
 40
20.0
 40
20.0
 40
21.0
 40
21.0
 40
21.0
 40
22.0
 40
22.0
 40
22.0
 40
23.0
 40
23.0
 40
23.0
 40
24.0
 40
24.0
 40
24.0
 40
25.0
 40
25.0
 40
25.0
 40
26.0
 40
26.0
 40
26.0
 40
27.0
 40
27.0
 40
27.0
 40
28.0
 40
28.0
 40
28.0
 40
29.0
 40
29.0
 40
29.0
 40
30.0
 40
30.0
 40
30.0
 40
31.0
 40
31.0
 40
31.0
 40
32.0
 40
32.0
 40
32.0
 40
32.0
 10
1162.280476597451
 20
-34.43838025397722
 10
1162.779326423715
 20
-34.43838025397722
 10
1163.155530850704
 20
-34.56860486331966
 10
1163.409089878419
 20
-34.82905408200455
 10
1163.662648906133
 20
-35.08950330068943
 10
1163.78942841999
 20
-35.50773789259876
 10
1163.78942841999
 20
-36.08375785773254
 10
1163.78942841999
 20
-36.08375785773254
 10
1163.78942841999
 20
-39.05205212782379
 10
1163.78942841999
 20
-39.05205212782379
 10
1163.78942841999
 20
-39.05205212782379
 10
1163.111433628493
 20
-39.05205212782379
 10
1163.111433628493
 20
-39.05205212782379
 10
1163.111433628493
 20
-39.05205212782379
 10
1163.111433628493
 20
-36.11683077439094
 10
1163.111433628493
 20
-36.11683077439094
 10
1163.111433628493
 20
-35.75027261476035
 10
1163.032196432332
 20
-35.47535399503742
 10
1162.873722040011
 20
-35.29207491522213
 10
1162.715247647689
 20
-35.10879583540683
 10
1162.480292135595
 20
-35.01715629549919
 10
1162.168855503729
 20
-35.01715629549919
 10
1161.730639358005
 20
-35.01715629549919
 10
1161.412312535168
 20
-35.14393580935638
 10
1161.213875035217
 20
-35.39749483707077
 10
1161.015437535267
 20
-35.65105386478516
 10
1160.916218785292
 20
-36.02450221538624
 10
1160.916218785292
 20
-36.51783988887402
 10
1160.916218785292
 20
-36.51783988887402
 10
1160.916218785292
 20
-39.05205212782379
 10
1160.916218785292
 20
-39.05205212782379
 10
1160.916218785292
 20
-39.05205212782379
 10
1160.234089879212
 20
-39.05205212782379
 10
1160.234089879212
 20
-39.05205212782379
 10
1160.234089879212
 20
-39.05205212782379
 10
1160.234089879212
 20
-36.11683077439094
 10
1160.234089879212
 20
-36.11683077439094
 10
1160.234089879212
 20
-35.87153997584115
 10
1160.198949905263
 20
-35.66759032311435
 10
1160.128669957363
 20
-35.50498181621056
 10
1160.058390009464
 20
-35.34237330930678
 10
1159.953659106713
 20
-35.22041692912893
 10
1159.814477249109
 20
-35.13911267567703
 10
1159.675295391505
 20
-35.05780842222514
 10
1159.499595521757
 20
-35.01715629549919
 10
1159.287377639866
 20
-35.01715629549919
 10
1158.986965313552
 20
-35.01715629549919
 10
1158.745808629584
 20
-35.07916801423368
 10
1158.563907587963
 20
-35.20319145170268
 10
1158.382006546342
 20
-35.32721488917167
 10
1158.250403898805
 20
-35.51118298808401
 10
1158.169099645353
 20
-35.7550957484397
 10
1158.087795391901
 20
-35.99900850879539
 10
1158.047143265175
 20
-36.29873181601212
 10
1158.047143265175
 20
-36.65426567008991
 10
1158.047143265175
 20
-36.65426567008991
 10
1158.047143265175
 20
-39.05205212782379
 10
1158.047143265175
 20
-39.05205212782379
 10
1158.047143265175
 20
-39.05205212782379
 10
1157.360880244514
 20
-39.05205212782379
 10
1157.360880244514
 20
-39.05205212782379
 10
1157.360880244514
 20
-39.05205212782379
 10
1157.360880244514
 20
-34.52106254562321
 10
1157.360880244514
 20
-34.52106254562321
 10
1157.360880244514
 20
-34.52106254562321
 10
1157.914851598542
 20
-34.52106254562321
 10
1157.914851598542
 20
-34.52106254562321
 10
1157.914851598542
 20
-34.52106254562321
 10
1158.018204463099
 20
-35.16185030587968
 10
1158.018204463099
 20
-35.16185030587968
 10
1158.018204463099
 20
-35.16185030587968
 10
1158.05541149434
 20
-35.16185030587968
 10
1158.05541149434
 20
-35.16185030587968
 10
1158.146362015151
 20
-35.00475395175229
 10
1158.260739185261
 20
-34.8724622851187
 10
1158.398543004671
 20
-34.76497530597889
 10
1158.536346824081
 20
-34.6574883268391
 10
1158.69068710182
 20
-34.57618407338721
 10
1158.861563837889
 20
-34.52106254562321
 10
1159.032440573957
 20
-34.46594101785921
 10
1159.214341615578
 20
-34.43838025397722
 10
1159.407266962752
 20
-34.43838025397722
 10
1159.751776511277
 20
-34.43838025397722
 10
1160.040475512941
 20
-34.50245903000286
 10
1160.273363967744
 20
-34.63061658205415
 10
1160.506252422547
 20
-34.75877413410545
 10
1160.675062101324
 20
-34.95376653857059
 10
1160.779793004076
 20
-35.21559379544958
 10
1160.779793004076
 20
-35.21559379544958
 10
1160.817000035316
 20
-35.21559379544958
 10
1160.817000035316
 20
-35.21559379544958
 10
1160.965828160279
 20
-34.95376653857059
 10
1161.169777813006
 20
-34.75877413410545
 10
1161.428848993497
 20
-34.63061658205415
 10
1161.687920173988
 20
-34.50245903000286
 10
1161.971796041972
 20
-34.43838025397722
 10
1162.280476597451
 20
-34.43838025397722
 97
        0
 97
        1
330
AC
 75
     2
 76
     1
 98
        1
 10
0.0
 20
0.0
450
        0
451
        0
460
0.0
461
0.0
452
        0
462
0.0
453
        0
470

  0
ENDBLK
  5
A2
330
9F
100
AcDbEntity
  8
0
100
AcDbBlockEnd
  0
BLOCK
  5
B0
330
AE
100
AcDbEntity
  8
0
100
AcDbBlockBegin
  2
Block_4
 70
     0
 10
0.0
 20
0.0
 30
0.0
  3
Block_4
  1

  0
INSERT
  5
B3
330
AE
100
AcDbEntity
  8
Calque 1
100
AcDbBlockReference
  2
Block_5
 10
0.0
 20
0.0
 30
0.0
  0
ENDBLK
  5
B1
330
AE
100
AcDbEntity
  8
0
100
AcDbBlockEnd
  0
BLOCK
  5
B4
330
B2
100
AcDbEntity
  8
0
100
AcDbBlockBegin
  2
Block_5
 70
     0
 10
0.0
 20
0.0
 30
0.0
  3
Block_5
  1

  0
SPLINE
  5
B6
330
B2
100
AcDbEntity
  8
Calque 1
100
AcDbSpline
210
0.0
220
0.0
230
1.0
 70
    11
 71
     3
 72
    77
 73
    73
 74
     0
 42
0.0000000001
 43
0.0000000001
 40
0.0
 40
0.0
 40
0.0
 40
0.0
 40
1.0
 40
1.0
 40
1.0
 40
2.0
 40
2.0
 40
2.0
 40
3.0
 40
3.0
 40
3.0
 40
4.0
 40
4.0
 40
4.0
 40
5.0
 40
5.0
 40
5.0
 40
6.0
 40
6.0
 40
6.0
 40
7.0
 40
7.0
 40
7.0
 40
8.0
 40
8.0
 40
8.0
 40
9.0
 40
9.0
 40
9.0
 40
10.0
 40
10.0
 40
10.0
 40
11.0
 40
11.0
 40
11.0
 40
12.0
 40
12.0
 40
12.0
 40
13.0
 40
13.0
 40
13.0
 40
14.0
 40
14.0
 40
14.0
 40
15.0
 40
15.0
 40
15.0
 40
16.0
 40
16.0
 40
16.0
 40
17.0
 40
17.0
 40
17.0
 40
18.0
 40
18.0
 40
18.0
 40
19.0
 40
19.0
 40
19.0
 40
20.0
 40
20.0
 40
20.0
 40
21.0
 40
21.0
 40
21.0
 40
22.0
 40
22.0
 40
22.0
 40
23.0
 40
23.0
 40
23.0
 40
24.0
 40
24.0
 40
24.0
 40
24.0
 10
833.3713539583239
 20
-37.19083929191757
 30
0.0
 10
833.3713539583239
 20
-37.19083929191757
 30
0.0
 10
829.4108721884807
 20
-37.19083929191757
 30
0.0
 10
829.4108721884807
 20
-37.19083929191757
 30
0.0
 10
829.4108721884807
 20
-37.19083929191757
 30
0.0
 10
829.4108721884807
 20
-36.6161973649779
 30
0.0
 10
829.4108721884807
 20
-36.6161973649779
 30
0.0
 10
829.4108721884807
 20
-36.6161973649779
 30
0.0
 10
831.0273109901599
 20
-34.97495387580487
 30
0.0
 10
831.0273109901599
 20
-34.97495387580487
 30
0.0
 10
831.3277233164736
 20
-34.67178547310289
 30
0.0
 10
831.580593325091
 20
-34.4016899870593
 30
0.0
 10
831.7859210160118
 20
-34.16466741767411
 30
0.0
 10
831.9912487069327
 20
-33.92764484828892
 30
0.0
 10
832.1476560419631
 20
-33.69406737438899
 30
0.0
 10
832.2551430211028
 20
-33.4639349959743
 30
0.0
 10
832.3626300002427
 20
-33.23380261755961
 30
0.0
 10
832.4163734898126
 20
-32.98093260894227
 30
0.0
 10
832.4163734898126
 20
-32.70532497012228
 30
0.0
 10
832.4163734898126
 20
-32.3635714979855
 30
0.0
 10
832.3150876825462
 20
-32.10243326020356
 30
0.0
 10
832.1125160680136
 20
-31.92191025677647
 30
0.0
 10
831.9099444534808
 20
-31.74138725334938
 30
0.0
 10
831.6432940629225
 20
-31.65112575163583
 30
0.0
 10
831.3125648963385
 20
-31.65112575163583
 30
0.0
 10
831.0231768755777
 20
-31.65112575163583
 30
0.0
 10
830.766861771475
 20
-31.70073512662343
 30
0.0
 10
830.5436195840307
 20
-31.79995387659863
 30
0.0
 10
830.3203773965867
 20
-31.89917262657382
 30
0.0
 10
830.0916230563661
 20
-32.03973252237201
 30
0.0
 10
829.857356563369
 20
-32.2216335639932
 30
0.0
 10
829.857356563369
 20
-32.2216335639932
 30
0.0
 10
829.4894203655443
 20
-31.75861273077563
 30
0.0
 10
829.4894203655443
 20
-31.75861273077563
 30
0.0
 10
829.6492727960599
 20
-31.62356498775383
 30
0.0
 10
829.8235946276136
 20
-31.50367566486714
 30
0.0
 10
830.0123858602052
 20
-31.39894476211555
 30
0.0
 10
830.2011770927968
 20
-31.29421385936395
 30
0.0
 10
830.4037487073296
 20
-31.21153156771795
 30
0.0
 10
830.6201007038033
 20
-31.15089788717755
 30
0.0
 10
830.8364527002771
 20
-31.09026420663716
 30
0.0
 10
831.0672740977887
 20
-31.05994736636696
 30
0.0
 10
831.3125648963385
 20
-31.05994736636696
 30
0.0
 10
831.6846352087456
 20
-31.05994736636696
 30
0.0
 10
832.0057181079707
 20
-31.12471516148966
 30
0.0
 10
832.2758135940144
 20
-31.25425075173505
 30
0.0
 10
832.5459090800579
 20
-31.38378634198045
 30
0.0
 10
832.7546818664641
 20
-31.56844345998984
 30
0.0
 10
832.9021319532328
 20
-31.80822210576323
 30
0.0
 10
833.0495820400015
 20
-32.04800075153662
 30
0.0
 10
833.1233070833858
 20
-32.3332546577153
 30
0.0
 10
833.1233070833858
 20
-32.66398382429929
 30
0.0
 10
833.1233070833858
 20
-32.98368868533047
 30
0.0
 10
833.0599173264571
 20
-33.28065591615901
 30
0.0
 10
832.9331378126001
 20
-33.55488551678489
 30
0.0
 10
832.8063582987429
 20
-33.82911511741078
 30
0.0
 10
832.628591371704
 20
-34.10058864164847
 30
0.0
 10
832.3998370314834
 20
-34.36930608949796
 30
0.0
 10
832.1710826912628
 20
-34.63802353734744
 30
0.0
 10
831.9037432816074
 20
-34.92258842442908
 30
0.0
 10
831.5978188025173
 20
-35.22300075074286
 30
0.0
 10
831.5978188025173
 20
-35.22300075074286
 30
0.0
 10
830.2831703653458
 20
-36.5335150733319
 30
0.0
 10
830.2831703653458
 20
-36.5335150733319
 30
0.0
 10
830.2831703653458
 20
-36.5335150733319
 30
0.0
 10
830.2831703653458
 20
-36.562453875408
 30
0.0
 10
830.2831703653458
 20
-36.562453875408
 30
0.0
 10
830.2831703653458
 20
-36.562453875408
 30
0.0
 10
833.3713539583239
 20
-36.562453875408
 30
0.0
 10
833.3713539583239
 20
-36.562453875408
 30
0.0
 10
833.3713539583239
 20
-36.562453875408
 30
0.0
 10
833.3713539583239
 20
-37.19083929191757
 30
0.0
 10
833.3713539583239
 20
-37.19083929191757
 30
0.0
  0
HATCH
  5
B7
330
B2
100
AcDbEntity
  8
Calque 1
 62
    12
420
 14878227
440
 33554687
100
AcDbHatch
 10
0.0
 20
0.0
 30
0.0
210
0.0
220
0.0
230
1.0
  2
SOLID
 70
     1
 71
     1
 91
        1
 92
        1
 93
        1
 72
     4
 94
        3
 73
     0
 74
     0
 95
       77
 96
       73
 40
0.0
 40
0.0
 40
0.0
 40
0.0
 40
1.0
 40
1.0
 40
1.0
 40
2.0
 40
2.0
 40
2.0
 40
3.0
 40
3.0
 40
3.0
 40
4.0
 40
4.0
 40
4.0
 40
5.0
 40
5.0
 40
5.0
 40
6.0
 40
6.0
 40
6.0
 40
7.0
 40
7.0
 40
7.0
 40
8.0
 40
8.0
 40
8.0
 40
9.0
 40
9.0
 40
9.0
 40
10.0
 40
10.0
 40
10.0
 40
11.0
 40
11.0
 40
11.0
 40
12.0
 40
12.0
 40
12.0
 40
13.0
 40
13.0
 40
13.0
 40
14.0
 40
14.0
 40
14.0
 40
15.0
 40
15.0
 40
15.0
 40
16.0
 40
16.0
 40
16.0
 40
17.0
 40
17.0
 40
17.0
 40
18.0
 40
18.0
 40
18.0
 40
19.0
 40
19.0
 40
19.0
 40
20.0
 40
20.0
 40
20.0
 40
21.0
 40
21.0
 40
21.0
 40
22.0
 40
22.0
 40
22.0
 40
23.0
 40
23.0
 40
23.0
 40
24.0
 40
24.0
 40
24.0
 40
24.0
 10
833.3713539583239
 20
-37.19083929191757
 10
833.3713539583239
 20
-37.19083929191757
 10
829.4108721884807
 20
-37.19083929191757
 10
829.4108721884807
 20
-37.19083929191757
 10
829.4108721884807
 20
-37.19083929191757
 10
829.4108721884807
 20
-36.6161973649779
 10
829.4108721884807
 20
-36.6161973649779
 10
829.4108721884807
 20
-36.6161973649779
 10
831.0273109901599
 20
-34.97495387580487
 10
831.0273109901599
 20
-34.97495387580487
 10
831.3277233164736
 20
-34.67178547310289
 10
831.580593325091
 20
-34.4016899870593
 10
831.7859210160118
 20
-34.16466741767411
 10
831.9912487069327
 20
-33.92764484828892
 10
832.1476560419631
 20
-33.69406737438899
 10
832.2551430211028
 20
-33.4639349959743
 10
832.3626300002427
 20
-33.23380261755961
 10
832.4163734898126
 20
-32.98093260894227
 10
832.4163734898126
 20
-32.70532497012228
 10
832.4163734898126
 20
-32.3635714979855
 10
832.3150876825462
 20
-32.10243326020356
 10
832.1125160680136
 20
-31.92191025677647
 10
831.9099444534808
 20
-31.74138725334938
 10
831.6432940629225
 20
-31.65112575163583
 10
831.3125648963385
 20
-31.65112575163583
 10
831.0231768755777
 20
-31.65112575163583
 10
830.766861771475
 20
-31.70073512662343
 10
830.5436195840307
 20
-31.79995387659863
 10
830.3203773965867
 20
-31.89917262657382
 10
830.0916230563661
 20
-32.03973252237201
 10
829.857356563369
 20
-32.2216335639932
 10
829.857356563369
 20
-32.2216335639932
 10
829.4894203655443
 20
-31.75861273077563
 10
829.4894203655443
 20
-31.75861273077563
 10
829.6492727960599
 20
-31.62356498775383
 10
829.8235946276136
 20
-31.50367566486714
 10
830.0123858602052
 20
-31.39894476211555
 10
830.2011770927968
 20
-31.29421385936395
 10
830.4037487073296
 20
-31.21153156771795
 10
830.6201007038033
 20
-31.15089788717755
 10
830.8364527002771
 20
-31.09026420663716
 10
831.0672740977887
 20
-31.05994736636696
 10
831.3125648963385
 20
-31.05994736636696
 10
831.6846352087456
 20
-31.05994736636696
 10
832.0057181079707
 20
-31.12471516148966
 10
832.2758135940144
 20
-31.25425075173505
 10
832.5459090800579
 20
-31.38378634198045
 10
832.7546818664641
 20
-31.56844345998984
 10
832.9021319532328
 20
-31.80822210576323
 10
833.0495820400015
 20
-32.04800075153662
 10
833.1233070833858
 20
-32.3332546577153
 10
833.1233070833858
 20
-32.66398382429929
 10
833.1233070833858
 20
-32.98368868533047
 10
833.0599173264571
 20
-33.28065591615901
 10
832.9331378126001
 20
-33.55488551678489
 10
832.8063582987429
 20
-33.82911511741078
 10
832.628591371704
 20
-34.10058864164847
 10
832.3998370314834
 20
-34.36930608949796
 10
832.1710826912628
 20
-34.63802353734744
 10
831.9037432816074
 20
-34.92258842442908
 10
831.5978188025173
 20
-35.22300075074286
 10
831.5978188025173
 20
-35.22300075074286
 10
830.2831703653458
 20
-36.5335150733319
 10
830.2831703653458
 20
-36.5335150733319
 10
830.2831703653458
 20
-36.5335150733319
 10
830.2831703653458
 20
-36.562453875408
 10
830.2831703653458
 20
-36.562453875408
 10
830.2831703653458
 20
-36.562453875408
 10
833.3713539583239
 20
-36.562453875408
 10
833.3713539583239
 20
-36.562453875408
 10
833.3713539583239
 20
-36.562453875408
 10
833.3713539583239
 20
-37.19083929191757
 10
833.3713539583239
 20
-37.19083929191757
 97
        0
 97
        1
330
B6
 75
     2
 76
     1
 98
        1
 10
0.0
 20
0.0
450
        0
451
        0
460
0.0
461
0.0
452
        0
462
0.0
453
        0
470

  0
SPLINE
  5
B8
330
B2
100
AcDbEntity
  8
Calque 1
100
AcDbSpline
210
0.0
220
0.0
230
1.0
 70
    11
 71
     3
 72
    41
 73
    37
 74
     0
 42
0.0000000001
 43
0.0000000001
 40
0.0
 40
0.0
 40
0.0
 40
0.0
 40
1.0
 40
1.0
 40
1.0
 40
2.0
 40
2.0
 40
2.0
 40
3.0
 40
3.0
 40
3.0
 40
4.0
 40
4.0
 40
4.0
 40
5.0
 40
5.0
 40
5.0
 40
6.0
 40
6.0
 40
6.0
 40
7.0
 40
7.0
 40
7.0
 40
8.0
 40
8.0
 40
8.0
 40
9.0
 40
9.0
 40
9.0
 40
10.0
 40
10.0
 40
10.0
 40
11.0
 40
11.0
 40
11.0
 40
12.0
 40
12.0
 40
12.0
 40
12.0
 10
836.8068031762149
 20
-37.19083929191757
 30
0.0
 10
836.8068031762149
 20
-37.19083929191757
 30
0.0
 10
836.1370766138824
 20
-37.19083929191757
 30
0.0
 10
836.1370766138824
 20
-37.19083929191757
 30
0.0
 10
836.1370766138824
 20
-37.19083929191757
 30
0.0
 10
836.1370766138824
 20
-32.90789658465497
 30
0.0
 10
836.1370766138824
 20
-32.90789658465497
 30
0.0
 10
836.1370766138824
 20
-32.74528807775118
 30
0.0
 10
836.1377656329795
 20
-32.60541720105004
 30
0.0
 10
836.1391436711736
 20
-32.48828395455154
 30
0.0
 10
836.1405217093677
 20
-32.37115070805304
 30
0.0
 10
836.1432777857558
 20
-32.26366372891325
 30
0.0
 10
836.1474119003382
 20
-32.16582301713216
 30
0.0
 10
836.1515460149204
 20
-32.06798230535106
 30
0.0
 10
836.1577471867938
 20
-31.96807453627882
 30
0.0
 10
836.1660154159585
 20
-31.86609970991542
 30
0.0
 10
836.0805770479242
 20
-31.95429415433782
 30
0.0
 10
836.0006508326666
 20
-32.02939723591626
 30
0.0
 10
835.9262367701852
 20
-32.09140895465076
 30
0.0
 10
835.8518227077038
 20
-32.15342067338526
 30
0.0
 10
835.759494148699
 20
-32.2299017931578
 30
0.0
 10
835.649251093171
 20
-32.3208523139684
 30
0.0
 10
835.649251093171
 20
-32.3208523139684
 30
0.0
 10
834.9588539579269
 20
-32.87482366799657
 30
0.0
 10
834.9588539579269
 20
-32.87482366799657
 30
0.0
 10
834.9588539579269
 20
-32.87482366799657
 30
0.0
 10
834.5991859892668
 20
-32.4076687201967
 30
0.0
 10
834.5991859892668
 20
-32.4076687201967
 30
0.0
 10
834.5991859892668
 20
-32.4076687201967
 30
0.0
 10
836.2362953638577
 20
-31.14676377259526
 30
0.0
 10
836.2362953638577
 20
-31.14676377259526
 30
0.0
 10
836.2362953638577
 20
-31.14676377259526
 30
0.0
 10
836.8068031762149
 20
-31.14676377259526
 30
0.0
 10
836.8068031762149
 20
-31.14676377259526
 30
0.0
 10
836.8068031762149
 20
-31.14676377259526
 30
0.0
 10
836.8068031762149
 20
-37.19083929191757
 30
0.0
 10
836.8068031762149
 20
-37.19083929191757
 30
0.0
  0
HATCH
  5
B9
330
B2
100
AcDbEntity
  8
Calque 1
 62
    12
420
 14878227
440
 33554687
100
AcDbHatch
 10
0.0
 20
0.0
 30
0.0
210
0.0
220
0.0
230
1.0
  2
SOLID
 70
     1
 71
     1
 91
        1
 92
        1
 93
        1
 72
     4
 94
        3
 73
     0
 74
     0
 95
       41
 96
       37
 40
0.0
 40
0.0
 40
0.0
 40
0.0
 40
1.0
 40
1.0
 40
1.0
 40
2.0
 40
2.0
 40
2.0
 40
3.0
 40
3.0
 40
3.0
 40
4.0
 40
4.0
 40
4.0
 40
5.0
 40
5.0
 40
5.0
 40
6.0
 40
6.0
 40
6.0
 40
7.0
 40
7.0
 40
7.0
 40
8.0
 40
8.0
 40
8.0
 40
9.0
 40
9.0
 40
9.0
 40
10.0
 40
10.0
 40
10.0
 40
11.0
 40
11.0
 40
11.0
 40
12.0
 40
12.0
 40
12.0
 40
12.0
 10
836.8068031762149
 20
-37.19083929191757
 10
836.8068031762149
 20
-37.19083929191757
 10
836.1370766138824
 20
-37.19083929191757
 10
836.1370766138824
 20
-37.19083929191757
 10
836.1370766138824
 20
-37.19083929191757
 10
836.1370766138824
 20
-32.90789658465497
 10
836.1370766138824
 20
-32.90789658465497
 10
836.1370766138824
 20
-32.74528807775118
 10
836.1377656329795
 20
-32.60541720105004
 10
836.1391436711736
 20
-32.48828395455154
 10
836.1405217093677
 20
-32.37115070805304
 10
836.1432777857558
 20
-32.26366372891325
 10
836.1474119003382
 20
-32.16582301713216
 10
836.1515460149204
 20
-32.06798230535106
 10
836.1577471867938
 20
-31.96807453627882
 10
836.1660154159585
 20
-31.86609970991542
 10
836.0805770479242
 20
-31.95429415433782
 10
836.0006508326666
 20
-32.02939723591626
 10
835.9262367701852
 20
-32.09140895465076
 10
835.8518227077038
 20
-32.15342067338526
 10
835.759494148699
 20
-32.2299017931578
 10
835.649251093171
 20
-32.3208523139684
 10
835.649251093171
 20
-32.3208523139684
 10
834.9588539579269
 20
-32.87482366799657
 10
834.9588539579269
 20
-32.87482366799657
 10
834.9588539579269
 20
-32.87482366799657
 10
834.5991859892668
 20
-32.4076687201967
 10
834.5991859892668
 20
-32.4076687201967
 10
834.5991859892668
 20
-32.4076687201967
 10
836.2362953638577
 20
-31.14676377259526
 10
836.2362953638577
 20
-31.14676377259526
 10
836.2362953638577
 20
-31.14676377259526
 10
836.8068031762149
 20
-31.14676377259526
 10
836.8068031762149
 20
-31.14676377259526
 10
836.8068031762149
 20
-31.14676377259526
 10
836.8068031762149
 20
-37.19083929191757
 10
836.8068031762149
 20
-37.19083929191757
 97
        0
 97
        1
330
B8
 75
     2
 76
     1
 98
        1
 10
0.0
 20
0.0
450
        0
451
        0
460
0.0
461
0.0
452
        0
462
0.0
453
        0
470

  0
SPLINE
  5
BA
330
B2
100
AcDbEntity
  8
Calque 1
100
AcDbSpline
210
0.0
220
0.0
230
1.0
 70
     9
 71
     3
 72
    41
 73
    37
 74
     0
 42
0.0000000001
 43
0.0000000001
 40
0.0
 40
0.0
 40
0.0
 40
0.0
 40
1.0
 40
1.0
 40
1.0
 40
2.0
 40
2.0
 40
2.0
 40
3.0
 40
3.0
 40
3.0
 40
4.0
 40
4.0
 40
4.0
 40
5.0
 40
5.0
 40
5.0
 40
6.0
 40
6.0
 40
6.0
 40
7.0
 40
7.0
 40
7.0
 40
8.0
 40
8.0
 40
8.0
 40
9.0
 40
9.0
 40
9.0
 40
10.0
 40
10.0
 40
10.0
 40
11.0
 40
11.0
 40
11.0
 40
12.0
 40
12.0
 40
12.0
 40
12.0
 10
839.7916339046354
 20
-34.16053330309181
 30
0.0
 10
839.7916339046354
 20
-34.72277288628459
 30
0.0
 10
839.8343530886524
 20
-35.19130587227856
 30
0.0
 10
839.9197914566867
 20
-35.56613226107375
 30
0.0
 10
840.0052298247208
 20
-35.94095864986893
 30
0.0
 10
840.143722663228
 20
-36.22138942236827
 30
0.0
 10
840.3352699722079
 20
-36.40742457857176
 30
0.0
 10
840.5268172811878
 20
-36.59345973477524
 30
0.0
 10
840.778309251611
 20
-36.686477312877
 30
0.0
 10
841.0897458834776
 20
-36.686477312877
 30
0.0
 10
841.4011825153442
 20
-36.686477312877
 30
0.0
 10
841.6526744857673
 20
-36.5941487538723
 30
0.0
 10
841.8442217947474
 20
-36.40949163586291
 30
0.0
 10
842.0357691037272
 20
-36.22483451785352
 30
0.0
 10
842.1749509613313
 20
-35.94509276445123
 30
0.0
 10
842.2617673675595
 20
-35.57026637565605
 30
0.0
 10
842.348583773788
 20
-35.19543998686086
 30
0.0
 10
842.3919919769021
 20
-34.72552896267278
 30
0.0
 10
842.3919919769021
 20
-34.16053330309181
 30
0.0
 10
842.3919919769021
 20
-33.60656194906364
 30
0.0
 10
842.3492727928849
 20
-33.14285209674901
 30
0.0
 10
842.2638344248507
 20
-32.76940374614793
 30
0.0
 10
842.1783960568165
 20
-32.39595539554685
 30
0.0
 10
842.0405922374065
 20
-32.11483560395046
 30
0.0
 10
841.8504229666208
 20
-31.92604437135877
 30
0.0
 10
841.6602536958349
 20
-31.73725313876708
 30
0.0
 10
841.4066946681206
 20
-31.64285752247123
 30
0.0
 10
841.0897458834776
 20
-31.64285752247123
 30
0.0
 10
840.7727970988347
 20
-31.64285752247123
 30
0.0
 10
840.5192380711202
 20
-31.73725313876708
 30
0.0
 10
840.3290688003345
 20
-31.92604437135877
 30
0.0
 10
840.1388995295487
 20
-32.11483560395046
 30
0.0
 10
840.0017847292357
 20
-32.39595539554685
 30
0.0
 10
839.9177243993957
 20
-32.76940374614793
 30
0.0
 10
839.8336640695555
 20
-33.14285209674901
 30
0.0
 10
839.7916339046354
 20
-33.60656194906364
 30
0.0
 10
839.7916339046354
 20
-34.16053330309181
 30
0.0
  0
SPLINE
  5
BB
330
B2
100
AcDbEntity
  8
Calque 1
100
AcDbSpline
210
0.0
220
0.0
230
1.0
 70
     9
 71
     3
 72
    44
 73
    40
 74
     0
 42
0.0000000001
 43
0.0000000001
 40
0.0
 40
0.0
 40
0.0
 40
0.0
 40
1.0
 40
1.0
 40
1.0
 40
2.0
 40
2.0
 40
2.0
 40
3.0
 40
3.0
 40
3.0
 40
4.0
 40
4.0
 40
4.0
 40
5.0
 40
5.0
 40
5.0
 40
6.0
 40
6.0
 40
6.0
 40
7.0
 40
7.0
 40
7.0
 40
8.0
 40
8.0
 40
8.0
 40
9.0
 40
9.0
 40
9.0
 40
10.0
 40
10.0
 40
10.0
 40
11.0
 40
11.0
 40
11.0
 40
12.0
 40
12.0
 40
12.0
 40
13.0
 40
13.0
 40
13.0
 40
13.0
 10
843.0865232267285
 20
-34.16053330309181
 30
0.0
 10
843.0865232267285
 20
-34.65111490019139
 30
0.0
 10
843.0493161954876
 20
-35.08933104591517
 30
0.0
 10
842.9749021330064
 20
-35.47518174026315
 30
0.0
 10
842.900488070525
 20
-35.86103243461113
 30
0.0
 10
842.7833548240265
 20
-36.18762748661282
 30
0.0
 10
842.6235023935108
 20
-36.45496689626821
 30
0.0
 10
842.4636499629951
 20
-36.72230630592359
 30
0.0
 10
842.2569442338803
 20
-36.92556693955334
 30
0.0
 10
842.0033852061658
 20
-37.06474879715743
 30
0.0
 10
841.7498261784514
 20
-37.20393065476152
 30
0.0
 10
841.4452797375554
 20
-37.27352158356357
 30
0.0
 10
841.0897458834776
 20
-37.27352158356357
 30
0.0
 10
840.6405054322011
 20
-37.27352158356357
 30
0.0
 10
840.2691241388911
 20
-37.15087618428867
 30
0.0
 10
839.9756020035479
 20
-36.90558538573888
 30
0.0
 10
839.6820798682044
 20
-36.66029458718909
 30
0.0
 10
839.4629717953426
 20
-36.30544975220836
 30
0.0
 10
839.318277784962
 20
-35.84105088079669
 30
0.0
 10
839.1735837745816
 20
-35.37665200938501
 30
0.0
 10
839.1012367693914
 20
-34.81647948348339
 30
0.0
 10
839.1012367693914
 20
-34.16053330309181
 30
0.0
 10
839.1012367693914
 20
-33.51561142825305
 30
0.0
 10
839.1666935836111
 20
-32.96095105512782
 30
0.0
 10
839.2976072120506
 20
-32.49655218371614
 30
0.0
 10
839.4285208404902
 20
-32.03215331230447
 30
0.0
 10
839.6400497032844
 20
-31.67524142003258
 30
0.0
 10
839.9321938004336
 20
-31.42581650690049
 30
0.0
 10
840.2243378975828
 20
-31.17639159376841
 30
0.0
 10
840.6101885919309
 20
-31.05167913720236
 30
0.0
 10
841.0897458834776
 20
-31.05167913720236
 30
0.0
 10
841.5444984875305
 20
-31.05167913720236
 30
0.0
 10
841.9193248763257
 20
-31.1750135555743
 30
0.0
 10
842.214225049863
 20
-31.42168239231819
 30
0.0
 10
842.5091252234006
 20
-31.66835122906208
 30
0.0
 10
842.7282332962624
 20
-32.02388508313987
 30
0.0
 10
842.8715492684487
 20
-32.48828395455154
 30
0.0
 10
843.0148652406352
 20
-32.95268282596322
 30
0.0
 10
843.0865232267285
 20
-33.51009927547664
 30
0.0
 10
843.0865232267285
 20
-34.16053330309181
 30
0.0
  0
HATCH
  5
BC
330
B2
100
AcDbEntity
  8
Calque 1
 62
    12
420
 14878227
440
 33554687
100
AcDbHatch
 10
0.0
 20
0.0
 30
0.0
210
0.0
220
0.0
230
1.0
  2
SOLID
 70
     1
 71
     1
 91
        2
 92
        1
 93
        1
 72
     4
 94
        3
 73
     0
 74
     0
 95
       41
 96
       37
 40
0.0
 40
0.0
 40
0.0
 40
0.0
 40
1.0
 40
1.0
 40
1.0
 40
2.0
 40
2.0
 40
2.0
 40
3.0
 40
3.0
 40
3.0
 40
4.0
 40
4.0
 40
4.0
 40
5.0
 40
5.0
 40
5.0
 40
6.0
 40
6.0
 40
6.0
 40
7.0
 40
7.0
 40
7.0
 40
8.0
 40
8.0
 40
8.0
 40
9.0
 40
9.0
 40
9.0
 40
10.0
 40
10.0
 40
10.0
 40
11.0
 40
11.0
 40
11.0
 40
12.0
 40
12.0
 40
12.0
 40
12.0
 10
839.7916339046354
 20
-34.16053330309181
 10
839.7916339046354
 20
-34.72277288628459
 10
839.8343530886524
 20
-35.19130587227856
 10
839.9197914566867
 20
-35.56613226107375
 10
840.0052298247208
 20
-35.94095864986893
 10
840.143722663228
 20
-36.22138942236827
 10
840.3352699722079
 20
-36.40742457857176
 10
840.5268172811878
 20
-36.59345973477524
 10
840.778309251611
 20
-36.686477312877
 10
841.0897458834776
 20
-36.686477312877
 10
841.4011825153442
 20
-36.686477312877
 10
841.6526744857673
 20
-36.5941487538723
 10
841.8442217947474
 20
-36.40949163586291
 10
842.0357691037272
 20
-36.22483451785352
 10
842.1749509613313
 20
-35.94509276445123
 10
842.2617673675595
 20
-35.57026637565605
 10
842.348583773788
 20
-35.19543998686086
 10
842.3919919769021
 20
-34.72552896267278
 10
842.3919919769021
 20
-34.16053330309181
 10
842.3919919769021
 20
-33.60656194906364
 10
842.3492727928849
 20
-33.14285209674901
 10
842.2638344248507
 20
-32.76940374614793
 10
842.1783960568165
 20
-32.39595539554685
 10
842.0405922374065
 20
-32.11483560395046
 10
841.8504229666208
 20
-31.92604437135877
 10
841.6602536958349
 20
-31.73725313876708
 10
841.4066946681206
 20
-31.64285752247123
 10
841.0897458834776
 20
-31.64285752247123
 10
840.7727970988347
 20
-31.64285752247123
 10
840.5192380711202
 20
-31.73725313876708
 10
840.3290688003345
 20
-31.92604437135877
 10
840.1388995295487
 20
-32.11483560395046
 10
840.0017847292357
 20
-32.39595539554685
 10
839.9177243993957
 20
-32.76940374614793
 10
839.8336640695555
 20
-33.14285209674901
 10
839.7916339046354
 20
-33.60656194906364
 10
839.7916339046354
 20
-34.16053330309181
 97
        0
 97
        1
330
BA
 92
        1
 93
        1
 72
     4
 94
        3
 73
     0
 74
     0
 95
       44
 96
       40
 40
0.0
 40
0.0
 40
0.0
 40
0.0
 40
1.0
 40
1.0
 40
1.0
 40
2.0
 40
2.0
 40
2.0
 40
3.0
 40
3.0
 40
3.0
 40
4.0
 40
4.0
 40
4.0
 40
5.0
 40
5.0
 40
5.0
 40
6.0
 40
6.0
 40
6.0
 40
7.0
 40
7.0
 40
7.0
 40
8.0
 40
8.0
 40
8.0
 40
9.0
 40
9.0
 40
9.0
 40
10.0
 40
10.0
 40
10.0
 40
11.0
 40
11.0
 40
11.0
 40
12.0
 40
12.0
 40
12.0
 40
13.0
 40
13.0
 40
13.0
 40
13.0
 10
843.0865232267285
 20
-34.16053330309181
 10
843.0865232267285
 20
-34.65111490019139
 10
843.0493161954876
 20
-35.08933104591517
 10
842.9749021330064
 20
-35.47518174026315
 10
842.900488070525
 20
-35.86103243461113
 10
842.7833548240265
 20
-36.18762748661282
 10
842.6235023935108
 20
-36.45496689626821
 10
842.4636499629951
 20
-36.72230630592359
 10
842.2569442338803
 20
-36.92556693955334
 10
842.0033852061658
 20
-37.06474879715743
 10
841.7498261784514
 20
-37.20393065476152
 10
841.4452797375554
 20
-37.27352158356357
 10
841.0897458834776
 20
-37.27352158356357
 10
840.6405054322011
 20
-37.27352158356357
 10
840.2691241388911
 20
-37.15087618428867
 10
839.9756020035479
 20
-36.90558538573888
 10
839.6820798682044
 20
-36.66029458718909
 10
839.4629717953426
 20
-36.30544975220836
 10
839.318277784962
 20
-35.84105088079669
 10
839.1735837745816
 20
-35.37665200938501
 10
839.1012367693914
 20
-34.81647948348339
 10
839.1012367693914
 20
-34.16053330309181
 10
839.1012367693914
 20
-33.51561142825305
 10
839.1666935836111
 20
-32.96095105512782
 10
839.2976072120506
 20
-32.49655218371614
 10
839.4285208404902
 20
-32.03215331230447
 10
839.6400497032844
 20
-31.67524142003258
 10
839.9321938004336
 20
-31.42581650690049
 10
840.2243378975828
 20
-31.17639159376841
 10
840.6101885919309
 20
-31.05167913720236
 10
841.0897458834776
 20
-31.05167913720236
 10
841.5444984875305
 20
-31.05167913720236
 10
841.9193248763257
 20
-31.1750135555743
 10
842.214225049863
 20
-31.42168239231819
 10
842.5091252234006
 20
-31.66835122906208
 10
842.7282332962624
 20
-32.02388508313987
 10
842.8715492684487
 20
-32.48828395455154
 10
843.0148652406352
 20
-32.95268282596322
 10
843.0865232267285
 20
-33.51009927547664
 10
843.0865232267285
 20
-34.16053330309181
 97
        0
 97
        1
330
BB
 75
     2
 76
     1
 98
        1
 10
0.0
 20
0.0
450
        0
451
        0
460
0.0
461
0.0
452
        0
462
0.0
453
        0
470

  0
SPLINE
  5
BD
330
B2
100
AcDbEntity
  8
Calque 1
100
AcDbSpline
210
0.0
220
0.0
230
1.0
 70
     9
 71
     3
 72
   101
 73
    97
 74
     0
 42
0.0000000001
 43
0.0000000001
 40
0.0
 40
0.0
 40
0.0
 40
0.0
 40
1.0
 40
1.0
 40
1.0
 40
2.0
 40
2.0
 40
2.0
 40
3.0
 40
3.0
 40
3.0
 40
4.0
 40
4.0
 40
4.0
 40
5.0
 40
5.0
 40
5.0
 40
6.0
 40
6.0
 40
6.0
 40
7.0
 40
7.0
 40
7.0
 40
8.0
 40
8.0
 40
8.0
 40
9.0
 40
9.0
 40
9.0
 40
10.0
 40
10.0
 40
10.0
 40
11.0
 40
11.0
 40
11.0
 40
12.0
 40
12.0
 40
12.0
 40
13.0
 40
13.0
 40
13.0
 40
14.0
 40
14.0
 40
14.0
 40
15.0
 40
15.0
 40
15.0
 40
16.0
 40
16.0
 40
16.0
 40
17.0
 40
17.0
 40
17.0
 40
18.0
 40
18.0
 40
18.0
 40
19.0
 40
19.0
 40
19.0
 40
20.0
 40
20.0
 40
20.0
 40
21.0
 40
21.0
 40
21.0
 40
22.0
 40
22.0
 40
22.0
 40
23.0
 40
23.0
 40
23.0
 40
24.0
 40
24.0
 40
24.0
 40
25.0
 40
25.0
 40
25.0
 40
26.0
 40
26.0
 40
26.0
 40
27.0
 40
27.0
 40
27.0
 40
28.0
 40
28.0
 40
28.0
 40
29.0
 40
29.0
 40
29.0
 40
30.0
 40
30.0
 40
30.0
 40
31.0
 40
31.0
 40
31.0
 40
32.0
 40
32.0
 40
32.0
 40
32.0
 10
851.3588865059102
 20
-32.57716741807099
 30
0.0
 10
851.8577363321744
 20
-32.57716741807099
 30
0.0
 10
852.2339407591639
 20
-32.70739202741343
 30
0.0
 10
852.4874997868781
 20
-32.96784124609832
 30
0.0
 10
852.7410588145924
 20
-33.22829046478321
 30
0.0
 10
852.8678383284496
 20
-33.64652505669254
 30
0.0
 10
852.8678383284496
 20
-34.22254502182631
 30
0.0
 10
852.8678383284496
 20
-34.22254502182631
 30
0.0
 10
852.8678383284496
 20
-37.19083929191757
 30
0.0
 10
852.8678383284496
 20
-37.19083929191757
 30
0.0
 10
852.8678383284496
 20
-37.19083929191757
 30
0.0
 10
852.1898435369525
 20
-37.19083929191757
 30
0.0
 10
852.1898435369525
 20
-37.19083929191757
 30
0.0
 10
852.1898435369525
 20
-37.19083929191757
 30
0.0
 10
852.1898435369525
 20
-34.25561793848471
 30
0.0
 10
852.1898435369525
 20
-34.25561793848471
 30
0.0
 10
852.1898435369525
 20
-33.88905977885413
 30
0.0
 10
852.1106063407918
 20
-33.61414115913119
 30
0.0
 10
851.9521319484702
 20
-33.4308620793159
 30
0.0
 10
851.7936575561488
 20
-33.24758299950061
 30
0.0
 10
851.5587020440548
 20
-33.15594345959296
 30
0.0
 10
851.2472654121882
 20
-33.15594345959296
 30
0.0
 10
850.8090492664644
 20
-33.15594345959296
 30
0.0
 10
850.4907224436273
 20
-33.28272297345016
 30
0.0
 10
850.2922849436769
 20
-33.53628200116455
 30
0.0
 10
850.0938474437266
 20
-33.78984102887893
 30
0.0
 10
849.9946286937513
 20
-34.16328937948001
 30
0.0
 10
849.9946286937513
 20
-34.65662705296779
 30
0.0
 10
849.9946286937513
 20
-34.65662705296779
 30
0.0
 10
849.9946286937513
 20
-37.19083929191757
 30
0.0
 10
849.9946286937513
 20
-37.19083929191757
 30
0.0
 10
849.9946286937513
 20
-37.19083929191757
 30
0.0
 10
849.3124997876718
 20
-37.19083929191757
 30
0.0
 10
849.3124997876718
 20
-37.19083929191757
 30
0.0
 10
849.3124997876718
 20
-37.19083929191757
 30
0.0
 10
849.3124997876718
 20
-34.25561793848471
 30
0.0
 10
849.3124997876718
 20
-34.25561793848471
 30
0.0
 10
849.3124997876718
 20
-34.01032713993493
 30
0.0
 10
849.2773598137222
 20
-33.80637748720813
 30
0.0
 10
849.2070798658232
 20
-33.64376898030434
 30
0.0
 10
849.1367999179241
 20
-33.48116047340055
 30
0.0
 10
849.0320690151726
 20
-33.3592040932227
 30
0.0
 10
848.8928871575684
 20
-33.2778998397708
 30
0.0
 10
848.7537052999643
 20
-33.19659558631891
 30
0.0
 10
848.5780054302166
 20
-33.15594345959296
 30
0.0
 10
848.3657875483253
 20
-33.15594345959296
 30
0.0
 10
848.0653752220113
 20
-33.15594345959296
 30
0.0
 10
847.8242185380439
 20
-33.21795517832746
 30
0.0
 10
847.6423174964228
 20
-33.34197861579645
 30
0.0
 10
847.4604164548015
 20
-33.46600205326545
 30
0.0
 10
847.328813807265
 20
-33.64997015217779
 30
0.0
 10
847.2475095538131
 20
-33.89388291253348
 30
0.0
 10
847.1662053003612
 20
-34.13779567288916
 30
0.0
 10
847.1255531736353
 20
-34.4375189801059
 30
0.0
 10
847.1255531736353
 20
-34.79305283418368
 30
0.0
 10
847.1255531736353
 20
-34.79305283418368
 30
0.0
 10
847.1255531736353
 20
-37.19083929191757
 30
0.0
 10
847.1255531736353
 20
-37.19083929191757
 30
0.0
 10
847.1255531736353
 20
-37.19083929191757
 30
0.0
 10
846.4392901529734
 20
-37.19083929191757
 30
0.0
 10
846.4392901529734
 20
-37.19083929191757
 30
0.0
 10
846.4392901529734
 20
-37.19083929191757
 30
0.0
 10
846.4392901529734
 20
-32.65984970971699
 30
0.0
 10
846.4392901529734
 20
-32.65984970971699
 30
0.0
 10
846.4392901529734
 20
-32.65984970971699
 30
0.0
 10
846.9932615070018
 20
-32.65984970971699
 30
0.0
 10
846.9932615070018
 20
-32.65984970971699
 30
0.0
 10
846.9932615070018
 20
-32.65984970971699
 30
0.0
 10
847.0966143715592
 20
-33.30063746997345
 30
0.0
 10
847.0966143715592
 20
-33.30063746997345
 30
0.0
 10
847.0966143715592
 20
-33.30063746997345
 30
0.0
 10
847.1338214027998
 20
-33.30063746997345
 30
0.0
 10
847.1338214027998
 20
-33.30063746997345
 30
0.0
 10
847.2247719236104
 20
-33.14354111584606
 30
0.0
 10
847.3391490937208
 20
-33.01124944921247
 30
0.0
 10
847.4769529131307
 20
-32.90376247007267
 30
0.0
 10
847.6147567325407
 20
-32.79627549093288
 30
0.0
 10
847.76909701028
 20
-32.71497123748098
 30
0.0
 10
847.9399737463484
 20
-32.65984970971699
 30
0.0
 10
848.1108504824169
 20
-32.60472818195299
 30
0.0
 10
848.292751524038
 20
-32.57716741807099
 30
0.0
 10
848.4856768712118
 20
-32.57716741807099
 30
0.0
 10
848.8301864197369
 20
-32.57716741807099
 30
0.0
 10
849.1188854214009
 20
-32.64124619409663
 30
0.0
 10
849.3517738762037
 20
-32.76940374614793
 30
0.0
 10
849.5846623310066
 20
-32.89756129819922
 30
0.0
 10
849.7534720097839
 20
-33.09255370266436
 30
0.0
 10
849.8582029125355
 20
-33.35438095954335
 30
0.0
 10
849.8582029125355
 20
-33.35438095954335
 30
0.0
 10
849.8954099437762
 20
-33.35438095954335
 30
0.0
 10
849.8954099437762
 20
-33.35438095954335
 30
0.0
 10
850.044238068739
 20
-33.09255370266436
 30
0.0
 10
850.2481877214657
 20
-32.89756129819922
 30
0.0
 10
850.5072589019565
 20
-32.76940374614793
 30
0.0
 10
850.7663300824473
 20
-32.64124619409663
 30
0.0
 10
851.050205950432
 20
-32.57716741807099
 30
0.0
 10
851.3588865059102
 20
-32.57716741807099
 30
0.0
  0
HATCH
  5
BE
330
B2
100
AcDbEntity
  8
Calque 1
 62
    12
420
 14878227
440
 33554687
100
AcDbHatch
 10
0.0
 20
0.0
 30
0.0
210
0.0
220
0.0
230
1.0
  2
SOLID
 70
     1
 71
     1
 91
        1
 92
        1
 93
        1
 72
     4
 94
        3
 73
     0
 74
     0
 95
      101
 96
       97
 40
0.0
 40
0.0
 40
0.0
 40
0.0
 40
1.0
 40
1.0
 40
1.0
 40
2.0
 40
2.0
 40
2.0
 40
3.0
 40
3.0
 40
3.0
 40
4.0
 40
4.0
 40
4.0
 40
5.0
 40
5.0
 40
5.0
 40
6.0
 40
6.0
 40
6.0
 40
7.0
 40
7.0
 40
7.0
 40
8.0
 40
8.0
 40
8.0
 40
9.0
 40
9.0
 40
9.0
 40
10.0
 40
10.0
 40
10.0
 40
11.0
 40
11.0
 40
11.0
 40
12.0
 40
12.0
 40
12.0
 40
13.0
 40
13.0
 40
13.0
 40
14.0
 40
14.0
 40
14.0
 40
15.0
 40
15.0
 40
15.0
 40
16.0
 40
16.0
 40
16.0
 40
17.0
 40
17.0
 40
17.0
 40
18.0
 40
18.0
 40
18.0
 40
19.0
 40
19.0
 40
19.0
 40
20.0
 40
20.0
 40
20.0
 40
21.0
 40
21.0
 40
21.0
 40
22.0
 40
22.0
 40
22.0
 40
23.0
 40
23.0
 40
23.0
 40
24.0
 40
24.0
 40
24.0
 40
25.0
 40
25.0
 40
25.0
 40
26.0
 40
26.0
 40
26.0
 40
27.0
 40
27.0
 40
27.0
 40
28.0
 40
28.0
 40
28.0
 40
29.0
 40
29.0
 40
29.0
 40
30.0
 40
30.0
 40
30.0
 40
31.0
 40
31.0
 40
31.0
 40
32.0
 40
32.0
 40
32.0
 40
32.0
 10
851.3588865059102
 20
-32.57716741807099
 10
851.8577363321744
 20
-32.57716741807099
 10
852.2339407591639
 20
-32.70739202741343
 10
852.4874997868781
 20
-32.96784124609832
 10
852.7410588145924
 20
-33.22829046478321
 10
852.8678383284496
 20
-33.64652505669254
 10
852.8678383284496
 20
-34.22254502182631
 10
852.8678383284496
 20
-34.22254502182631
 10
852.8678383284496
 20
-37.19083929191757
 10
852.8678383284496
 20
-37.19083929191757
 10
852.8678383284496
 20
-37.19083929191757
 10
852.1898435369525
 20
-37.19083929191757
 10
852.1898435369525
 20
-37.19083929191757
 10
852.1898435369525
 20
-37.19083929191757
 10
852.1898435369525
 20
-34.25561793848471
 10
852.1898435369525
 20
-34.25561793848471
 10
852.1898435369525
 20
-33.88905977885413
 10
852.1106063407918
 20
-33.61414115913119
 10
851.9521319484702
 20
-33.4308620793159
 10
851.7936575561488
 20
-33.24758299950061
 10
851.5587020440548
 20
-33.15594345959296
 10
851.2472654121882
 20
-33.15594345959296
 10
850.8090492664644
 20
-33.15594345959296
 10
850.4907224436273
 20
-33.28272297345016
 10
850.2922849436769
 20
-33.53628200116455
 10
850.0938474437266
 20
-33.78984102887893
 10
849.9946286937513
 20
-34.16328937948001
 10
849.9946286937513
 20
-34.65662705296779
 10
849.9946286937513
 20
-34.65662705296779
 10
849.9946286937513
 20
-37.19083929191757
 10
849.9946286937513
 20
-37.19083929191757
 10
849.9946286937513
 20
-37.19083929191757
 10
849.3124997876718
 20
-37.19083929191757
 10
849.3124997876718
 20
-37.19083929191757
 10
849.3124997876718
 20
-37.19083929191757
 10
849.3124997876718
 20
-34.25561793848471
 10
849.3124997876718
 20
-34.25561793848471
 10
849.3124997876718
 20
-34.01032713993493
 10
849.2773598137222
 20
-33.80637748720813
 10
849.2070798658232
 20
-33.64376898030434
 10
849.1367999179241
 20
-33.48116047340055
 10
849.0320690151726
 20
-33.3592040932227
 10
848.8928871575684
 20
-33.2778998397708
 10
848.7537052999643
 20
-33.19659558631891
 10
848.5780054302166
 20
-33.15594345959296
 10
848.3657875483253
 20
-33.15594345959296
 10
848.0653752220113
 20
-33.15594345959296
 10
847.8242185380439
 20
-33.21795517832746
 10
847.6423174964228
 20
-33.34197861579645
 10
847.4604164548015
 20
-33.46600205326545
 10
847.328813807265
 20
-33.64997015217779
 10
847.2475095538131
 20
-33.89388291253348
 10
847.1662053003612
 20
-34.13779567288916
 10
847.1255531736353
 20
-34.4375189801059
 10
847.1255531736353
 20
-34.79305283418368
 10
847.1255531736353
 20
-34.79305283418368
 10
847.1255531736353
 20
-37.19083929191757
 10
847.1255531736353
 20
-37.19083929191757
 10
847.1255531736353
 20
-37.19083929191757
 10
846.4392901529734
 20
-37.19083929191757
 10
846.4392901529734
 20
-37.19083929191757
 10
846.4392901529734
 20
-37.19083929191757
 10
846.4392901529734
 20
-32.65984970971699
 10
846.4392901529734
 20
-32.65984970971699
 10
846.4392901529734
 20
-32.65984970971699
 10
846.9932615070018
 20
-32.65984970971699
 10
846.9932615070018
 20
-32.65984970971699
 10
846.9932615070018
 20
-32.65984970971699
 10
847.0966143715592
 20
-33.30063746997345
 10
847.0966143715592
 20
-33.30063746997345
 10
847.0966143715592
 20
-33.30063746997345
 10
847.1338214027998
 20
-33.30063746997345
 10
847.1338214027998
 20
-33.30063746997345
 10
847.2247719236104
 20
-33.14354111584606
 10
847.3391490937208
 20
-33.01124944921247
 10
847.4769529131307
 20
-32.90376247007267
 10
847.6147567325407
 20
-32.79627549093288
 10
847.76909701028
 20
-32.71497123748098
 10
847.9399737463484
 20
-32.65984970971699
 10
848.1108504824169
 20
-32.60472818195299
 10
848.292751524038
 20
-32.57716741807099
 10
848.4856768712118
 20
-32.57716741807099
 10
848.8301864197369
 20
-32.57716741807099
 10
849.1188854214009
 20
-32.64124619409663
 10
849.3517738762037
 20
-32.76940374614793
 10
849.5846623310066
 20
-32.89756129819922
 10
849.7534720097839
 20
-33.09255370266436
 10
849.8582029125355
 20
-33.35438095954335
 10
849.8582029125355
 20
-33.35438095954335
 10
849.8954099437762
 20
-33.35438095954335
 10
849.8954099437762
 20
-33.35438095954335
 10
850.044238068739
 20
-33.09255370266436
 10
850.2481877214657
 20
-32.89756129819922
 10
850.5072589019565
 20
-32.76940374614793
 10
850.7663300824473
 20
-32.64124619409663
 10
851.050205950432
 20
-32.57716741807099
 10
851.3588865059102
 20
-32.57716741807099
 97
        0
 97
        1
330
BD
 75
     2
 76
     1
 98
        1
 10
0.0
 20
0.0
450
        0
451
        0
460
0.0
461
0.0
452
        0
462
0.0
453
        0
470

  0
SPLINE
  5
BF
330
B2
100
AcDbEntity
  8
Calque 1
100
AcDbSpline
210
0.0
220
0.0
230
1.0
 70
     9
 71
     3
 72
   101
 73
    97
 74
     0
 42
0.0000000001
 43
0.0000000001
 40
0.0
 40
0.0
 40
0.0
 40
0.0
 40
1.0
 40
1.0
 40
1.0
 40
2.0
 40
2.0
 40
2.0
 40
3.0
 40
3.0
 40
3.0
 40
4.0
 40
4.0
 40
4.0
 40
5.0
 40
5.0
 40
5.0
 40
6.0
 40
6.0
 40
6.0
 40
7.0
 40
7.0
 40
7.0
 40
8.0
 40
8.0
 40
8.0
 40
9.0
 40
9.0
 40
9.0
 40
10.0
 40
10.0
 40
10.0
 40
11.0
 40
11.0
 40
11.0
 40
12.0
 40
12.0
 40
12.0
 40
13.0
 40
13.0
 40
13.0
 40
14.0
 40
14.0
 40
14.0
 40
15.0
 40
15.0
 40
15.0
 40
16.0
 40
16.0
 40
16.0
 40
17.0
 40
17.0
 40
17.0
 40
18.0
 40
18.0
 40
18.0
 40
19.0
 40
19.0
 40
19.0
 40
20.0
 40
20.0
 40
20.0
 40
21.0
 40
21.0
 40
21.0
 40
22.0
 40
22.0
 40
22.0
 40
23.0
 40
23.0
 40
23.0
 40
24.0
 40
24.0
 40
24.0
 40
25.0
 40
25.0
 40
25.0
 40
26.0
 40
26.0
 40
26.0
 40
27.0
 40
27.0
 40
27.0
 40
28.0
 40
28.0
 40
28.0
 40
29.0
 40
29.0
 40
29.0
 40
30.0
 40
30.0
 40
30.0
 40
31.0
 40
31.0
 40
31.0
 40
32.0
 40
32.0
 40
32.0
 40
32.0
 10
859.1971677539508
 20
-32.57716741807099
 30
0.0
 10
859.696017580215
 20
-32.57716741807099
 30
0.0
 10
860.0722220072041
 20
-32.70739202741343
 30
0.0
 10
860.3257810349186
 20
-32.96784124609832
 30
0.0
 10
860.579340062633
 20
-33.22829046478321
 30
0.0
 10
860.7061195764902
 20
-33.64652505669254
 30
0.0
 10
860.7061195764902
 20
-34.22254502182631
 30
0.0
 10
860.7061195764902
 20
-34.22254502182631
 30
0.0
 10
860.7061195764902
 20
-37.19083929191757
 30
0.0
 10
860.7061195764902
 20
-37.19083929191757
 30
0.0
 10
860.7061195764902
 20
-37.19083929191757
 30
0.0
 10
860.0281247849929
 20
-37.19083929191757
 30
0.0
 10
860.0281247849929
 20
-37.19083929191757
 30
0.0
 10
860.0281247849929
 20
-37.19083929191757
 30
0.0
 10
860.0281247849929
 20
-34.25561793848471
 30
0.0
 10
860.0281247849929
 20
-34.25561793848471
 30
0.0
 10
860.0281247849929
 20
-33.88905977885413
 30
0.0
 10
859.9488875888322
 20
-33.61414115913119
 30
0.0
 10
859.7904131965107
 20
-33.4308620793159
 30
0.0
 10
859.6319388041893
 20
-33.24758299950061
 30
0.0
 10
859.3969832920953
 20
-33.15594345959296
 30
0.0
 10
859.0855466602286
 20
-33.15594345959296
 30
0.0
 10
858.6473305145048
 20
-33.15594345959296
 30
0.0
 10
858.3290036916677
 20
-33.28272297345016
 30
0.0
 10
858.1305661917173
 20
-33.53628200116455
 30
0.0
 10
857.932128691767
 20
-33.78984102887893
 30
0.0
 10
857.8329099417919
 20
-34.16328937948001
 30
0.0
 10
857.8329099417919
 20
-34.65662705296779
 30
0.0
 10
857.8329099417919
 20
-34.65662705296779
 30
0.0
 10
857.8329099417919
 20
-37.19083929191757
 30
0.0
 10
857.8329099417919
 20
-37.19083929191757
 30
0.0
 10
857.8329099417919
 20
-37.19083929191757
 30
0.0
 10
857.1507810357124
 20
-37.19083929191757
 30
0.0
 10
857.1507810357124
 20
-37.19083929191757
 30
0.0
 10
857.1507810357124
 20
-37.19083929191757
 30
0.0
 10
857.1507810357124
 20
-34.25561793848471
 30
0.0
 10
857.1507810357124
 20
-34.25561793848471
 30
0.0
 10
857.1507810357124
 20
-34.01032713993493
 30
0.0
 10
857.1156410617627
 20
-33.80637748720813
 30
0.0
 10
857.0453611138637
 20
-33.64376898030434
 30
0.0
 10
856.9750811659647
 20
-33.48116047340055
 30
0.0
 10
856.870350263213
 20
-33.3592040932227
 30
0.0
 10
856.731168405609
 20
-33.2778998397708
 30
0.0
 10
856.5919865480047
 20
-33.19659558631891
 30
0.0
 10
856.416286678257
 20
-33.15594345959296
 30
0.0
 10
856.2040687963657
 20
-33.15594345959296
 30
0.0
 10
855.9036564700519
 20
-33.15594345959296
 30
0.0
 10
855.6624997860843
 20
-33.21795517832746
 30
0.0
 10
855.4805987444632
 20
-33.34197861579645
 30
0.0
 10
855.2986977028419
 20
-33.46600205326545
 30
0.0
 10
855.1670950553054
 20
-33.64997015217779
 30
0.0
 10
855.0857908018535
 20
-33.89388291253348
 30
0.0
 10
855.0044865484016
 20
-34.13779567288916
 30
0.0
 10
854.9638344216758
 20
-34.4375189801059
 30
0.0
 10
854.9638344216758
 20
-34.79305283418368
 30
0.0
 10
854.9638344216758
 20
-34.79305283418368
 30
0.0
 10
854.9638344216758
 20
-37.19083929191757
 30
0.0
 10
854.9638344216758
 20
-37.19083929191757
 30
0.0
 10
854.9638344216758
 20
-37.19083929191757
 30
0.0
 10
854.277571401014
 20
-37.19083929191757
 30
0.0
 10
854.277571401014
 20
-37.19083929191757
 30
0.0
 10
854.277571401014
 20
-37.19083929191757
 30
0.0
 10
854.277571401014
 20
-32.65984970971699
 30
0.0
 10
854.277571401014
 20
-32.65984970971699
 30
0.0
 10
854.277571401014
 20
-32.65984970971699
 30
0.0
 10
854.8315427550422
 20
-32.65984970971699
 30
0.0
 10
854.8315427550422
 20
-32.65984970971699
 30
0.0
 10
854.8315427550422
 20
-32.65984970971699
 30
0.0
 10
854.9348956195997
 20
-33.30063746997345
 30
0.0
 10
854.9348956195997
 20
-33.30063746997345
 30
0.0
 10
854.9348956195997
 20
-33.30063746997345
 30
0.0
 10
854.9721026508404
 20
-33.30063746997345
 30
0.0
 10
854.9721026508404
 20
-33.30063746997345
 30
0.0
 10
855.0630531716508
 20
-33.14354111584606
 30
0.0
 10
855.1774303417612
 20
-33.01124944921247
 30
0.0
 10
855.3152341611712
 20
-32.90376247007267
 30
0.0
 10
855.4530379805813
 20
-32.79627549093288
 30
0.0
 10
855.6073782583204
 20
-32.71497123748098
 30
0.0
 10
855.7782549943889
 20
-32.65984970971699
 30
0.0
 10
855.9491317304573
 20
-32.60472818195299
 30
0.0
 10
856.1310327720784
 20
-32.57716741807099
 30
0.0
 10
856.3239581192524
 20
-32.57716741807099
 30
0.0
 10
856.6684676677773
 20
-32.57716741807099
 30
0.0
 10
856.9571666694413
 20
-32.64124619409663
 30
0.0
 10
857.1900551242441
 20
-32.76940374614793
 30
0.0
 10
857.4229435790471
 20
-32.89756129819922
 30
0.0
 10
857.5917532578243
 20
-33.09255370266436
 30
0.0
 10
857.6964841605759
 20
-33.35438095954335
 30
0.0
 10
857.6964841605759
 20
-33.35438095954335
 30
0.0
 10
857.7336911918166
 20
-33.35438095954335
 30
0.0
 10
857.7336911918166
 20
-33.35438095954335
 30
0.0
 10
857.8825193167794
 20
-33.09255370266436
 30
0.0
 10
858.0864689695061
 20
-32.89756129819922
 30
0.0
 10
858.3455401499969
 20
-32.76940374614793
 30
0.0
 10
858.6046113304877
 20
-32.64124619409663
 30
0.0
 10
858.8884871984724
 20
-32.57716741807099
 30
0.0
 10
859.1971677539508
 20
-32.57716741807099
 30
0.0
  0
HATCH
  5
C0
330
B2
100
AcDbEntity
  8
Calque 1
 62
    12
420
 14878227
440
 33554687
100
AcDbHatch
 10
0.0
 20
0.0
 30
0.0
210
0.0
220
0.0
230
1.0
  2
SOLID
 70
     1
 71
     1
 91
        1
 92
        1
 93
        1
 72
     4
 94
        3
 73
     0
 74
     0
 95
      101
 96
       97
 40
0.0
 40
0.0
 40
0.0
 40
0.0
 40
1.0
 40
1.0
 40
1.0
 40
2.0
 40
2.0
 40
2.0
 40
3.0
 40
3.0
 40
3.0
 40
4.0
 40
4.0
 40
4.0
 40
5.0
 40
5.0
 40
5.0
 40
6.0
 40
6.0
 40
6.0
 40
7.0
 40
7.0
 40
7.0
 40
8.0
 40
8.0
 40
8.0
 40
9.0
 40
9.0
 40
9.0
 40
10.0
 40
10.0
 40
10.0
 40
11.0
 40
11.0
 40
11.0
 40
12.0
 40
12.0
 40
12.0
 40
13.0
 40
13.0
 40
13.0
 40
14.0
 40
14.0
 40
14.0
 40
15.0
 40
15.0
 40
15.0
 40
16.0
 40
16.0
 40
16.0
 40
17.0
 40
17.0
 40
17.0
 40
18.0
 40
18.0
 40
18.0
 40
19.0
 40
19.0
 40
19.0
 40
20.0
 40
20.0
 40
20.0
 40
21.0
 40
21.0
 40
21.0
 40
22.0
 40
22.0
 40
22.0
 40
23.0
 40
23.0
 40
23.0
 40
24.0
 40
24.0
 40
24.0
 40
25.0
 40
25.0
 40
25.0
 40
26.0
 40
26.0
 40
26.0
 40
27.0
 40
27.0
 40
27.0
 40
28.0
 40
28.0
 40
28.0
 40
29.0
 40
29.0
 40
29.0
 40
30.0
 40
30.0
 40
30.0
 40
31.0
 40
31.0
 40
31.0
 40
32.0
 40
32.0
 40
32.0
 40
32.0
 10
859.1971677539508
 20
-32.57716741807099
 10
859.696017580215
 20
-32.57716741807099
 10
860.0722220072041
 20
-32.70739202741343
 10
860.3257810349186
 20
-32.96784124609832
 10
860.579340062633
 20
-33.22829046478321
 10
860.7061195764902
 20
-33.64652505669254
 10
860.7061195764902
 20
-34.22254502182631
 10
860.7061195764902
 20
-34.22254502182631
 10
860.7061195764902
 20
-37.19083929191757
 10
860.7061195764902
 20
-37.19083929191757
 10
860.7061195764902
 20
-37.19083929191757
 10
860.0281247849929
 20
-37.19083929191757
 10
860.0281247849929
 20
-37.19083929191757
 10
860.0281247849929
 20
-37.19083929191757
 10
860.0281247849929
 20
-34.25561793848471
 10
860.0281247849929
 20
-34.25561793848471
 10
860.0281247849929
 20
-33.88905977885413
 10
859.9488875888322
 20
-33.61414115913119
 10
859.7904131965107
 20
-33.4308620793159
 10
859.6319388041893
 20
-33.24758299950061
 10
859.3969832920953
 20
-33.15594345959296
 10
859.0855466602286
 20
-33.15594345959296
 10
858.6473305145048
 20
-33.15594345959296
 10
858.3290036916677
 20
-33.28272297345016
 10
858.1305661917173
 20
-33.53628200116455
 10
857.932128691767
 20
-33.78984102887893
 10
857.8329099417919
 20
-34.16328937948001
 10
857.8329099417919
 20
-34.65662705296779
 10
857.8329099417919
 20
-34.65662705296779
 10
857.8329099417919
 20
-37.19083929191757
 10
857.8329099417919
 20
-37.19083929191757
 10
857.8329099417919
 20
-37.19083929191757
 10
857.1507810357124
 20
-37.19083929191757
 10
857.1507810357124
 20
-37.19083929191757
 10
857.1507810357124
 20
-37.19083929191757
 10
857.1507810357124
 20
-34.25561793848471
 10
857.1507810357124
 20
-34.25561793848471
 10
857.1507810357124
 20
-34.01032713993493
 10
857.1156410617627
 20
-33.80637748720813
 10
857.0453611138637
 20
-33.64376898030434
 10
856.9750811659647
 20
-33.48116047340055
 10
856.870350263213
 20
-33.3592040932227
 10
856.731168405609
 20
-33.2778998397708
 10
856.5919865480047
 20
-33.19659558631891
 10
856.416286678257
 20
-33.15594345959296
 10
856.2040687963657
 20
-33.15594345959296
 10
855.9036564700519
 20
-33.15594345959296
 10
855.6624997860843
 20
-33.21795517832746
 10
855.4805987444632
 20
-33.34197861579645
 10
855.2986977028419
 20
-33.46600205326545
 10
855.1670950553054
 20
-33.64997015217779
 10
855.0857908018535
 20
-33.89388291253348
 10
855.0044865484016
 20
-34.13779567288916
 10
854.9638344216758
 20
-34.4375189801059
 10
854.9638344216758
 20
-34.79305283418368
 10
854.9638344216758
 20
-34.79305283418368
 10
854.9638344216758
 20
-37.19083929191757
 10
854.9638344216758
 20
-37.19083929191757
 10
854.9638344216758
 20
-37.19083929191757
 10
854.277571401014
 20
-37.19083929191757
 10
854.277571401014
 20
-37.19083929191757
 10
854.277571401014
 20
-37.19083929191757
 10
854.277571401014
 20
-32.65984970971699
 10
854.277571401014
 20
-32.65984970971699
 10
854.277571401014
 20
-32.65984970971699
 10
854.8315427550422
 20
-32.65984970971699
 10
854.8315427550422
 20
-32.65984970971699
 10
854.8315427550422
 20
-32.65984970971699
 10
854.9348956195997
 20
-33.30063746997345
 10
854.9348956195997
 20
-33.30063746997345
 10
854.9348956195997
 20
-33.30063746997345
 10
854.9721026508404
 20
-33.30063746997345
 10
854.9721026508404
 20
-33.30063746997345
 10
855.0630531716508
 20
-33.14354111584606
 10
855.1774303417612
 20
-33.01124944921247
 10
855.3152341611712
 20
-32.90376247007267
 10
855.4530379805813
 20
-32.79627549093288
 10
855.6073782583204
 20
-32.71497123748098
 10
855.7782549943889
 20
-32.65984970971699
 10
855.9491317304573
 20
-32.60472818195299
 10
856.1310327720784
 20
-32.57716741807099
 10
856.3239581192524
 20
-32.57716741807099
 10
856.6684676677773
 20
-32.57716741807099
 10
856.9571666694413
 20
-32.64124619409663
 10
857.1900551242441
 20
-32.76940374614793
 10
857.4229435790471
 20
-32.89756129819922
 10
857.5917532578243
 20
-33.09255370266436
 10
857.6964841605759
 20
-33.35438095954335
 10
857.6964841605759
 20
-33.35438095954335
 10
857.7336911918166
 20
-33.35438095954335
 10
857.7336911918166
 20
-33.35438095954335
 10
857.8825193167794
 20
-33.09255370266436
 10
858.0864689695061
 20
-32.89756129819922
 10
858.3455401499969
 20
-32.76940374614793
 10
858.6046113304877
 20
-32.64124619409663
 10
858.8884871984724
 20
-32.57716741807099
 10
859.1971677539508
 20
-32.57716741807099
 97
        0
 97
        1
330
BF
 75
     2
 76
     1
 98
        1
 10
0.0
 20
0.0
450
        0
451
        0
460
0.0
461
0.0
452
        0
462
0.0
453
        0
470

  0
ENDBLK
  5
B5
330
B2
100
AcDbEntity
  8
0
100
AcDbBlockEnd
  0
BLOCK
  5
C3
330
C1
100
AcDbEntity
  8
0
100
AcDbBlockBegin
  2
Block_6
 70
     0
 10
0.0
 20
0.0
 30
0.0
  3
Block_6
  1

  0
INSERT
  5
C6
330
C1
100
AcDbEntity
  8
Calque 1
100
AcDbBlockReference
  2
Block_7
 10
0.0
 20
0.0
 30
0.0
  0
ENDBLK
  5
C4
330
C1
100
AcDbEntity
  8
0
100
AcDbBlockEnd
  0
BLOCK
  5
C7
330
C5
100
AcDbEntity
  8
0
100
AcDbBlockBegin
  2
Block_7
 70
     0
 10
0.0
 20
0.0
 30
0.0
  3
Block_7
  1

  0
SPLINE
  5
C9
330
C5
100
AcDbEntity
  8
Calque 1
100
AcDbSpline
210
0.0
220
0.0
230
1.0
 70
    11
 71
     3
 72
    77
 73
    73
 74
     0
 42
0.0000000001
 43
0.0000000001
 40
0.0
 40
0.0
 40
0.0
 40
0.0
 40
1.0
 40
1.0
 40
1.0
 40
2.0
 40
2.0
 40
2.0
 40
3.0
 40
3.0
 40
3.0
 40
4.0
 40
4.0
 40
4.0
 40
5.0
 40
5.0
 40
5.0
 40
6.0
 40
6.0
 40
6.0
 40
7.0
 40
7.0
 40
7.0
 40
8.0
 40
8.0
 40
8.0
 40
9.0
 40
9.0
 40
9.0
 40
10.0
 40
10.0
 40
10.0
 40
11.0
 40
11.0
 40
11.0
 40
12.0
 40
12.0
 40
12.0
 40
13.0
 40
13.0
 40
13.0
 40
14.0
 40
14.0
 40
14.0
 40
15.0
 40
15.0
 40
15.0
 40
16.0
 40
16.0
 40
16.0
 40
17.0
 40
17.0
 40
17.0
 40
18.0
 40
18.0
 40
18.0
 40
19.0
 40
19.0
 40
19.0
 40
20.0
 40
20.0
 40
20.0
 40
21.0
 40
21.0
 40
21.0
 40
22.0
 40
22.0
 40
22.0
 40
23.0
 40
23.0
 40
23.0
 40
24.0
 40
24.0
 40
24.0
 40
24.0
 10
698.1089814877991
 20
-157.9479817313463
 30
0.0
 10
698.1089814877991
 20
-157.9479817313463
 30
0.0
 10
694.1484997179559
 20
-157.9479817313463
 30
0.0
 10
694.1484997179559
 20
-157.9479817313463
 30
0.0
 10
694.1484997179559
 20
-157.9479817313463
 30
0.0
 10
694.1484997179559
 20
-157.3733398044066
 30
0.0
 10
694.1484997179559
 20
-157.3733398044066
 30
0.0
 10
694.1484997179559
 20
-157.3733398044066
 30
0.0
 10
695.7649385196352
 20
-155.7320963152336
 30
0.0
 10
695.7649385196352
 20
-155.7320963152336
 30
0.0
 10
696.0653508459489
 20
-155.4289279125316
 30
0.0
 10
696.3182208545663
 20
-155.1588324264881
 30
0.0
 10
696.5235485454871
 20
-154.9218098571029
 30
0.0
 10
696.728876236408
 20
-154.6847872877177
 30
0.0
 10
696.8852835714384
 20
-154.4512098138177
 30
0.0
 10
696.9927705505782
 20
-154.221077435403
 30
0.0
 10
697.100257529718
 20
-153.9909450569884
 30
0.0
 10
697.1540010192878
 20
-153.738075048371
 30
0.0
 10
697.1540010192878
 20
-153.462467409551
 30
0.0
 10
697.1540010192878
 20
-153.1207139374143
 30
0.0
 10
697.0527152120215
 20
-152.8595756996323
 30
0.0
 10
696.8501435974888
 20
-152.6790526962052
 30
0.0
 10
696.6475719829561
 20
-152.4985296927781
 30
0.0
 10
696.3809215923978
 20
-152.4082681910646
 30
0.0
 10
696.0501924258139
 20
-152.4082681910646
 30
0.0
 10
695.7608044050529
 20
-152.4082681910646
 30
0.0
 10
695.5044893009503
 20
-152.4578775660522
 30
0.0
 10
695.2812471135061
 20
-152.5570963160274
 30
0.0
 10
695.0580049260619
 20
-152.6563150660026
 30
0.0
 10
694.8292505858413
 20
-152.7968749618008
 30
0.0
 10
694.5949840928443
 20
-152.978776003422
 30
0.0
 10
694.5949840928443
 20
-152.978776003422
 30
0.0
 10
694.2270478950196
 20
-152.5157551702044
 30
0.0
 10
694.2270478950196
 20
-152.5157551702044
 30
0.0
 10
694.3869003255352
 20
-152.3807074271826
 30
0.0
 10
694.5612221570889
 20
-152.2608181042959
 30
0.0
 10
694.7500133896806
 20
-152.1560872015443
 30
0.0
 10
694.9388046222723
 20
-152.0513562987927
 30
0.0
 10
695.1413762368049
 20
-151.9686740071467
 30
0.0
 10
695.3577282332786
 20
-151.9080403266063
 30
0.0
 10
695.5740802297523
 20
-151.8474066460659
 30
0.0
 10
695.804901627264
 20
-151.8170898057957
 30
0.0
 10
696.0501924258139
 20
-151.8170898057957
 30
0.0
 10
696.4222627382208
 20
-151.8170898057957
 30
0.0
 10
696.7433456374461
 20
-151.8818576009184
 30
0.0
 10
697.0134411234897
 20
-152.0113931911638
 30
0.0
 10
697.2835366095333
 20
-152.1409287814092
 30
0.0
 10
697.4923093959394
 20
-152.3255858994186
 30
0.0
 10
697.6397594827082
 20
-152.565364545192
 30
0.0
 10
697.7872095694769
 20
-152.8051431909654
 30
0.0
 10
697.8609346128612
 20
-153.090397097144
 30
0.0
 10
697.8609346128612
 20
-153.421126263728
 30
0.0
 10
697.8609346128612
 20
-153.7408311247592
 30
0.0
 10
697.7975448559326
 20
-154.0377983555877
 30
0.0
 10
697.6707653420753
 20
-154.3120279562136
 30
0.0
 10
697.5439858282181
 20
-154.5862575568395
 30
0.0
 10
697.3662189011792
 20
-154.8577310810772
 30
0.0
 10
697.1374645609587
 20
-155.1264485289267
 30
0.0
 10
696.9087102207382
 20
-155.3951659767762
 30
0.0
 10
696.6413708110827
 20
-155.6797308638578
 30
0.0
 10
696.3354463319925
 20
-155.9801431901716
 30
0.0
 10
696.3354463319925
 20
-155.9801431901716
 30
0.0
 10
695.0207978948212
 20
-157.2906575127607
 30
0.0
 10
695.0207978948212
 20
-157.2906575127607
 30
0.0
 10
695.0207978948212
 20
-157.2906575127607
 30
0.0
 10
695.0207978948212
 20
-157.3195963148368
 30
0.0
 10
695.0207978948212
 20
-157.3195963148368
 30
0.0
 10
695.0207978948212
 20
-157.3195963148368
 30
0.0
 10
698.1089814877991
 20
-157.3195963148368
 30
0.0
 10
698.1089814877991
 20
-157.3195963148368
 30
0.0
 10
698.1089814877991
 20
-157.3195963148368
 30
0.0
 10
698.1089814877991
 20
-157.9479817313463
 30
0.0
 10
698.1089814877991
 20
-157.9479817313463
 30
0.0
  0
HATCH
  5
CA
330
C5
100
AcDbEntity
  8
Calque 1
 62
    12
420
 14878227
440
 33554687
100
AcDbHatch
 10
0.0
 20
0.0
 30
0.0
210
0.0
220
0.0
230
1.0
  2
SOLID
 70
     1
 71
     1
 91
        1
 92
        1
 93
        1
 72
     4
 94
        3
 73
     0
 74
     0
 95
       77
 96
       73
 40
0.0
 40
0.0
 40
0.0
 40
0.0
 40
1.0
 40
1.0
 40
1.0
 40
2.0
 40
2.0
 40
2.0
 40
3.0
 40
3.0
 40
3.0
 40
4.0
 40
4.0
 40
4.0
 40
5.0
 40
5.0
 40
5.0
 40
6.0
 40
6.0
 40
6.0
 40
7.0
 40
7.0
 40
7.0
 40
8.0
 40
8.0
 40
8.0
 40
9.0
 40
9.0
 40
9.0
 40
10.0
 40
10.0
 40
10.0
 40
11.0
 40
11.0
 40
11.0
 40
12.0
 40
12.0
 40
12.0
 40
13.0
 40
13.0
 40
13.0
 40
14.0
 40
14.0
 40
14.0
 40
15.0
 40
15.0
 40
15.0
 40
16.0
 40
16.0
 40
16.0
 40
17.0
 40
17.0
 40
17.0
 40
18.0
 40
18.0
 40
18.0
 40
19.0
 40
19.0
 40
19.0
 40
20.0
 40
20.0
 40
20.0
 40
21.0
 40
21.0
 40
21.0
 40
22.0
 40
22.0
 40
22.0
 40
23.0
 40
23.0
 40
23.0
 40
24.0
 40
24.0
 40
24.0
 40
24.0
 10
698.1089814877991
 20
-157.9479817313463
 10
698.1089814877991
 20
-157.9479817313463
 10
694.1484997179559
 20
-157.9479817313463
 10
694.1484997179559
 20
-157.9479817313463
 10
694.1484997179559
 20
-157.9479817313463
 10
694.1484997179559
 20
-157.3733398044066
 10
694.1484997179559
 20
-157.3733398044066
 10
694.1484997179559
 20
-157.3733398044066
 10
695.7649385196352
 20
-155.7320963152336
 10
695.7649385196352
 20
-155.7320963152336
 10
696.0653508459489
 20
-155.4289279125316
 10
696.3182208545663
 20
-155.1588324264881
 10
696.5235485454871
 20
-154.9218098571029
 10
696.728876236408
 20
-154.6847872877177
 10
696.8852835714384
 20
-154.4512098138177
 10
696.9927705505782
 20
-154.221077435403
 10
697.100257529718
 20
-153.9909450569884
 10
697.1540010192878
 20
-153.738075048371
 10
697.1540010192878
 20
-153.462467409551
 10
697.1540010192878
 20
-153.1207139374143
 10
697.0527152120215
 20
-152.8595756996323
 10
696.8501435974888
 20
-152.6790526962052
 10
696.6475719829561
 20
-152.4985296927781
 10
696.3809215923978
 20
-152.4082681910646
 10
696.0501924258139
 20
-152.4082681910646
 10
695.7608044050529
 20
-152.4082681910646
 10
695.5044893009503
 20
-152.4578775660522
 10
695.2812471135061
 20
-152.5570963160274
 10
695.0580049260619
 20
-152.6563150660026
 10
694.8292505858413
 20
-152.7968749618008
 10
694.5949840928443
 20
-152.978776003422
 10
694.5949840928443
 20
-152.978776003422
 10
694.2270478950196
 20
-152.5157551702044
 10
694.2270478950196
 20
-152.5157551702044
 10
694.3869003255352
 20
-152.3807074271826
 10
694.5612221570889
 20
-152.2608181042959
 10
694.7500133896806
 20
-152.1560872015443
 10
694.9388046222723
 20
-152.0513562987927
 10
695.1413762368049
 20
-151.9686740071467
 10
695.3577282332786
 20
-151.9080403266063
 10
695.5740802297523
 20
-151.8474066460659
 10
695.804901627264
 20
-151.8170898057957
 10
696.0501924258139
 20
-151.8170898057957
 10
696.4222627382208
 20
-151.8170898057957
 10
696.7433456374461
 20
-151.8818576009184
 10
697.0134411234897
 20
-152.0113931911638
 10
697.2835366095333
 20
-152.1409287814092
 10
697.4923093959394
 20
-152.3255858994186
 10
697.6397594827082
 20
-152.565364545192
 10
697.7872095694769
 20
-152.8051431909654
 10
697.8609346128612
 20
-153.090397097144
 10
697.8609346128612
 20
-153.421126263728
 10
697.8609346128612
 20
-153.7408311247592
 10
697.7975448559326
 20
-154.0377983555877
 10
697.6707653420753
 20
-154.3120279562136
 10
697.5439858282181
 20
-154.5862575568395
 10
697.3662189011792
 20
-154.8577310810772
 10
697.1374645609587
 20
-155.1264485289267
 10
696.9087102207382
 20
-155.3951659767762
 10
696.6413708110827
 20
-155.6797308638578
 10
696.3354463319925
 20
-155.9801431901716
 10
696.3354463319925
 20
-155.9801431901716
 10
695.0207978948212
 20
-157.2906575127607
 10
695.0207978948212
 20
-157.2906575127607
 10
695.0207978948212
 20
-157.2906575127607
 10
695.0207978948212
 20
-157.3195963148368
 10
695.0207978948212
 20
-157.3195963148368
 10
695.0207978948212
 20
-157.3195963148368
 10
698.1089814877991
 20
-157.3195963148368
 10
698.1089814877991
 20
-157.3195963148368
 10
698.1089814877991
 20
-157.3195963148368
 10
698.1089814877991
 20
-157.9479817313463
 10
698.1089814877991
 20
-157.9479817313463
 97
        0
 97
        1
330
C9
 75
     2
 76
     1
 98
        1
 10
0.0
 20
0.0
450
        0
451
        0
460
0.0
461
0.0
452
        0
462
0.0
453
        0
470

  0
SPLINE
  5
CB
330
C5
100
AcDbEntity
  8
Calque 1
100
AcDbSpline
210
0.0
220
0.0
230
1.0
 70
     9
 71
     3
 72
    41
 73
    37
 74
     0
 42
0.0000000001
 43
0.0000000001
 40
0.0
 40
0.0
 40
0.0
 40
0.0
 40
1.0
 40
1.0
 40
1.0
 40
2.0
 40
2.0
 40
2.0
 40
3.0
 40
3.0
 40
3.0
 40
4.0
 40
4.0
 40
4.0
 40
5.0
 40
5.0
 40
5.0
 40
6.0
 40
6.0
 40
6.0
 40
7.0
 40
7.0
 40
7.0
 40
8.0
 40
8.0
 40
8.0
 40
9.0
 40
9.0
 40
9.0
 40
10.0
 40
10.0
 40
10.0
 40
11.0
 40
11.0
 40
11.0
 40
12.0
 40
12.0
 40
12.0
 40
12.0
 10
699.6882132582377
 20
-154.9176757425206
 30
0.0
 10
699.6882132582377
 20
-155.4799153257133
 30
0.0
 10
699.7309324422547
 20
-155.9484483117073
 30
0.0
 10
699.816370810289
 20
-156.3232747005025
 30
0.0
 10
699.9018091783232
 20
-156.6981010892977
 30
0.0
 10
700.0403020168302
 20
-156.978531861797
 30
0.0
 10
700.2318493258101
 20
-157.1645670180005
 30
0.0
 10
700.42339663479
 20
-157.350602174204
 30
0.0
 10
700.6748886052132
 20
-157.4436197523058
 30
0.0
 10
700.9863252370799
 20
-157.4436197523058
 30
0.0
 10
701.2977618689464
 20
-157.4436197523058
 30
0.0
 10
701.5492538393695
 20
-157.3512911933011
 30
0.0
 10
701.7408011483495
 20
-157.1666340752917
 30
0.0
 10
701.9323484573294
 20
-156.9819769572823
 30
0.0
 10
702.0715303149335
 20
-156.70223520388
 30
0.0
 10
702.1583467211618
 20
-156.3274088150848
 30
0.0
 10
702.2451631273901
 20
-155.9525824262896
 30
0.0
 10
702.2885713305043
 20
-155.4826714021015
 30
0.0
 10
702.2885713305043
 20
-154.9176757425206
 30
0.0
 10
702.2885713305043
 20
-154.3637043884924
 30
0.0
 10
702.2458521464872
 20
-153.8999945361778
 30
0.0
 10
702.1604137784529
 20
-153.5265461855767
 30
0.0
 10
702.0749754104188
 20
-153.1530978349756
 30
0.0
 10
701.9371715910088
 20
-152.8719780433792
 30
0.0
 10
701.747002320223
 20
-152.6831868107875
 30
0.0
 10
701.5568330494371
 20
-152.4943955781958
 30
0.0
 10
701.3032740217227
 20
-152.3999999619
 30
0.0
 10
700.9863252370799
 20
-152.3999999619
 30
0.0
 10
700.6693764524368
 20
-152.3999999619
 30
0.0
 10
700.4158174247224
 20
-152.4943955781958
 30
0.0
 10
700.2256481539367
 20
-152.6831868107875
 30
0.0
 10
700.0354788831508
 20
-152.8719780433792
 30
0.0
 10
699.8983640828379
 20
-153.1530978349756
 30
0.0
 10
699.8143037529978
 20
-153.5265461855767
 30
0.0
 10
699.7302434231577
 20
-153.8999945361778
 30
0.0
 10
699.6882132582377
 20
-154.3637043884924
 30
0.0
 10
699.6882132582377
 20
-154.9176757425206
 30
0.0
  0
SPLINE
  5
CC
330
C5
100
AcDbEntity
  8
Calque 1
100
AcDbSpline
210
0.0
220
0.0
230
1.0
 70
     9
 71
     3
 72
    44
 73
    40
 74
     0
 42
0.0000000001
 43
0.0000000001
 40
0.0
 40
0.0
 40
0.0
 40
0.0
 40
1.0
 40
1.0
 40
1.0
 40
2.0
 40
2.0
 40
2.0
 40
3.0
 40
3.0
 40
3.0
 40
4.0
 40
4.0
 40
4.0
 40
5.0
 40
5.0
 40
5.0
 40
6.0
 40
6.0
 40
6.0
 40
7.0
 40
7.0
 40
7.0
 40
8.0
 40
8.0
 40
8.0
 40
9.0
 40
9.0
 40
9.0
 40
10.0
 40
10.0
 40
10.0
 40
11.0
 40
11.0
 40
11.0
 40
12.0
 40
12.0
 40
12.0
 40
13.0
 40
13.0
 40
13.0
 40
13.0
 10
702.9831025803306
 20
-154.9176757425206
 30
0.0
 10
702.9831025803306
 20
-155.4082573396201
 30
0.0
 10
702.9458955490899
 20
-155.8464734853439
 30
0.0
 10
702.8714814866085
 20
-156.2323241796919
 30
0.0
 10
702.7970674241271
 20
-156.6181748740399
 30
0.0
 10
702.6799341776286
 20
-156.9447699260416
 30
0.0
 10
702.520081747113
 20
-157.212109335697
 30
0.0
 10
702.3602293165975
 20
-157.4794487453523
 30
0.0
 10
702.1535235874824
 20
-157.6827093789821
 30
0.0
 10
701.8999645597681
 20
-157.8218912365862
 30
0.0
 10
701.6464055320536
 20
-157.9610730941903
 30
0.0
 10
701.3418590911576
 20
-158.0306640229923
 30
0.0
 10
700.9863252370799
 20
-158.0306640229923
 30
0.0
 10
700.5370847858032
 20
-158.0306640229923
 30
0.0
 10
700.1657034924932
 20
-157.9080186237174
 30
0.0
 10
699.8721813571499
 20
-157.6627278251676
 30
0.0
 10
699.5786592218068
 20
-157.4174370266178
 30
0.0
 10
699.3595511489449
 20
-157.0625921916371
 30
0.0
 10
699.2148571385643
 20
-156.5981933202254
 30
0.0
 10
699.0701631281839
 20
-156.1337944488137
 30
0.0
 10
698.9978161229936
 20
-155.5736219229121
 30
0.0
 10
698.9978161229936
 20
-154.9176757425206
 30
0.0
 10
698.9978161229936
 20
-154.2727538676818
 30
0.0
 10
699.0632729372133
 20
-153.7180934945566
 30
0.0
 10
699.1941865656529
 20
-153.2536946231449
 30
0.0
 10
699.3251001940923
 20
-152.7892957517332
 30
0.0
 10
699.5366290568867
 20
-152.4323838594613
 30
0.0
 10
699.8287731540358
 20
-152.1829589463292
 30
0.0
 10
700.1209172511851
 20
-151.9335340331972
 30
0.0
 10
700.506767945533
 20
-151.8088215766311
 30
0.0
 10
700.9863252370799
 20
-151.8088215766311
 30
0.0
 10
701.4410778411328
 20
-151.8088215766311
 30
0.0
 10
701.815904229928
 20
-151.9321559950031
 30
0.0
 10
702.1108044034654
 20
-152.1788248317469
 30
0.0
 10
702.4057045770027
 20
-152.4254936684908
 30
0.0
 10
702.6248126498646
 20
-152.7810275225686
 30
0.0
 10
702.7681286220511
 20
-153.2454263939803
 30
0.0
 10
702.9114445942374
 20
-153.709825265392
 30
0.0
 10
702.9831025803306
 20
-154.2672417149054
 30
0.0
 10
702.9831025803306
 20
-154.9176757425206
 30
0.0
  0
HATCH
  5
CD
330
C5
100
AcDbEntity
  8
Calque 1
 62
    12
420
 14878227
440
 33554687
100
AcDbHatch
 10
0.0
 20
0.0
 30
0.0
210
0.0
220
0.0
230
1.0
  2
SOLID
 70
     1
 71
     1
 91
        2
 92
        1
 93
        1
 72
     4
 94
        3
 73
     0
 74
     0
 95
       41
 96
       37
 40
0.0
 40
0.0
 40
0.0
 40
0.0
 40
1.0
 40
1.0
 40
1.0
 40
2.0
 40
2.0
 40
2.0
 40
3.0
 40
3.0
 40
3.0
 40
4.0
 40
4.0
 40
4.0
 40
5.0
 40
5.0
 40
5.0
 40
6.0
 40
6.0
 40
6.0
 40
7.0
 40
7.0
 40
7.0
 40
8.0
 40
8.0
 40
8.0
 40
9.0
 40
9.0
 40
9.0
 40
10.0
 40
10.0
 40
10.0
 40
11.0
 40
11.0
 40
11.0
 40
12.0
 40
12.0
 40
12.0
 40
12.0
 10
699.6882132582377
 20
-154.9176757425206
 10
699.6882132582377
 20
-155.4799153257133
 10
699.7309324422547
 20
-155.9484483117073
 10
699.816370810289
 20
-156.3232747005025
 10
699.9018091783232
 20
-156.6981010892977
 10
700.0403020168302
 20
-156.978531861797
 10
700.2318493258101
 20
-157.1645670180005
 10
700.42339663479
 20
-157.350602174204
 10
700.6748886052132
 20
-157.4436197523058
 10
700.9863252370799
 20
-157.4436197523058
 10
701.2977618689464
 20
-157.4436197523058
 10
701.5492538393695
 20
-157.3512911933011
 10
701.7408011483495
 20
-157.1666340752917
 10
701.9323484573294
 20
-156.9819769572823
 10
702.0715303149335
 20
-156.70223520388
 10
702.1583467211618
 20
-156.3274088150848
 10
702.2451631273901
 20
-155.9525824262896
 10
702.2885713305043
 20
-155.4826714021015
 10
702.2885713305043
 20
-154.9176757425206
 10
702.2885713305043
 20
-154.3637043884924
 10
702.2458521464872
 20
-153.8999945361778
 10
702.1604137784529
 20
-153.5265461855767
 10
702.0749754104188
 20
-153.1530978349756
 10
701.9371715910088
 20
-152.8719780433792
 10
701.747002320223
 20
-152.6831868107875
 10
701.5568330494371
 20
-152.4943955781958
 10
701.3032740217227
 20
-152.3999999619
 10
700.9863252370799
 20
-152.3999999619
 10
700.6693764524368
 20
-152.3999999619
 10
700.4158174247224
 20
-152.4943955781958
 10
700.2256481539367
 20
-152.6831868107875
 10
700.0354788831508
 20
-152.8719780433792
 10
699.8983640828379
 20
-153.1530978349756
 10
699.8143037529978
 20
-153.5265461855767
 10
699.7302434231577
 20
-153.8999945361778
 10
699.6882132582377
 20
-154.3637043884924
 10
699.6882132582377
 20
-154.9176757425206
 97
        0
 97
        1
330
CB
 92
        1
 93
        1
 72
     4
 94
        3
 73
     0
 74
     0
 95
       44
 96
       40
 40
0.0
 40
0.0
 40
0.0
 40
0.0
 40
1.0
 40
1.0
 40
1.0
 40
2.0
 40
2.0
 40
2.0
 40
3.0
 40
3.0
 40
3.0
 40
4.0
 40
4.0
 40
4.0
 40
5.0
 40
5.0
 40
5.0
 40
6.0
 40
6.0
 40
6.0
 40
7.0
 40
7.0
 40
7.0
 40
8.0
 40
8.0
 40
8.0
 40
9.0
 40
9.0
 40
9.0
 40
10.0
 40
10.0
 40
10.0
 40
11.0
 40
11.0
 40
11.0
 40
12.0
 40
12.0
 40
12.0
 40
13.0
 40
13.0
 40
13.0
 40
13.0
 10
702.9831025803306
 20
-154.9176757425206
 10
702.9831025803306
 20
-155.4082573396201
 10
702.9458955490899
 20
-155.8464734853439
 10
702.8714814866085
 20
-156.2323241796919
 10
702.7970674241271
 20
-156.6181748740399
 10
702.6799341776286
 20
-156.9447699260416
 10
702.520081747113
 20
-157.212109335697
 10
702.3602293165975
 20
-157.4794487453523
 10
702.1535235874824
 20
-157.6827093789821
 10
701.8999645597681
 20
-157.8218912365862
 10
701.6464055320536
 20
-157.9610730941903
 10
701.3418590911576
 20
-158.0306640229923
 10
700.9863252370799
 20
-158.0306640229923
 10
700.5370847858032
 20
-158.0306640229923
 10
700.1657034924932
 20
-157.9080186237174
 10
699.8721813571499
 20
-157.6627278251676
 10
699.5786592218068
 20
-157.4174370266178
 10
699.3595511489449
 20
-157.0625921916371
 10
699.2148571385643
 20
-156.5981933202254
 10
699.0701631281839
 20
-156.1337944488137
 10
698.9978161229936
 20
-155.5736219229121
 10
698.9978161229936
 20
-154.9176757425206
 10
698.9978161229936
 20
-154.2727538676818
 10
699.0632729372133
 20
-153.7180934945566
 10
699.1941865656529
 20
-153.2536946231449
 10
699.3251001940923
 20
-152.7892957517332
 10
699.5366290568867
 20
-152.4323838594613
 10
699.8287731540358
 20
-152.1829589463292
 10
700.1209172511851
 20
-151.9335340331972
 10
700.506767945533
 20
-151.8088215766311
 10
700.9863252370799
 20
-151.8088215766311
 10
701.4410778411328
 20
-151.8088215766311
 10
701.815904229928
 20
-151.9321559950031
 10
702.1108044034654
 20
-152.1788248317469
 10
702.4057045770027
 20
-152.4254936684908
 10
702.6248126498646
 20
-152.7810275225686
 10
702.7681286220511
 20
-153.2454263939803
 10
702.9114445942374
 20
-153.709825265392
 10
702.9831025803306
 20
-154.2672417149054
 10
702.9831025803306
 20
-154.9176757425206
 97
        0
 97
        1
330
CC
 75
     2
 76
     1
 98
        1
 10
0.0
 20
0.0
450
        0
451
        0
460
0.0
461
0.0
452
        0
462
0.0
453
        0
470

  0
SPLINE
  5
CE
330
C5
100
AcDbEntity
  8
Calque 1
100
AcDbSpline
210
0.0
220
0.0
230
1.0
 70
     9
 71
     3
 72
    83
 73
    79
 74
     0
 42
0.0000000001
 43
0.0000000001
 40
0.0
 40
0.0
 40
0.0
 40
0.0
 40
1.0
 40
1.0
 40
1.0
 40
2.0
 40
2.0
 40
2.0
 40
3.0
 40
3.0
 40
3.0
 40
4.0
 40
4.0
 40
4.0
 40
5.0
 40
5.0
 40
5.0
 40
6.0
 40
6.0
 40
6.0
 40
7.0
 40
7.0
 40
7.0
 40
8.0
 40
8.0
 40
8.0
 40
9.0
 40
9.0
 40
9.0
 40
10.0
 40
10.0
 40
10.0
 40
11.0
 40
11.0
 40
11.0
 40
12.0
 40
12.0
 40
12.0
 40
13.0
 40
13.0
 40
13.0
 40
14.0
 40
14.0
 40
14.0
 40
15.0
 40
15.0
 40
15.0
 40
16.0
 40
16.0
 40
16.0
 40
17.0
 40
17.0
 40
17.0
 40
18.0
 40
18.0
 40
18.0
 40
19.0
 40
19.0
 40
19.0
 40
20.0
 40
20.0
 40
20.0
 40
21.0
 40
21.0
 40
21.0
 40
22.0
 40
22.0
 40
22.0
 40
23.0
 40
23.0
 40
23.0
 40
24.0
 40
24.0
 40
24.0
 40
25.0
 40
25.0
 40
25.0
 40
26.0
 40
26.0
 40
26.0
 40
26.0
 10
705.7405570067246
 20
-154.2520832947703
 30
0.0
 10
706.1512123885663
 20
-154.2520832947703
 30
0.0
 10
706.5081242808382
 20
-154.3216742235723
 30
0.0
 10
706.8112926835403
 20
-154.4608560811765
 30
0.0
 10
707.1144610862423
 20
-154.6000379387805
 30
0.0
 10
707.3494165983362
 20
-154.8019205342161
 30
0.0
 10
707.5161592198224
 20
-155.0665038674834
 30
0.0
 10
707.6829018413084
 20
-155.3310872007505
 30
0.0
 10
707.7662731520515
 20
-155.6521700999758
 30
0.0
 10
707.7662731520515
 20
-156.0297525651592
 30
0.0
 10
707.7662731520515
 20
-156.4431640233892
 30
0.0
 10
707.676700669435
 20
-156.799386896564
 30
0.0
 10
707.4975557042019
 20
-157.0984211846837
 30
0.0
 10
707.3184107389691
 20
-157.3974554728034
 30
0.0
 10
707.0607175966723
 20
-157.6275878512181
 30
0.0
 10
706.7244762773119
 20
-157.7888183199278
 30
0.0
 10
706.3882349579515
 20
-157.9500487886375
 30
0.0
 10
705.9858478052744
 20
-158.0306640229923
 30
0.0
 10
705.5173148192803
 20
-158.0306640229923
 30
0.0
 10
705.2031221110256
 20
-158.0306640229923
 30
0.0
 10
704.9109780138764
 20
-158.0031032591103
 30
0.0
 10
704.6408825278328
 20
-157.9479817313463
 30
0.0
 10
704.3707870417892
 20
-157.8928602035823
 30
0.0
 10
704.1434107397627
 20
-157.8101779119363
 30
0.0
 10
703.9587536217534
 20
-157.6999348564083
 30
0.0
 10
703.9587536217534
 20
-157.6999348564083
 30
0.0
 10
703.9587536217534
 20
-157.046744752405
 30
0.0
 10
703.9587536217534
 20
-157.046744752405
 30
0.0
 10
704.159947198092
 20
-157.1680121134858
 30
0.0
 10
704.4038599584476
 20
-157.2644747870727
 30
0.0
 10
704.6904919028204
 20
-157.3361327731659
 30
0.0
 10
704.9771238471933
 20
-157.4077907592591
 30
0.0
 10
705.2554875624013
 20
-157.4436197523058
 30
0.0
 10
705.5255830484449
 20
-157.4436197523058
 30
0.0
 10
705.8315075275352
 20
-157.4436197523058
 30
0.0
 10
706.0995359562877
 20
-157.3946993964152
 30
0.0
 10
706.3296683347023
 20
-157.2968586846341
 30
0.0
 10
706.559800713117
 20
-157.199017972853
 30
0.0
 10
706.73894567835
 20
-157.0501898478902
 30
0.0
 10
706.8671032304012
 20
-156.8503743097457
 30
0.0
 10
706.9952607824526
 20
-156.6505587716012
 30
0.0
 10
707.0593395584782
 20
-156.399066801178
 30
0.0
 10
707.0593395584782
 20
-156.095898398476
 30
0.0
 10
707.0593395584782
 20
-155.6935112457988
 30
0.0
 10
706.9360051401063
 20
-155.3827636330293
 30
0.0
 10
706.6893363033624
 20
-155.1636555601674
 30
0.0
 10
706.4426674666186
 20
-154.9445474873055
 30
0.0
 10
706.0533716767853
 20
-154.8349934508746
 30
0.0
 10
705.5214489338627
 20
-154.8349934508746
 30
0.0
 10
705.3505721977943
 20
-154.8349934508746
 30
0.0
 10
705.1631590033967
 20
-154.8487738328156
 30
0.0
 10
704.9592093506699
 20
-154.8763345966976
 30
0.0
 10
704.7552596979431
 20
-154.9038953605796
 30
0.0
 10
704.587139038263
 20
-154.9342122008498
 30
0.0
 10
704.4548473716294
 20
-154.9672851175082
 30
0.0
 10
704.4548473716294
 20
-154.9672851175082
 30
0.0
 10
704.1075817467161
 20
-154.7399088154817
 30
0.0
 10
704.1075817467161
 20
-154.7399088154817
 30
0.0
 10
704.1075817467161
 20
-154.7399088154817
 30
0.0
 10
704.3390921633249
 20
-151.903906212024
 30
0.0
 10
704.3390921633249
 20
-151.903906212024
 30
0.0
 10
704.3390921633249
 20
-151.903906212024
 30
0.0
 10
707.3445934646569
 20
-151.903906212024
 30
0.0
 10
707.3445934646569
 20
-151.903906212024
 30
0.0
 10
707.3445934646569
 20
-151.903906212024
 30
0.0
 10
707.3445934646569
 20
-152.5322916285336
 30
0.0
 10
707.3445934646569
 20
-152.5322916285336
 30
0.0
 10
707.3445934646569
 20
-152.5322916285336
 30
0.0
 10
704.9261364340115
 20
-152.5322916285336
 30
0.0
 10
704.9261364340115
 20
-152.5322916285336
 30
0.0
 10
704.9261364340115
 20
-152.5322916285336
 30
0.0
 10
704.7731741944665
 20
-154.3554361593278
 30
0.0
 10
704.7731741944665
 20
-154.3554361593278
 30
0.0
 10
704.877905097218
 20
-154.3333875482222
 30
0.0
 10
705.0129528402399
 20
-154.3106499180195
 30
0.0
 10
705.1783174235318
 20
-154.2872232687198
 30
0.0
 10
705.3436820068238
 20
-154.2637966194201
 30
0.0
 10
705.5310952012214
 20
-154.2520832947703
 30
0.0
 10
705.7405570067246
 20
-154.2520832947703
 30
0.0
  0
HATCH
  5
CF
330
C5
100
AcDbEntity
  8
Calque 1
 62
    12
420
 14878227
440
 33554687
100
AcDbHatch
 10
0.0
 20
0.0
 30
0.0
210
0.0
220
0.0
230
1.0
  2
SOLID
 70
     1
 71
     1
 91
        1
 92
        1
 93
        1
 72
     4
 94
        3
 73
     0
 74
     0
 95
       83
 96
       79
 40
0.0
 40
0.0
 40
0.0
 40
0.0
 40
1.0
 40
1.0
 40
1.0
 40
2.0
 40
2.0
 40
2.0
 40
3.0
 40
3.0
 40
3.0
 40
4.0
 40
4.0
 40
4.0
 40
5.0
 40
5.0
 40
5.0
 40
6.0
 40
6.0
 40
6.0
 40
7.0
 40
7.0
 40
7.0
 40
8.0
 40
8.0
 40
8.0
 40
9.0
 40
9.0
 40
9.0
 40
10.0
 40
10.0
 40
10.0
 40
11.0
 40
11.0
 40
11.0
 40
12.0
 40
12.0
 40
12.0
 40
13.0
 40
13.0
 40
13.0
 40
14.0
 40
14.0
 40
14.0
 40
15.0
 40
15.0
 40
15.0
 40
16.0
 40
16.0
 40
16.0
 40
17.0
 40
17.0
 40
17.0
 40
18.0
 40
18.0
 40
18.0
 40
19.0
 40
19.0
 40
19.0
 40
20.0
 40
20.0
 40
20.0
 40
21.0
 40
21.0
 40
21.0
 40
22.0
 40
22.0
 40
22.0
 40
23.0
 40
23.0
 40
23.0
 40
24.0
 40
24.0
 40
24.0
 40
25.0
 40
25.0
 40
25.0
 40
26.0
 40
26.0
 40
26.0
 40
26.0
 10
705.7405570067246
 20
-154.2520832947703
 10
706.1512123885663
 20
-154.2520832947703
 10
706.5081242808382
 20
-154.3216742235723
 10
706.8112926835403
 20
-154.4608560811765
 10
707.1144610862423
 20
-154.6000379387805
 10
707.3494165983362
 20
-154.8019205342161
 10
707.5161592198224
 20
-155.0665038674834
 10
707.6829018413084
 20
-155.3310872007505
 10
707.7662731520515
 20
-155.6521700999758
 10
707.7662731520515
 20
-156.0297525651592
 10
707.7662731520515
 20
-156.4431640233892
 10
707.676700669435
 20
-156.799386896564
 10
707.4975557042019
 20
-157.0984211846837
 10
707.3184107389691
 20
-157.3974554728034
 10
707.0607175966723
 20
-157.6275878512181
 10
706.7244762773119
 20
-157.7888183199278
 10
706.3882349579515
 20
-157.9500487886375
 10
705.9858478052744
 20
-158.0306640229923
 10
705.5173148192803
 20
-158.0306640229923
 10
705.2031221110256
 20
-158.0306640229923
 10
704.9109780138764
 20
-158.0031032591103
 10
704.6408825278328
 20
-157.9479817313463
 10
704.3707870417892
 20
-157.8928602035823
 10
704.1434107397627
 20
-157.8101779119363
 10
703.9587536217534
 20
-157.6999348564083
 10
703.9587536217534
 20
-157.6999348564083
 10
703.9587536217534
 20
-157.046744752405
 10
703.9587536217534
 20
-157.046744752405
 10
704.159947198092
 20
-157.1680121134858
 10
704.4038599584476
 20
-157.2644747870727
 10
704.6904919028204
 20
-157.3361327731659
 10
704.9771238471933
 20
-157.4077907592591
 10
705.2554875624013
 20
-157.4436197523058
 10
705.5255830484449
 20
-157.4436197523058
 10
705.8315075275352
 20
-157.4436197523058
 10
706.0995359562877
 20
-157.3946993964152
 10
706.3296683347023
 20
-157.2968586846341
 10
706.559800713117
 20
-157.199017972853
 10
706.73894567835
 20
-157.0501898478902
 10
706.8671032304012
 20
-156.8503743097457
 10
706.9952607824526
 20
-156.6505587716012
 10
707.0593395584782
 20
-156.399066801178
 10
707.0593395584782
 20
-156.095898398476
 10
707.0593395584782
 20
-155.6935112457988
 10
706.9360051401063
 20
-155.3827636330293
 10
706.6893363033624
 20
-155.1636555601674
 10
706.4426674666186
 20
-154.9445474873055
 10
706.0533716767853
 20
-154.8349934508746
 10
705.5214489338627
 20
-154.8349934508746
 10
705.3505721977943
 20
-154.8349934508746
 10
705.1631590033967
 20
-154.8487738328156
 10
704.9592093506699
 20
-154.8763345966976
 10
704.7552596979431
 20
-154.9038953605796
 10
704.587139038263
 20
-154.9342122008498
 10
704.4548473716294
 20
-154.9672851175082
 10
704.4548473716294
 20
-154.9672851175082
 10
704.1075817467161
 20
-154.7399088154817
 10
704.1075817467161
 20
-154.7399088154817
 10
704.1075817467161
 20
-154.7399088154817
 10
704.3390921633249
 20
-151.903906212024
 10
704.3390921633249
 20
-151.903906212024
 10
704.3390921633249
 20
-151.903906212024
 10
707.3445934646569
 20
-151.903906212024
 10
707.3445934646569
 20
-151.903906212024
 10
707.3445934646569
 20
-151.903906212024
 10
707.3445934646569
 20
-152.5322916285336
 10
707.3445934646569
 20
-152.5322916285336
 10
707.3445934646569
 20
-152.5322916285336
 10
704.9261364340115
 20
-152.5322916285336
 10
704.9261364340115
 20
-152.5322916285336
 10
704.9261364340115
 20
-152.5322916285336
 10
704.7731741944665
 20
-154.3554361593278
 10
704.7731741944665
 20
-154.3554361593278
 10
704.877905097218
 20
-154.3333875482222
 10
705.0129528402399
 20
-154.3106499180195
 10
705.1783174235318
 20
-154.2872232687198
 10
705.3436820068238
 20
-154.2637966194201
 10
705.5310952012214
 20
-154.2520832947703
 10
705.7405570067246
 20
-154.2520832947703
 97
        0
 97
        1
330
CE
 75
     2
 76
     1
 98
        1
 10
0.0
 20
0.0
450
        0
451
        0
460
0.0
461
0.0
452
        0
462
0.0
453
        0
470

  0
SPLINE
  5
D0
330
C5
100
AcDbEntity
  8
Calque 1
100
AcDbSpline
210
0.0
220
0.0
230
1.0
 70
     9
 71
     3
 72
   101
 73
    97
 74
     0
 42
0.0000000001
 43
0.0000000001
 40
0.0
 40
0.0
 40
0.0
 40
0.0
 40
1.0
 40
1.0
 40
1.0
 40
2.0
 40
2.0
 40
2.0
 40
3.0
 40
3.0
 40
3.0
 40
4.0
 40
4.0
 40
4.0
 40
5.0
 40
5.0
 40
5.0
 40
6.0
 40
6.0
 40
6.0
 40
7.0
 40
7.0
 40
7.0
 40
8.0
 40
8.0
 40
8.0
 40
9.0
 40
9.0
 40
9.0
 40
10.0
 40
10.0
 40
10.0
 40
11.0
 40
11.0
 40
11.0
 40
12.0
 40
12.0
 40
12.0
 40
13.0
 40
13.0
 40
13.0
 40
14.0
 40
14.0
 40
14.0
 40
15.0
 40
15.0
 40
15.0
 40
16.0
 40
16.0
 40
16.0
 40
17.0
 40
17.0
 40
17.0
 40
18.0
 40
18.0
 40
18.0
 40
19.0
 40
19.0
 40
19.0
 40
20.0
 40
20.0
 40
20.0
 40
21.0
 40
21.0
 40
21.0
 40
22.0
 40
22.0
 40
22.0
 40
23.0
 40
23.0
 40
23.0
 40
24.0
 40
24.0
 40
24.0
 40
25.0
 40
25.0
 40
25.0
 40
26.0
 40
26.0
 40
26.0
 40
27.0
 40
27.0
 40
27.0
 40
28.0
 40
28.0
 40
28.0
 40
29.0
 40
29.0
 40
29.0
 40
30.0
 40
30.0
 40
30.0
 40
31.0
 40
31.0
 40
31.0
 40
32.0
 40
32.0
 40
32.0
 40
32.0
 10
716.0965140353856
 20
-153.3343098574997
 30
0.0
 10
716.5953638616498
 20
-153.3343098574997
 30
0.0
 10
716.9715682886391
 20
-153.4645344668422
 30
0.0
 10
717.2251273163534
 20
-153.7249836855271
 30
0.0
 10
717.4786863440679
 20
-153.985432904212
 30
0.0
 10
717.6054658579251
 20
-154.4036674961213
 30
0.0
 10
717.6054658579251
 20
-154.9796874612551
 30
0.0
 10
717.6054658579251
 20
-154.9796874612551
 30
0.0
 10
717.6054658579251
 20
-157.9479817313463
 30
0.0
 10
717.6054658579251
 20
-157.9479817313463
 30
0.0
 10
717.6054658579251
 20
-157.9479817313463
 30
0.0
 10
716.9274710664279
 20
-157.9479817313463
 30
0.0
 10
716.9274710664279
 20
-157.9479817313463
 30
0.0
 10
716.9274710664279
 20
-157.9479817313463
 30
0.0
 10
716.9274710664279
 20
-155.0127603779135
 30
0.0
 10
716.9274710664279
 20
-155.0127603779135
 30
0.0
 10
716.9274710664279
 20
-154.6462022182829
 30
0.0
 10
716.8482338702671
 20
-154.3712835985599
 30
0.0
 10
716.6897594779457
 20
-154.1880045187446
 30
0.0
 10
716.5312850856241
 20
-154.0047254389294
 30
0.0
 10
716.2963295735301
 20
-153.9130858990217
 30
0.0
 10
715.9848929416636
 20
-153.9130858990217
 30
0.0
 10
715.5466767959397
 20
-153.9130858990217
 30
0.0
 10
715.2283499731026
 20
-154.0398654128789
 30
0.0
 10
715.0299124731523
 20
-154.2934244405933
 30
0.0
 10
714.8314749732019
 20
-154.5469834683077
 30
0.0
 10
714.7322562232267
 20
-154.9204318189087
 30
0.0
 10
714.7322562232267
 20
-155.4137694923966
 30
0.0
 10
714.7322562232267
 20
-155.4137694923966
 30
0.0
 10
714.7322562232267
 20
-157.9479817313463
 30
0.0
 10
714.7322562232267
 20
-157.9479817313463
 30
0.0
 10
714.7322562232267
 20
-157.9479817313463
 30
0.0
 10
714.0501273171472
 20
-157.9479817313463
 30
0.0
 10
714.0501273171472
 20
-157.9479817313463
 30
0.0
 10
714.0501273171472
 20
-157.9479817313463
 30
0.0
 10
714.0501273171472
 20
-155.0127603779135
 30
0.0
 10
714.0501273171472
 20
-155.0127603779135
 30
0.0
 10
714.0501273171472
 20
-154.7674695793637
 30
0.0
 10
714.0149873431977
 20
-154.5635199266369
 30
0.0
 10
713.9447073952985
 20
-154.4009114197331
 30
0.0
 10
713.8744274473995
 20
-154.2383029128293
 30
0.0
 10
713.7696965446479
 20
-154.1163465326514
 30
0.0
 10
713.6305146870438
 20
-154.0350422791996
 30
0.0
 10
713.4913328294397
 20
-153.9537380257477
 30
0.0
 10
713.3156329596919
 20
-153.9130858990217
 30
0.0
 10
713.1034150778006
 20
-153.9130858990217
 30
0.0
 10
712.8030027514868
 20
-153.9130858990217
 30
0.0
 10
712.5618460675192
 20
-153.9750976177562
 30
0.0
 10
712.3799450258981
 20
-154.0991210552252
 30
0.0
 10
712.1980439842769
 20
-154.2231444926942
 30
0.0
 10
712.0664413367403
 20
-154.4071125916065
 30
0.0
 10
711.9851370832884
 20
-154.6510253519622
 30
0.0
 10
711.9038328298366
 20
-154.8949381123179
 30
0.0
 10
711.8631807031106
 20
-155.1946614195346
 30
0.0
 10
711.8631807031106
 20
-155.5501952736124
 30
0.0
 10
711.8631807031106
 20
-155.5501952736124
 30
0.0
 10
711.8631807031106
 20
-157.9479817313463
 30
0.0
 10
711.8631807031106
 20
-157.9479817313463
 30
0.0
 10
711.8631807031106
 20
-157.9479817313463
 30
0.0
 10
711.1769176824489
 20
-157.9479817313463
 30
0.0
 10
711.1769176824489
 20
-157.9479817313463
 30
0.0
 10
711.1769176824489
 20
-157.9479817313463
 30
0.0
 10
711.1769176824489
 20
-153.4169921491457
 30
0.0
 10
711.1769176824489
 20
-153.4169921491457
 30
0.0
 10
711.1769176824489
 20
-153.4169921491457
 30
0.0
 10
711.730889036477
 20
-153.4169921491457
 30
0.0
 10
711.730889036477
 20
-153.4169921491457
 30
0.0
 10
711.730889036477
 20
-153.4169921491457
 30
0.0
 10
711.8342419010344
 20
-154.0577799094022
 30
0.0
 10
711.8342419010344
 20
-154.0577799094022
 30
0.0
 10
711.8342419010344
 20
-154.0577799094022
 30
0.0
 10
711.8714489322752
 20
-154.0577799094022
 30
0.0
 10
711.8714489322752
 20
-154.0577799094022
 30
0.0
 10
711.9623994530858
 20
-153.9006835552748
 30
0.0
 10
712.0767766231961
 20
-153.7683918886412
 30
0.0
 10
712.2145804426061
 20
-153.6609049095014
 30
0.0
 10
712.3523842620161
 20
-153.5534179303616
 30
0.0
 10
712.5067245397552
 20
-153.4721136769097
 30
0.0
 10
712.6776012758236
 20
-153.4169921491457
 30
0.0
 10
712.848478011892
 20
-153.3618706213817
 30
0.0
 10
713.0303790535132
 20
-153.3343098574997
 30
0.0
 10
713.2233044006873
 20
-153.3343098574997
 30
0.0
 10
713.5678139492122
 20
-153.3343098574997
 30
0.0
 10
713.8565129508762
 20
-153.3983886335254
 30
0.0
 10
714.089401405679
 20
-153.5265461855767
 30
0.0
 10
714.3222898604819
 20
-153.654703737628
 30
0.0
 10
714.4910995392591
 20
-153.8496961420931
 30
0.0
 10
714.5958304420108
 20
-154.1115233989721
 30
0.0
 10
714.5958304420108
 20
-154.1115233989721
 30
0.0
 10
714.6330374732515
 20
-154.1115233989721
 30
0.0
 10
714.6330374732515
 20
-154.1115233989721
 30
0.0
 10
714.7818655982142
 20
-153.8496961420931
 30
0.0
 10
714.985815250941
 20
-153.654703737628
 30
0.0
 10
715.2448864314318
 20
-153.5265461855767
 30
0.0
 10
715.5039576119226
 20
-153.3983886335254
 30
0.0
 10
715.7878334799072
 20
-153.3343098574997
 30
0.0
 10
716.0965140353856
 20
-153.3343098574997
 30
0.0
  0
HATCH
  5
D1
330
C5
100
AcDbEntity
  8
Calque 1
 62
    12
420
 14878227
440
 33554687
100
AcDbHatch
 10
0.0
 20
0.0
 30
0.0
210
0.0
220
0.0
230
1.0
  2
SOLID
 70
     1
 71
     1
 91
        1
 92
        1
 93
        1
 72
     4
 94
        3
 73
     0
 74
     0
 95
      101
 96
       97
 40
0.0
 40
0.0
 40
0.0
 40
0.0
 40
1.0
 40
1.0
 40
1.0
 40
2.0
 40
2.0
 40
2.0
 40
3.0
 40
3.0
 40
3.0
 40
4.0
 40
4.0
 40
4.0
 40
5.0
 40
5.0
 40
5.0
 40
6.0
 40
6.0
 40
6.0
 40
7.0
 40
7.0
 40
7.0
 40
8.0
 40
8.0
 40
8.0
 40
9.0
 40
9.0
 40
9.0
 40
10.0
 40
10.0
 40
10.0
 40
11.0
 40
11.0
 40
11.0
 40
12.0
 40
12.0
 40
12.0
 40
13.0
 40
13.0
 40
13.0
 40
14.0
 40
14.0
 40
14.0
 40
15.0
 40
15.0
 40
15.0
 40
16.0
 40
16.0
 40
16.0
 40
17.0
 40
17.0
 40
17.0
 40
18.0
 40
18.0
 40
18.0
 40
19.0
 40
19.0
 40
19.0
 40
20.0
 40
20.0
 40
20.0
 40
21.0
 40
21.0
 40
21.0
 40
22.0
 40
22.0
 40
22.0
 40
23.0
 40
23.0
 40
23.0
 40
24.0
 40
24.0
 40
24.0
 40
25.0
 40
25.0
 40
25.0
 40
26.0
 40
26.0
 40
26.0
 40
27.0
 40
27.0
 40
27.0
 40
28.0
 40
28.0
 40
28.0
 40
29.0
 40
29.0
 40
29.0
 40
30.0
 40
30.0
 40
30.0
 40
31.0
 40
31.0
 40
31.0
 40
32.0
 40
32.0
 40
32.0
 40
32.0
 10
716.0965140353856
 20
-153.3343098574997
 10
716.5953638616498
 20
-153.3343098574997
 10
716.9715682886391
 20
-153.4645344668422
 10
717.2251273163534
 20
-153.7249836855271
 10
717.4786863440679
 20
-153.985432904212
 10
717.6054658579251
 20
-154.4036674961213
 10
717.6054658579251
 20
-154.9796874612551
 10
717.6054658579251
 20
-154.9796874612551
 10
717.6054658579251
 20
-157.9479817313463
 10
717.6054658579251
 20
-157.9479817313463
 10
717.6054658579251
 20
-157.9479817313463
 10
716.9274710664279
 20
-157.9479817313463
 10
716.9274710664279
 20
-157.9479817313463
 10
716.9274710664279
 20
-157.9479817313463
 10
716.9274710664279
 20
-155.0127603779135
 10
716.9274710664279
 20
-155.0127603779135
 10
716.9274710664279
 20
-154.6462022182829
 10
716.8482338702671
 20
-154.3712835985599
 10
716.6897594779457
 20
-154.1880045187446
 10
716.5312850856241
 20
-154.0047254389294
 10
716.2963295735301
 20
-153.9130858990217
 10
715.9848929416636
 20
-153.9130858990217
 10
715.5466767959397
 20
-153.9130858990217
 10
715.2283499731026
 20
-154.0398654128789
 10
715.0299124731523
 20
-154.2934244405933
 10
714.8314749732019
 20
-154.5469834683077
 10
714.7322562232267
 20
-154.9204318189087
 10
714.7322562232267
 20
-155.4137694923966
 10
714.7322562232267
 20
-155.4137694923966
 10
714.7322562232267
 20
-157.9479817313463
 10
714.7322562232267
 20
-157.9479817313463
 10
714.7322562232267
 20
-157.9479817313463
 10
714.0501273171472
 20
-157.9479817313463
 10
714.0501273171472
 20
-157.9479817313463
 10
714.0501273171472
 20
-157.9479817313463
 10
714.0501273171472
 20
-155.0127603779135
 10
714.0501273171472
 20
-155.0127603779135
 10
714.0501273171472
 20
-154.7674695793637
 10
714.0149873431977
 20
-154.5635199266369
 10
713.9447073952985
 20
-154.4009114197331
 10
713.8744274473995
 20
-154.2383029128293
 10
713.7696965446479
 20
-154.1163465326514
 10
713.6305146870438
 20
-154.0350422791996
 10
713.4913328294397
 20
-153.9537380257477
 10
713.3156329596919
 20
-153.9130858990217
 10
713.1034150778006
 20
-153.9130858990217
 10
712.8030027514868
 20
-153.9130858990217
 10
712.5618460675192
 20
-153.9750976177562
 10
712.3799450258981
 20
-154.0991210552252
 10
712.1980439842769
 20
-154.2231444926942
 10
712.0664413367403
 20
-154.4071125916065
 10
711.9851370832884
 20
-154.6510253519622
 10
711.9038328298366
 20
-154.8949381123179
 10
711.8631807031106
 20
-155.1946614195346
 10
711.8631807031106
 20
-155.5501952736124
 10
711.8631807031106
 20
-155.5501952736124
 10
711.8631807031106
 20
-157.9479817313463
 10
711.8631807031106
 20
-157.9479817313463
 10
711.8631807031106
 20
-157.9479817313463
 10
711.1769176824489
 20
-157.9479817313463
 10
711.1769176824489
 20
-157.9479817313463
 10
711.1769176824489
 20
-157.9479817313463
 10
711.1769176824489
 20
-153.4169921491457
 10
711.1769176824489
 20
-153.4169921491457
 10
711.1769176824489
 20
-153.4169921491457
 10
711.730889036477
 20
-153.4169921491457
 10
711.730889036477
 20
-153.4169921491457
 10
711.730889036477
 20
-153.4169921491457
 10
711.8342419010344
 20
-154.0577799094022
 10
711.8342419010344
 20
-154.0577799094022
 10
711.8342419010344
 20
-154.0577799094022
 10
711.8714489322752
 20
-154.0577799094022
 10
711.8714489322752
 20
-154.0577799094022
 10
711.9623994530858
 20
-153.9006835552748
 10
712.0767766231961
 20
-153.7683918886412
 10
712.2145804426061
 20
-153.6609049095014
 10
712.3523842620161
 20
-153.5534179303616
 10
712.5067245397552
 20
-153.4721136769097
 10
712.6776012758236
 20
-153.4169921491457
 10
712.848478011892
 20
-153.3618706213817
 10
713.0303790535132
 20
-153.3343098574997
 10
713.2233044006873
 20
-153.3343098574997
 10
713.5678139492122
 20
-153.3343098574997
 10
713.8565129508762
 20
-153.3983886335254
 10
714.089401405679
 20
-153.5265461855767
 10
714.3222898604819
 20
-153.654703737628
 10
714.4910995392591
 20
-153.8496961420931
 10
714.5958304420108
 20
-154.1115233989721
 10
714.5958304420108
 20
-154.1115233989721
 10
714.6330374732515
 20
-154.1115233989721
 10
714.6330374732515
 20
-154.1115233989721
 10
714.7818655982142
 20
-153.8496961420931
 10
714.985815250941
 20
-153.654703737628
 10
715.2448864314318
 20
-153.5265461855767
 10
715.5039576119226
 20
-153.3983886335254
 10
715.7878334799072
 20
-153.3343098574997
 10
716.0965140353856
 20
-153.3343098574997
 97
        0
 97
        1
330
D0
 75
     2
 76
     1
 98
        1
 10
0.0
 20
0.0
450
        0
451
        0
460
0.0
461
0.0
452
        0
462
0.0
453
        0
470

  0
SPLINE
  5
D2
330
C5
100
AcDbEntity
  8
Calque 1
100
AcDbSpline
210
0.0
220
0.0
230
1.0
 70
     9
 71
     3
 72
   101
 73
    97
 74
     0
 42
0.0000000001
 43
0.0000000001
 40
0.0
 40
0.0
 40
0.0
 40
0.0
 40
1.0
 40
1.0
 40
1.0
 40
2.0
 40
2.0
 40
2.0
 40
3.0
 40
3.0
 40
3.0
 40
4.0
 40
4.0
 40
4.0
 40
5.0
 40
5.0
 40
5.0
 40
6.0
 40
6.0
 40
6.0
 40
7.0
 40
7.0
 40
7.0
 40
8.0
 40
8.0
 40
8.0
 40
9.0
 40
9.0
 40
9.0
 40
10.0
 40
10.0
 40
10.0
 40
11.0
 40
11.0
 40
11.0
 40
12.0
 40
12.0
 40
12.0
 40
13.0
 40
13.0
 40
13.0
 40
14.0
 40
14.0
 40
14.0
 40
15.0
 40
15.0
 40
15.0
 40
16.0
 40
16.0
 40
16.0
 40
17.0
 40
17.0
 40
17.0
 40
18.0
 40
18.0
 40
18.0
 40
19.0
 40
19.0
 40
19.0
 40
20.0
 40
20.0
 40
20.0
 40
21.0
 40
21.0
 40
21.0
 40
22.0
 40
22.0
 40
22.0
 40
23.0
 40
23.0
 40
23.0
 40
24.0
 40
24.0
 40
24.0
 40
25.0
 40
25.0
 40
25.0
 40
26.0
 40
26.0
 40
26.0
 40
27.0
 40
27.0
 40
27.0
 40
28.0
 40
28.0
 40
28.0
 40
29.0
 40
29.0
 40
29.0
 40
30.0
 40
30.0
 40
30.0
 40
31.0
 40
31.0
 40
31.0
 40
32.0
 40
32.0
 40
32.0
 40
32.0
 10
723.934795283426
 20
-153.3343098574997
 30
0.0
 10
724.4336451096902
 20
-153.3343098574997
 30
0.0
 10
724.8098495366795
 20
-153.4645344668422
 30
0.0
 10
725.0634085643938
 20
-153.7249836855271
 30
0.0
 10
725.3169675921083
 20
-153.985432904212
 30
0.0
 10
725.4437471059654
 20
-154.4036674961213
 30
0.0
 10
725.4437471059654
 20
-154.9796874612551
 30
0.0
 10
725.4437471059654
 20
-154.9796874612551
 30
0.0
 10
725.4437471059654
 20
-157.9479817313463
 30
0.0
 10
725.4437471059654
 20
-157.9479817313463
 30
0.0
 10
725.4437471059654
 20
-157.9479817313463
 30
0.0
 10
724.7657523144682
 20
-157.9479817313463
 30
0.0
 10
724.7657523144682
 20
-157.9479817313463
 30
0.0
 10
724.7657523144682
 20
-157.9479817313463
 30
0.0
 10
724.7657523144682
 20
-155.0127603779135
 30
0.0
 10
724.7657523144682
 20
-155.0127603779135
 30
0.0
 10
724.7657523144682
 20
-154.6462022182829
 30
0.0
 10
724.6865151183076
 20
-154.3712835985599
 30
0.0
 10
724.5280407259861
 20
-154.1880045187446
 30
0.0
 10
724.3695663336645
 20
-154.0047254389294
 30
0.0
 10
724.1346108215704
 20
-153.9130858990217
 30
0.0
 10
723.8231741897039
 20
-153.9130858990217
 30
0.0
 10
723.3849580439802
 20
-153.9130858990217
 30
0.0
 10
723.0666312211431
 20
-154.0398654128789
 30
0.0
 10
722.8681937211927
 20
-154.2934244405933
 30
0.0
 10
722.6697562212422
 20
-154.5469834683077
 30
0.0
 10
722.5705374712671
 20
-154.9204318189087
 30
0.0
 10
722.5705374712671
 20
-155.4137694923966
 30
0.0
 10
722.5705374712671
 20
-155.4137694923966
 30
0.0
 10
722.5705374712671
 20
-157.9479817313463
 30
0.0
 10
722.5705374712671
 20
-157.9479817313463
 30
0.0
 10
722.5705374712671
 20
-157.9479817313463
 30
0.0
 10
721.8884085651876
 20
-157.9479817313463
 30
0.0
 10
721.8884085651876
 20
-157.9479817313463
 30
0.0
 10
721.8884085651876
 20
-157.9479817313463
 30
0.0
 10
721.8884085651876
 20
-155.0127603779135
 30
0.0
 10
721.8884085651876
 20
-155.0127603779135
 30
0.0
 10
721.8884085651876
 20
-154.7674695793637
 30
0.0
 10
721.8532685912381
 20
-154.5635199266369
 30
0.0
 10
721.7829886433389
 20
-154.4009114197331
 30
0.0
 10
721.7127086954398
 20
-154.2383029128293
 30
0.0
 10
721.6079777926883
 20
-154.1163465326514
 30
0.0
 10
721.4687959350842
 20
-154.0350422791996
 30
0.0
 10
721.3296140774801
 20
-153.9537380257477
 30
0.0
 10
721.1539142077324
 20
-153.9130858990217
 30
0.0
 10
720.9416963258409
 20
-153.9130858990217
 30
0.0
 10
720.6412839995272
 20
-153.9130858990217
 30
0.0
 10
720.4001273155597
 20
-153.9750976177562
 30
0.0
 10
720.2182262739385
 20
-154.0991210552252
 30
0.0
 10
720.0363252323174
 20
-154.2231444926942
 30
0.0
 10
719.9047225847807
 20
-154.4071125916065
 30
0.0
 10
719.8234183313289
 20
-154.6510253519622
 30
0.0
 10
719.742114077877
 20
-154.8949381123179
 30
0.0
 10
719.701461951151
 20
-155.1946614195346
 30
0.0
 10
719.701461951151
 20
-155.5501952736124
 30
0.0
 10
719.701461951151
 20
-155.5501952736124
 30
0.0
 10
719.701461951151
 20
-157.9479817313463
 30
0.0
 10
719.701461951151
 20
-157.9479817313463
 30
0.0
 10
719.701461951151
 20
-157.9479817313463
 30
0.0
 10
719.0151989304893
 20
-157.9479817313463
 30
0.0
 10
719.0151989304893
 20
-157.9479817313463
 30
0.0
 10
719.0151989304893
 20
-157.9479817313463
 30
0.0
 10
719.0151989304893
 20
-153.4169921491457
 30
0.0
 10
719.0151989304893
 20
-153.4169921491457
 30
0.0
 10
719.0151989304893
 20
-153.4169921491457
 30
0.0
 10
719.5691702845174
 20
-153.4169921491457
 30
0.0
 10
719.5691702845174
 20
-153.4169921491457
 30
0.0
 10
719.5691702845174
 20
-153.4169921491457
 30
0.0
 10
719.6725231490749
 20
-154.0577799094022
 30
0.0
 10
719.6725231490749
 20
-154.0577799094022
 30
0.0
 10
719.6725231490749
 20
-154.0577799094022
 30
0.0
 10
719.7097301803156
 20
-154.0577799094022
 30
0.0
 10
719.7097301803156
 20
-154.0577799094022
 30
0.0
 10
719.8006807011262
 20
-153.9006835552748
 30
0.0
 10
719.9150578712365
 20
-153.7683918886412
 30
0.0
 10
720.0528616906465
 20
-153.6609049095014
 30
0.0
 10
720.1906655100565
 20
-153.5534179303616
 30
0.0
 10
720.3450057877956
 20
-153.4721136769097
 30
0.0
 10
720.515882523864
 20
-153.4169921491457
 30
0.0
 10
720.6867592599325
 20
-153.3618706213817
 30
0.0
 10
720.8686603015537
 20
-153.3343098574997
 30
0.0
 10
721.0615856487277
 20
-153.3343098574997
 30
0.0
 10
721.4060951972526
 20
-153.3343098574997
 30
0.0
 10
721.6947941989166
 20
-153.3983886335254
 30
0.0
 10
721.9276826537195
 20
-153.5265461855767
 30
0.0
 10
722.1605711085223
 20
-153.654703737628
 30
0.0
 10
722.3293807872996
 20
-153.8496961420931
 30
0.0
 10
722.4341116900513
 20
-154.1115233989721
 30
0.0
 10
722.4341116900513
 20
-154.1115233989721
 30
0.0
 10
722.4713187212919
 20
-154.1115233989721
 30
0.0
 10
722.4713187212919
 20
-154.1115233989721
 30
0.0
 10
722.6201468462546
 20
-153.8496961420931
 30
0.0
 10
722.8240964989814
 20
-153.654703737628
 30
0.0
 10
723.0831676794723
 20
-153.5265461855767
 30
0.0
 10
723.3422388599631
 20
-153.3983886335254
 30
0.0
 10
723.6261147279476
 20
-153.3343098574997
 30
0.0
 10
723.934795283426
 20
-153.3343098574997
 30
0.0
  0
HATCH
  5
D3
330
C5
100
AcDbEntity
  8
Calque 1
 62
    12
420
 14878227
440
 33554687
100
AcDbHatch
 10
0.0
 20
0.0
 30
0.0
210
0.0
220
0.0
230
1.0
  2
SOLID
 70
     1
 71
     1
 91
        1
 92
        1
 93
        1
 72
     4
 94
        3
 73
     0
 74
     0
 95
      101
 96
       97
 40
0.0
 40
0.0
 40
0.0
 40
0.0
 40
1.0
 40
1.0
 40
1.0
 40
2.0
 40
2.0
 40
2.0
 40
3.0
 40
3.0
 40
3.0
 40
4.0
 40
4.0
 40
4.0
 40
5.0
 40
5.0
 40
5.0
 40
6.0
 40
6.0
 40
6.0
 40
7.0
 40
7.0
 40
7.0
 40
8.0
 40
8.0
 40
8.0
 40
9.0
 40
9.0
 40
9.0
 40
10.0
 40
10.0
 40
10.0
 40
11.0
 40
11.0
 40
11.0
 40
12.0
 40
12.0
 40
12.0
 40
13.0
 40
13.0
 40
13.0
 40
14.0
 40
14.0
 40
14.0
 40
15.0
 40
15.0
 40
15.0
 40
16.0
 40
16.0
 40
16.0
 40
17.0
 40
17.0
 40
17.0
 40
18.0
 40
18.0
 40
18.0
 40
19.0
 40
19.0
 40
19.0
 40
20.0
 40
20.0
 40
20.0
 40
21.0
 40
21.0
 40
21.0
 40
22.0
 40
22.0
 40
22.0
 40
23.0
 40
23.0
 40
23.0
 40
24.0
 40
24.0
 40
24.0
 40
25.0
 40
25.0
 40
25.0
 40
26.0
 40
26.0
 40
26.0
 40
27.0
 40
27.0
 40
27.0
 40
28.0
 40
28.0
 40
28.0
 40
29.0
 40
29.0
 40
29.0
 40
30.0
 40
30.0
 40
30.0
 40
31.0
 40
31.0
 40
31.0
 40
32.0
 40
32.0
 40
32.0
 40
32.0
 10
723.934795283426
 20
-153.3343098574997
 10
724.4336451096902
 20
-153.3343098574997
 10
724.8098495366795
 20
-153.4645344668422
 10
725.0634085643938
 20
-153.7249836855271
 10
725.3169675921083
 20
-153.985432904212
 10
725.4437471059654
 20
-154.4036674961213
 10
725.4437471059654
 20
-154.9796874612551
 10
725.4437471059654
 20
-154.9796874612551
 10
725.4437471059654
 20
-157.9479817313463
 10
725.4437471059654
 20
-157.9479817313463
 10
725.4437471059654
 20
-157.9479817313463
 10
724.7657523144682
 20
-157.9479817313463
 10
724.7657523144682
 20
-157.9479817313463
 10
724.7657523144682
 20
-157.9479817313463
 10
724.7657523144682
 20
-155.0127603779135
 10
724.7657523144682
 20
-155.0127603779135
 10
724.7657523144682
 20
-154.6462022182829
 10
724.6865151183076
 20
-154.3712835985599
 10
724.5280407259861
 20
-154.1880045187446
 10
724.3695663336645
 20
-154.0047254389294
 10
724.1346108215704
 20
-153.9130858990217
 10
723.8231741897039
 20
-153.9130858990217
 10
723.3849580439802
 20
-153.9130858990217
 10
723.0666312211431
 20
-154.0398654128789
 10
722.8681937211927
 20
-154.2934244405933
 10
722.6697562212422
 20
-154.5469834683077
 10
722.5705374712671
 20
-154.9204318189087
 10
722.5705374712671
 20
-155.4137694923966
 10
722.5705374712671
 20
-155.4137694923966
 10
722.5705374712671
 20
-157.9479817313463
 10
722.5705374712671
 20
-157.9479817313463
 10
722.5705374712671
 20
-157.9479817313463
 10
721.8884085651876
 20
-157.9479817313463
 10
721.8884085651876
 20
-157.9479817313463
 10
721.8884085651876
 20
-157.9479817313463
 10
721.8884085651876
 20
-155.0127603779135
 10
721.8884085651876
 20
-155.0127603779135
 10
721.8884085651876
 20
-154.7674695793637
 10
721.8532685912381
 20
-154.5635199266369
 10
721.7829886433389
 20
-154.4009114197331
 10
721.7127086954398
 20
-154.2383029128293
 10
721.6079777926883
 20
-154.1163465326514
 10
721.4687959350842
 20
-154.0350422791996
 10
721.3296140774801
 20
-153.9537380257477
 10
721.1539142077324
 20
-153.9130858990217
 10
720.9416963258409
 20
-153.9130858990217
 10
720.6412839995272
 20
-153.9130858990217
 10
720.4001273155597
 20
-153.9750976177562
 10
720.2182262739385
 20
-154.0991210552252
 10
720.0363252323174
 20
-154.2231444926942
 10
719.9047225847807
 20
-154.4071125916065
 10
719.8234183313289
 20
-154.6510253519622
 10
719.742114077877
 20
-154.8949381123179
 10
719.701461951151
 20
-155.1946614195346
 10
719.701461951151
 20
-155.5501952736124
 10
719.701461951151
 20
-155.5501952736124
 10
719.701461951151
 20
-157.9479817313463
 10
719.701461951151
 20
-157.9479817313463
 10
719.701461951151
 20
-157.9479817313463
 10
719.0151989304893
 20
-157.9479817313463
 10
719.0151989304893
 20
-157.9479817313463
 10
719.0151989304893
 20
-157.9479817313463
 10
719.0151989304893
 20
-153.4169921491457
 10
719.0151989304893
 20
-153.4169921491457
 10
719.0151989304893
 20
-153.4169921491457
 10
719.5691702845174
 20
-153.4169921491457
 10
719.5691702845174
 20
-153.4169921491457
 10
719.5691702845174
 20
-153.4169921491457
 10
719.6725231490749
 20
-154.0577799094022
 10
719.6725231490749
 20
-154.0577799094022
 10
719.6725231490749
 20
-154.0577799094022
 10
719.7097301803156
 20
-154.0577799094022
 10
719.7097301803156
 20
-154.0577799094022
 10
719.8006807011262
 20
-153.9006835552748
 10
719.9150578712365
 20
-153.7683918886412
 10
720.0528616906465
 20
-153.6609049095014
 10
720.1906655100565
 20
-153.5534179303616
 10
720.3450057877956
 20
-153.4721136769097
 10
720.515882523864
 20
-153.4169921491457
 10
720.6867592599325
 20
-153.3618706213817
 10
720.8686603015537
 20
-153.3343098574997
 10
721.0615856487277
 20
-153.3343098574997
 10
721.4060951972526
 20
-153.3343098574997
 10
721.6947941989166
 20
-153.3983886335254
 10
721.9276826537195
 20
-153.5265461855767
 10
722.1605711085223
 20
-153.654703737628
 10
722.3293807872996
 20
-153.8496961420931
 10
722.4341116900513
 20
-154.1115233989721
 10
722.4341116900513
 20
-154.1115233989721
 10
722.4713187212919
 20
-154.1115233989721
 10
722.4713187212919
 20
-154.1115233989721
 10
722.6201468462546
 20
-153.8496961420931
 10
722.8240964989814
 20
-153.654703737628
 10
723.0831676794723
 20
-153.5265461855767
 10
723.3422388599631
 20
-153.3983886335254
 10
723.6261147279476
 20
-153.3343098574997
 10
723.934795283426
 20
-153.3343098574997
 97
        0
 97
        1
330
D2
 75
     2
 76
     1
 98
        1
 10
0.0
 20
0.0
450
        0
451
        0
460
0.0
461
0.0
452
        0
462
0.0
453
        0
470

  0
ENDBLK
  5
C8
330
C5
100
AcDbEntity
  8
0
100
AcDbBlockEnd
  0
BLOCK
  5
D6
330
D4
100
AcDbEntity
  8
0
100
AcDbBlockBegin
  2
Block_8
 70
     0
 10
0.0
 20
0.0
 30
0.0
  3
Block_8
  1

  0
INSERT
  5
D9
330
D4
100
AcDbEntity
  8
Calque 1
100
AcDbBlockReference
  2
Block_9
 10
0.0
 20
0.0
 30
0.0
  0
ENDBLK
  5
D7
330
D4
100
AcDbEntity
  8
0
100
AcDbBlockEnd
  0
BLOCK
  5
DA
330
D8
100
AcDbEntity
  8
0
100
AcDbBlockBegin
  2
Block_9
 70
     0
 10
0.0
 20
0.0
 30
0.0
  3
Block_9
  1

  0
SPLINE
  5
DC
330
D8
100
AcDbEntity
  8
Calque 1
100
AcDbSpline
210
0.0
220
0.0
230
1.0
 70
    11
 71
     3
 72
    77
 73
    73
 74
     0
 42
0.0000000001
 43
0.0000000001
 40
0.0
 40
0.0
 40
0.0
 40
0.0
 40
1.0
 40
1.0
 40
1.0
 40
2.0
 40
2.0
 40
2.0
 40
3.0
 40
3.0
 40
3.0
 40
4.0
 40
4.0
 40
4.0
 40
5.0
 40
5.0
 40
5.0
 40
6.0
 40
6.0
 40
6.0
 40
7.0
 40
7.0
 40
7.0
 40
8.0
 40
8.0
 40
8.0
 40
9.0
 40
9.0
 40
9.0
 40
10.0
 40
10.0
 40
10.0
 40
11.0
 40
11.0
 40
11.0
 40
12.0
 40
12.0
 40
12.0
 40
13.0
 40
13.0
 40
13.0
 40
14.0
 40
14.0
 40
14.0
 40
15.0
 40
15.0
 40
15.0
 40
16.0
 40
16.0
 40
16.0
 40
17.0
 40
17.0
 40
17.0
 40
18.0
 40
18.0
 40
18.0
 40
19.0
 40
19.0
 40
19.0
 40
20.0
 40
20.0
 40
20.0
 40
21.0
 40
21.0
 40
21.0
 40
22.0
 40
22.0
 40
22.0
 40
23.0
 40
23.0
 40
23.0
 40
24.0
 40
24.0
 40
24.0
 40
24.0
 10
982.35519723705
 20
-155.6635389150772
 30
0.0
 10
982.35519723705
 20
-155.6635389150772
 30
0.0
 10
978.3947154672068
 20
-155.6635389150772
 30
0.0
 10
978.3947154672068
 20
-155.6635389150772
 30
0.0
 10
978.3947154672068
 20
-155.6635389150772
 30
0.0
 10
978.3947154672068
 20
-155.0888969881375
 30
0.0
 10
978.3947154672068
 20
-155.0888969881375
 30
0.0
 10
978.3947154672068
 20
-155.0888969881375
 30
0.0
 10
980.0111542688862
 20
-153.4476534989645
 30
0.0
 10
980.0111542688862
 20
-153.4476534989645
 30
0.0
 10
980.3115665951999
 20
-153.1444850962625
 30
0.0
 10
980.5644366038173
 20
-152.8743896102189
 30
0.0
 10
980.7697642947381
 20
-152.6373670408337
 30
0.0
 10
980.9750919856591
 20
-152.4003444714485
 30
0.0
 10
981.1314993206893
 20
-152.1667669975486
 30
0.0
 10
981.2389862998292
 20
-151.9366346191339
 30
0.0
 10
981.346473278969
 20
-151.7065022407192
 30
0.0
 10
981.4002167685387
 20
-151.4536322321019
 30
0.0
 10
981.4002167685387
 20
-151.1780245932819
 30
0.0
 10
981.4002167685387
 20
-150.8362711211451
 30
0.0
 10
981.2989309612724
 20
-150.5751328833632
 30
0.0
 10
981.0963593467398
 20
-150.394609879936
 30
0.0
 10
980.8937877322071
 20
-150.214086876509
 30
0.0
 10
980.6271373416487
 20
-150.1238253747954
 30
0.0
 10
980.2964081750648
 20
-150.1238253747954
 30
0.0
 10
980.0070201543038
 20
-150.1238253747954
 30
0.0
 10
979.7507050502012
 20
-150.173434749783
 30
0.0
 10
979.527462862757
 20
-150.2726534997582
 30
0.0
 10
979.3042206753128
 20
-150.3718722497334
 30
0.0
 10
979.0754663350922
 20
-150.5124321455316
 30
0.0
 10
978.8411998420952
 20
-150.6943331871528
 30
0.0
 10
978.8411998420952
 20
-150.6943331871528
 30
0.0
 10
978.4732636442706
 20
-150.2313123539352
 30
0.0
 10
978.4732636442706
 20
-150.2313123539352
 30
0.0
 10
978.6331160747861
 20
-150.0962646109134
 30
0.0
 10
978.8074379063399
 20
-149.9763752880267
 30
0.0
 10
978.9962291389315
 20
-149.8716443852751
 30
0.0
 10
979.1850203715233
 20
-149.7669134825235
 30
0.0
 10
979.3875919860559
 20
-149.6842311908775
 30
0.0
 10
979.6039439825296
 20
-149.6235975103371
 30
0.0
 10
979.8202959790032
 20
-149.5629638297967
 30
0.0
 10
980.0511173765151
 20
-149.5326469895266
 30
0.0
 10
980.2964081750648
 20
-149.5326469895266
 30
0.0
 10
980.6684784874718
 20
-149.5326469895266
 30
0.0
 10
980.989561386697
 20
-149.5974147846492
 30
0.0
 10
981.2596568727407
 20
-149.7269503748946
 30
0.0
 10
981.5297523587842
 20
-149.85648596514
 30
0.0
 10
981.7385251451904
 20
-150.0411430831494
 30
0.0
 10
981.8859752319591
 20
-150.2809217289228
 30
0.0
 10
982.0334253187278
 20
-150.5207003746962
 30
0.0
 10
982.1071503621121
 20
-150.8059542808749
 30
0.0
 10
982.1071503621121
 20
-151.1366834474589
 30
0.0
 10
982.1071503621121
 20
-151.45638830849
 30
0.0
 10
982.0437606051836
 20
-151.7533555393186
 30
0.0
 10
981.9169810913264
 20
-152.0275851399445
 30
0.0
 10
981.7902015774691
 20
-152.3018147405704
 30
0.0
 10
981.6124346504302
 20
-152.573288264808
 30
0.0
 10
981.3836803102097
 20
-152.8420057126576
 30
0.0
 10
981.1549259699891
 20
-153.110723160507
 30
0.0
 10
980.8875865603337
 20
-153.3952880475887
 30
0.0
 10
980.5816620812434
 20
-153.6957003739025
 30
0.0
 10
980.5816620812434
 20
-153.6957003739025
 30
0.0
 10
979.2670136440722
 20
-155.0062146964915
 30
0.0
 10
979.2670136440722
 20
-155.0062146964915
 30
0.0
 10
979.2670136440722
 20
-155.0062146964915
 30
0.0
 10
979.2670136440722
 20
-155.0351534985676
 30
0.0
 10
979.2670136440722
 20
-155.0351534985676
 30
0.0
 10
979.2670136440722
 20
-155.0351534985676
 30
0.0
 10
982.35519723705
 20
-155.0351534985676
 30
0.0
 10
982.35519723705
 20
-155.0351534985676
 30
0.0
 10
982.35519723705
 20
-155.0351534985676
 30
0.0
 10
982.35519723705
 20
-155.6635389150772
 30
0.0
 10
982.35519723705
 20
-155.6635389150772
 30
0.0
  0
HATCH
  5
DD
330
D8
100
AcDbEntity
  8
Calque 1
 62
    12
420
 14878227
440
 33554687
100
AcDbHatch
 10
0.0
 20
0.0
 30
0.0
210
0.0
220
0.0
230
1.0
  2
SOLID
 70
     1
 71
     1
 91
        1
 92
        1
 93
        1
 72
     4
 94
        3
 73
     0
 74
     0
 95
       77
 96
       73
 40
0.0
 40
0.0
 40
0.0
 40
0.0
 40
1.0
 40
1.0
 40
1.0
 40
2.0
 40
2.0
 40
2.0
 40
3.0
 40
3.0
 40
3.0
 40
4.0
 40
4.0
 40
4.0
 40
5.0
 40
5.0
 40
5.0
 40
6.0
 40
6.0
 40
6.0
 40
7.0
 40
7.0
 40
7.0
 40
8.0
 40
8.0
 40
8.0
 40
9.0
 40
9.0
 40
9.0
 40
10.0
 40
10.0
 40
10.0
 40
11.0
 40
11.0
 40
11.0
 40
12.0
 40
12.0
 40
12.0
 40
13.0
 40
13.0
 40
13.0
 40
14.0
 40
14.0
 40
14.0
 40
15.0
 40
15.0
 40
15.0
 40
16.0
 40
16.0
 40
16.0
 40
17.0
 40
17.0
 40
17.0
 40
18.0
 40
18.0
 40
18.0
 40
19.0
 40
19.0
 40
19.0
 40
20.0
 40
20.0
 40
20.0
 40
21.0
 40
21.0
 40
21.0
 40
22.0
 40
22.0
 40
22.0
 40
23.0
 40
23.0
 40
23.0
 40
24.0
 40
24.0
 40
24.0
 40
24.0
 10
982.35519723705
 20
-155.6635389150772
 10
982.35519723705
 20
-155.6635389150772
 10
978.3947154672068
 20
-155.6635389150772
 10
978.3947154672068
 20
-155.6635389150772
 10
978.3947154672068
 20
-155.6635389150772
 10
978.3947154672068
 20
-155.0888969881375
 10
978.3947154672068
 20
-155.0888969881375
 10
978.3947154672068
 20
-155.0888969881375
 10
980.0111542688862
 20
-153.4476534989645
 10
980.0111542688862
 20
-153.4476534989645
 10
980.3115665951999
 20
-153.1444850962625
 10
980.5644366038173
 20
-152.8743896102189
 10
980.7697642947381
 20
-152.6373670408337
 10
980.9750919856591
 20
-152.4003444714485
 10
981.1314993206893
 20
-152.1667669975486
 10
981.2389862998292
 20
-151.9366346191339
 10
981.346473278969
 20
-151.7065022407192
 10
981.4002167685387
 20
-151.4536322321019
 10
981.4002167685387
 20
-151.1780245932819
 10
981.4002167685387
 20
-150.8362711211451
 10
981.2989309612724
 20
-150.5751328833632
 10
981.0963593467398
 20
-150.394609879936
 10
980.8937877322071
 20
-150.214086876509
 10
980.6271373416487
 20
-150.1238253747954
 10
980.2964081750648
 20
-150.1238253747954
 10
980.0070201543038
 20
-150.1238253747954
 10
979.7507050502012
 20
-150.173434749783
 10
979.527462862757
 20
-150.2726534997582
 10
979.3042206753128
 20
-150.3718722497334
 10
979.0754663350922
 20
-150.5124321455316
 10
978.8411998420952
 20
-150.6943331871528
 10
978.8411998420952
 20
-150.6943331871528
 10
978.4732636442706
 20
-150.2313123539352
 10
978.4732636442706
 20
-150.2313123539352
 10
978.6331160747861
 20
-150.0962646109134
 10
978.8074379063399
 20
-149.9763752880267
 10
978.9962291389315
 20
-149.8716443852751
 10
979.1850203715233
 20
-149.7669134825235
 10
979.3875919860559
 20
-149.6842311908775
 10
979.6039439825296
 20
-149.6235975103371
 10
979.8202959790032
 20
-149.5629638297967
 10
980.0511173765151
 20
-149.5326469895266
 10
980.2964081750648
 20
-149.5326469895266
 10
980.6684784874718
 20
-149.5326469895266
 10
980.989561386697
 20
-149.5974147846492
 10
981.2596568727407
 20
-149.7269503748946
 10
981.5297523587842
 20
-149.85648596514
 10
981.7385251451904
 20
-150.0411430831494
 10
981.8859752319591
 20
-150.2809217289228
 10
982.0334253187278
 20
-150.5207003746962
 10
982.1071503621121
 20
-150.8059542808749
 10
982.1071503621121
 20
-151.1366834474589
 10
982.1071503621121
 20
-151.45638830849
 10
982.0437606051836
 20
-151.7533555393186
 10
981.9169810913264
 20
-152.0275851399445
 10
981.7902015774691
 20
-152.3018147405704
 10
981.6124346504302
 20
-152.573288264808
 10
981.3836803102097
 20
-152.8420057126576
 10
981.1549259699891
 20
-153.110723160507
 10
980.8875865603337
 20
-153.3952880475887
 10
980.5816620812434
 20
-153.6957003739025
 10
980.5816620812434
 20
-153.6957003739025
 10
979.2670136440722
 20
-155.0062146964915
 10
979.2670136440722
 20
-155.0062146964915
 10
979.2670136440722
 20
-155.0062146964915
 10
979.2670136440722
 20
-155.0351534985676
 10
979.2670136440722
 20
-155.0351534985676
 10
979.2670136440722
 20
-155.0351534985676
 10
982.35519723705
 20
-155.0351534985676
 10
982.35519723705
 20
-155.0351534985676
 10
982.35519723705
 20
-155.0351534985676
 10
982.35519723705
 20
-155.6635389150772
 10
982.35519723705
 20
-155.6635389150772
 97
        0
 97
        1
330
DC
 75
     2
 76
     1
 98
        1
 10
0.0
 20
0.0
450
        0
451
        0
460
0.0
461
0.0
452
        0
462
0.0
453
        0
470

  0
SPLINE
  5
DE
330
D8
100
AcDbEntity
  8
Calque 1
100
AcDbSpline
210
0.0
220
0.0
230
1.0
 70
     9
 71
     3
 72
    83
 73
    79
 74
     0
 42
0.0000000001
 43
0.0000000001
 40
0.0
 40
0.0
 40
0.0
 40
0.0
 40
1.0
 40
1.0
 40
1.0
 40
2.0
 40
2.0
 40
2.0
 40
3.0
 40
3.0
 40
3.0
 40
4.0
 40
4.0
 40
4.0
 40
5.0
 40
5.0
 40
5.0
 40
6.0
 40
6.0
 40
6.0
 40
7.0
 40
7.0
 40
7.0
 40
8.0
 40
8.0
 40
8.0
 40
9.0
 40
9.0
 40
9.0
 40
10.0
 40
10.0
 40
10.0
 40
11.0
 40
11.0
 40
11.0
 40
12.0
 40
12.0
 40
12.0
 40
13.0
 40
13.0
 40
13.0
 40
14.0
 40
14.0
 40
14.0
 40
15.0
 40
15.0
 40
15.0
 40
16.0
 40
16.0
 40
16.0
 40
17.0
 40
17.0
 40
17.0
 40
18.0
 40
18.0
 40
18.0
 40
19.0
 40
19.0
 40
19.0
 40
20.0
 40
20.0
 40
20.0
 40
21.0
 40
21.0
 40
21.0
 40
22.0
 40
22.0
 40
22.0
 40
23.0
 40
23.0
 40
23.0
 40
24.0
 40
24.0
 40
24.0
 40
25.0
 40
25.0
 40
25.0
 40
26.0
 40
26.0
 40
26.0
 40
26.0
 10
985.1457245801025
 20
-151.9676404785011
 30
0.0
 10
985.5563799619442
 20
-151.9676404785011
 30
0.0
 10
985.9132918542162
 20
-152.0372314073032
 30
0.0
 10
986.2164602569182
 20
-152.1764132649073
 30
0.0
 10
986.5196286596201
 20
-152.3155951225114
 30
0.0
 10
986.7545841717141
 20
-152.517477717947
 30
0.0
 10
986.9213267932002
 20
-152.7820610512142
 30
0.0
 10
987.0880694146864
 20
-153.0466443844814
 30
0.0
 10
987.1714407254295
 20
-153.3677272837067
 30
0.0
 10
987.1714407254295
 20
-153.74530974889
 30
0.0
 10
987.1714407254295
 20
-154.15872120712
 30
0.0
 10
987.0818682428129
 20
-154.5149440802949
 30
0.0
 10
986.9027232775799
 20
-154.8139783684146
 30
0.0
 10
986.7235783123469
 20
-155.1130126565342
 30
0.0
 10
986.4658851700502
 20
-155.3431450349489
 30
0.0
 10
986.1296438506897
 20
-155.5043755036586
 30
0.0
 10
985.7934025313294
 20
-155.6656059723683
 30
0.0
 10
985.3910153786522
 20
-155.7462212067231
 30
0.0
 10
984.9224823926583
 20
-155.7462212067231
 30
0.0
 10
984.6082896844036
 20
-155.7462212067231
 30
0.0
 10
984.3161455872543
 20
-155.7186604428412
 30
0.0
 10
984.0460501012108
 20
-155.6635389150772
 30
0.0
 10
983.7759546151671
 20
-155.6084173873132
 30
0.0
 10
983.5485783131407
 20
-155.5257350956672
 30
0.0
 10
983.3639211951313
 20
-155.4154920401392
 30
0.0
 10
983.3639211951313
 20
-155.4154920401392
 30
0.0
 10
983.3639211951313
 20
-154.7623019361358
 30
0.0
 10
983.3639211951313
 20
-154.7623019361358
 30
0.0
 10
983.5651147714699
 20
-154.8835692972166
 30
0.0
 10
983.8090275318256
 20
-154.9800319708036
 30
0.0
 10
984.0956594761983
 20
-155.0516899568968
 30
0.0
 10
984.3822914205711
 20
-155.12334794299
 30
0.0
 10
984.6606551357792
 20
-155.1591769360366
 30
0.0
 10
984.9307506218229
 20
-155.1591769360366
 30
0.0
 10
985.236675100913
 20
-155.1591769360366
 30
0.0
 10
985.5047035296655
 20
-155.110256580146
 30
0.0
 10
985.7348359080802
 20
-155.0124158683649
 30
0.0
 10
985.9649682864949
 20
-154.9145751565838
 30
0.0
 10
986.1441132517279
 20
-154.765747031621
 30
0.0
 10
986.2722708037791
 20
-154.5659314934765
 30
0.0
 10
986.4004283558305
 20
-154.366115955332
 30
0.0
 10
986.4645071318561
 20
-154.1146239849088
 30
0.0
 10
986.4645071318561
 20
-153.8114555822068
 30
0.0
 10
986.4645071318561
 20
-153.4090684295297
 30
0.0
 10
986.3411727134842
 20
-153.0983208167601
 30
0.0
 10
986.0945038767402
 20
-152.8792127438982
 30
0.0
 10
985.8478350399964
 20
-152.6601046710364
 30
0.0
 10
985.4585392501631
 20
-152.5505506346054
 30
0.0
 10
984.9266165072405
 20
-152.5505506346054
 30
0.0
 10
984.7557397711723
 20
-152.5505506346054
 30
0.0
 10
984.5683265767746
 20
-152.5643310165464
 30
0.0
 10
984.3643769240479
 20
-152.5918917804284
 30
0.0
 10
984.160427271321
 20
-152.6194525443104
 30
0.0
 10
983.9923066116408
 20
-152.6497693845806
 30
0.0
 10
983.8600149450073
 20
-152.682842301239
 30
0.0
 10
983.8600149450073
 20
-152.682842301239
 30
0.0
 10
983.5127493200941
 20
-152.4554659992125
 30
0.0
 10
983.5127493200941
 20
-152.4554659992125
 30
0.0
 10
983.5127493200941
 20
-152.4554659992125
 30
0.0
 10
983.7442597367028
 20
-149.6194633957548
 30
0.0
 10
983.7442597367028
 20
-149.6194633957548
 30
0.0
 10
983.7442597367028
 20
-149.6194633957548
 30
0.0
 10
986.7497610380349
 20
-149.6194633957548
 30
0.0
 10
986.7497610380349
 20
-149.6194633957548
 30
0.0
 10
986.7497610380349
 20
-149.6194633957548
 30
0.0
 10
986.7497610380349
 20
-150.2478488122644
 30
0.0
 10
986.7497610380349
 20
-150.2478488122644
 30
0.0
 10
986.7497610380349
 20
-150.2478488122644
 30
0.0
 10
984.3313040073894
 20
-150.2478488122644
 30
0.0
 10
984.3313040073894
 20
-150.2478488122644
 30
0.0
 10
984.3313040073894
 20
-150.2478488122644
 30
0.0
 10
984.1783417678444
 20
-152.0709933430586
 30
0.0
 10
984.1783417678444
 20
-152.0709933430586
 30
0.0
 10
984.283072670596
 20
-152.048944731953
 30
0.0
 10
984.4181204136177
 20
-152.0262071017504
 30
0.0
 10
984.5834849969097
 20
-152.0027804524507
 30
0.0
 10
984.7488495802018
 20
-151.979353803151
 30
0.0
 10
984.9362627745993
 20
-151.9676404785011
 30
0.0
 10
985.1457245801025
 20
-151.9676404785011
 30
0.0
  0
HATCH
  5
DF
330
D8
100
AcDbEntity
  8
Calque 1
 62
    12
420
 14878227
440
 33554687
100
AcDbHatch
 10
0.0
 20
0.0
 30
0.0
210
0.0
220
0.0
230
1.0
  2
SOLID
 70
     1
 71
     1
 91
        1
 92
        1
 93
        1
 72
     4
 94
        3
 73
     0
 74
     0
 95
       83
 96
       79
 40
0.0
 40
0.0
 40
0.0
 40
0.0
 40
1.0
 40
1.0
 40
1.0
 40
2.0
 40
2.0
 40
2.0
 40
3.0
 40
3.0
 40
3.0
 40
4.0
 40
4.0
 40
4.0
 40
5.0
 40
5.0
 40
5.0
 40
6.0
 40
6.0
 40
6.0
 40
7.0
 40
7.0
 40
7.0
 40
8.0
 40
8.0
 40
8.0
 40
9.0
 40
9.0
 40
9.0
 40
10.0
 40
10.0
 40
10.0
 40
11.0
 40
11.0
 40
11.0
 40
12.0
 40
12.0
 40
12.0
 40
13.0
 40
13.0
 40
13.0
 40
14.0
 40
14.0
 40
14.0
 40
15.0
 40
15.0
 40
15.0
 40
16.0
 40
16.0
 40
16.0
 40
17.0
 40
17.0
 40
17.0
 40
18.0
 40
18.0
 40
18.0
 40
19.0
 40
19.0
 40
19.0
 40
20.0
 40
20.0
 40
20.0
 40
21.0
 40
21.0
 40
21.0
 40
22.0
 40
22.0
 40
22.0
 40
23.0
 40
23.0
 40
23.0
 40
24.0
 40
24.0
 40
24.0
 40
25.0
 40
25.0
 40
25.0
 40
26.0
 40
26.0
 40
26.0
 40
26.0
 10
985.1457245801025
 20
-151.9676404785011
 10
985.5563799619442
 20
-151.9676404785011
 10
985.9132918542162
 20
-152.0372314073032
 10
986.2164602569182
 20
-152.1764132649073
 10
986.5196286596201
 20
-152.3155951225114
 10
986.7545841717141
 20
-152.517477717947
 10
986.9213267932002
 20
-152.7820610512142
 10
987.0880694146864
 20
-153.0466443844814
 10
987.1714407254295
 20
-153.3677272837067
 10
987.1714407254295
 20
-153.74530974889
 10
987.1714407254295
 20
-154.15872120712
 10
987.0818682428129
 20
-154.5149440802949
 10
986.9027232775799
 20
-154.8139783684146
 10
986.7235783123469
 20
-155.1130126565342
 10
986.4658851700502
 20
-155.3431450349489
 10
986.1296438506897
 20
-155.5043755036586
 10
985.7934025313294
 20
-155.6656059723683
 10
985.3910153786522
 20
-155.7462212067231
 10
984.9224823926583
 20
-155.7462212067231
 10
984.6082896844036
 20
-155.7462212067231
 10
984.3161455872543
 20
-155.7186604428412
 10
984.0460501012108
 20
-155.6635389150772
 10
983.7759546151671
 20
-155.6084173873132
 10
983.5485783131407
 20
-155.5257350956672
 10
983.3639211951313
 20
-155.4154920401392
 10
983.3639211951313
 20
-155.4154920401392
 10
983.3639211951313
 20
-154.7623019361358
 10
983.3639211951313
 20
-154.7623019361358
 10
983.5651147714699
 20
-154.8835692972166
 10
983.8090275318256
 20
-154.9800319708036
 10
984.0956594761983
 20
-155.0516899568968
 10
984.3822914205711
 20
-155.12334794299
 10
984.6606551357792
 20
-155.1591769360366
 10
984.9307506218229
 20
-155.1591769360366
 10
985.236675100913
 20
-155.1591769360366
 10
985.5047035296655
 20
-155.110256580146
 10
985.7348359080802
 20
-155.0124158683649
 10
985.9649682864949
 20
-154.9145751565838
 10
986.1441132517279
 20
-154.765747031621
 10
986.2722708037791
 20
-154.5659314934765
 10
986.4004283558305
 20
-154.366115955332
 10
986.4645071318561
 20
-154.1146239849088
 10
986.4645071318561
 20
-153.8114555822068
 10
986.4645071318561
 20
-153.4090684295297
 10
986.3411727134842
 20
-153.0983208167601
 10
986.0945038767402
 20
-152.8792127438982
 10
985.8478350399964
 20
-152.6601046710364
 10
985.4585392501631
 20
-152.5505506346054
 10
984.9266165072405
 20
-152.5505506346054
 10
984.7557397711723
 20
-152.5505506346054
 10
984.5683265767746
 20
-152.5643310165464
 10
984.3643769240479
 20
-152.5918917804284
 10
984.160427271321
 20
-152.6194525443104
 10
983.9923066116408
 20
-152.6497693845806
 10
983.8600149450073
 20
-152.682842301239
 10
983.8600149450073
 20
-152.682842301239
 10
983.5127493200941
 20
-152.4554659992125
 10
983.5127493200941
 20
-152.4554659992125
 10
983.5127493200941
 20
-152.4554659992125
 10
983.7442597367028
 20
-149.6194633957548
 10
983.7442597367028
 20
-149.6194633957548
 10
983.7442597367028
 20
-149.6194633957548
 10
986.7497610380349
 20
-149.6194633957548
 10
986.7497610380349
 20
-149.6194633957548
 10
986.7497610380349
 20
-149.6194633957548
 10
986.7497610380349
 20
-150.2478488122644
 10
986.7497610380349
 20
-150.2478488122644
 10
986.7497610380349
 20
-150.2478488122644
 10
984.3313040073894
 20
-150.2478488122644
 10
984.3313040073894
 20
-150.2478488122644
 10
984.3313040073894
 20
-150.2478488122644
 10
984.1783417678444
 20
-152.0709933430586
 10
984.1783417678444
 20
-152.0709933430586
 10
984.283072670596
 20
-152.048944731953
 10
984.4181204136177
 20
-152.0262071017504
 10
984.5834849969097
 20
-152.0027804524507
 10
984.7488495802018
 20
-151.979353803151
 10
984.9362627745993
 20
-151.9676404785011
 10
985.1457245801025
 20
-151.9676404785011
 97
        0
 97
        1
330
DE
 75
     2
 76
     1
 98
        1
 10
0.0
 20
0.0
450
        0
451
        0
460
0.0
461
0.0
452
        0
462
0.0
453
        0
470

  0
SPLINE
  5
E0
330
D8
100
AcDbEntity
  8
Calque 1
100
AcDbSpline
210
0.0
220
0.0
230
1.0
 70
     9
 71
     3
 72
    41
 73
    37
 74
     0
 42
0.0000000001
 43
0.0000000001
 40
0.0
 40
0.0
 40
0.0
 40
0.0
 40
1.0
 40
1.0
 40
1.0
 40
2.0
 40
2.0
 40
2.0
 40
3.0
 40
3.0
 40
3.0
 40
4.0
 40
4.0
 40
4.0
 40
5.0
 40
5.0
 40
5.0
 40
6.0
 40
6.0
 40
6.0
 40
7.0
 40
7.0
 40
7.0
 40
8.0
 40
8.0
 40
8.0
 40
9.0
 40
9.0
 40
9.0
 40
10.0
 40
10.0
 40
10.0
 40
11.0
 40
11.0
 40
11.0
 40
12.0
 40
12.0
 40
12.0
 40
12.0
 10
988.7754771833618
 20
-152.6332329262514
 30
0.0
 10
988.7754771833618
 20
-153.1954725094442
 30
0.0
 10
988.8181963673789
 20
-153.6640054954381
 30
0.0
 10
988.903634735413
 20
-154.0388318842333
 30
0.0
 10
988.9890731034473
 20
-154.4136582730285
 30
0.0
 10
989.1275659419543
 20
-154.6940890455279
 30
0.0
 10
989.3191132509342
 20
-154.8801242017314
 30
0.0
 10
989.510660559914
 20
-155.0661593579348
 30
0.0
 10
989.7621525303373
 20
-155.1591769360366
 30
0.0
 10
990.0735891622039
 20
-155.1591769360366
 30
0.0
 10
990.3850257940703
 20
-155.1591769360366
 30
0.0
 10
990.6365177644936
 20
-155.0668483770319
 30
0.0
 10
990.8280650734736
 20
-154.8821912590225
 30
0.0
 10
991.0196123824535
 20
-154.6975341410131
 30
0.0
 10
991.1587942400576
 20
-154.4177923876108
 30
0.0
 10
991.2456106462858
 20
-154.0429659988156
 30
0.0
 10
991.3324270525141
 20
-153.6681396100204
 30
0.0
 10
991.3758352556284
 20
-153.1982285858324
 30
0.0
 10
991.3758352556284
 20
-152.6332329262514
 30
0.0
 10
991.3758352556284
 20
-152.0792615722232
 30
0.0
 10
991.3331160716111
 20
-151.6155517199086
 30
0.0
 10
991.247677703577
 20
-151.2421033693075
 30
0.0
 10
991.1622393355427
 20
-150.8686550187064
 30
0.0
 10
991.0244355161328
 20
-150.58753522711
 30
0.0
 10
990.834266245347
 20
-150.3987439945183
 30
0.0
 10
990.6440969745611
 20
-150.2099527619266
 30
0.0
 10
990.3905379468469
 20
-150.1155571456308
 30
0.0
 10
990.0735891622039
 20
-150.1155571456308
 30
0.0
 10
989.7566403775609
 20
-150.1155571456308
 30
0.0
 10
989.5030813498465
 20
-150.2099527619266
 30
0.0
 10
989.3129120790606
 20
-150.3987439945183
 30
0.0
 10
989.1227428082748
 20
-150.58753522711
 30
0.0
 10
988.9856280079619
 20
-150.8686550187064
 30
0.0
 10
988.9015676781218
 20
-151.2421033693075
 30
0.0
 10
988.8175073482818
 20
-151.6155517199086
 30
0.0
 10
988.7754771833618
 20
-152.0792615722232
 30
0.0
 10
988.7754771833618
 20
-152.6332329262514
 30
0.0
  0
SPLINE
  5
E1
330
D8
100
AcDbEntity
  8
Calque 1
100
AcDbSpline
210
0.0
220
0.0
230
1.0
 70
     9
 71
     3
 72
    44
 73
    40
 74
     0
 42
0.0000000001
 43
0.0000000001
 40
0.0
 40
0.0
 40
0.0
 40
0.0
 40
1.0
 40
1.0
 40
1.0
 40
2.0
 40
2.0
 40
2.0
 40
3.0
 40
3.0
 40
3.0
 40
4.0
 40
4.0
 40
4.0
 40
5.0
 40
5.0
 40
5.0
 40
6.0
 40
6.0
 40
6.0
 40
7.0
 40
7.0
 40
7.0
 40
8.0
 40
8.0
 40
8.0
 40
9.0
 40
9.0
 40
9.0
 40
10.0
 40
10.0
 40
10.0
 40
11.0
 40
11.0
 40
11.0
 40
12.0
 40
12.0
 40
12.0
 40
13.0
 40
13.0
 40
13.0
 40
13.0
 10
992.0703665054546
 20
-152.6332329262514
 30
0.0
 10
992.0703665054546
 20
-153.123814523351
 30
0.0
 10
992.033159474214
 20
-153.5620306690747
 30
0.0
 10
991.9587454117326
 20
-153.9478813634227
 30
0.0
 10
991.8843313492512
 20
-154.3337320577707
 30
0.0
 10
991.7671981027526
 20
-154.6603271097724
 30
0.0
 10
991.607345672237
 20
-154.9276665194278
 30
0.0
 10
991.4474932417215
 20
-155.1950059290832
 30
0.0
 10
991.2407875126065
 20
-155.3982665627129
 30
0.0
 10
990.9872284848921
 20
-155.537448420317
 30
0.0
 10
990.7336694571776
 20
-155.6766302779211
 30
0.0
 10
990.4291230162817
 20
-155.7462212067231
 30
0.0
 10
990.0735891622039
 20
-155.7462212067231
 30
0.0
 10
989.6243487109272
 20
-155.7462212067231
 30
0.0
 10
989.2529674176174
 20
-155.6235758074483
 30
0.0
 10
988.9594452822739
 20
-155.3782850088985
 30
0.0
 10
988.6659231469307
 20
-155.1329942103487
 30
0.0
 10
988.4468150740689
 20
-154.778149375368
 30
0.0
 10
988.3021210636885
 20
-154.3137505039563
 30
0.0
 10
988.1574270533079
 20
-153.8493516325446
 30
0.0
 10
988.0850800481177
 20
-153.289179106643
 30
0.0
 10
988.0850800481177
 20
-152.6332329262514
 30
0.0
 10
988.0850800481177
 20
-151.9883110514126
 30
0.0
 10
988.1505368623374
 20
-151.4336506782874
 30
0.0
 10
988.2814504907768
 20
-150.9692518068757
 30
0.0
 10
988.4123641192163
 20
-150.504852935464
 30
0.0
 10
988.6238929820107
 20
-150.1479410431922
 30
0.0
 10
988.9160370791598
 20
-149.8985161300601
 30
0.0
 10
989.2081811763091
 20
-149.649091216928
 30
0.0
 10
989.5940318706571
 20
-149.5243787603619
 30
0.0
 10
990.0735891622039
 20
-149.5243787603619
 30
0.0
 10
990.5283417662568
 20
-149.5243787603619
 30
0.0
 10
990.9031681550521
 20
-149.6477131787339
 30
0.0
 10
991.1980683285895
 20
-149.8943820154778
 30
0.0
 10
991.4929685021268
 20
-150.1410508522217
 30
0.0
 10
991.7120765749887
 20
-150.4965847062995
 30
0.0
 10
991.8553925471751
 20
-150.9609835777111
 30
0.0
 10
991.9987085193614
 20
-151.4253824491228
 30
0.0
 10
992.0703665054546
 20
-151.9827988986362
 30
0.0
 10
992.0703665054546
 20
-152.6332329262514
 30
0.0
  0
HATCH
  5
E2
330
D8
100
AcDbEntity
  8
Calque 1
 62
    12
420
 14878227
440
 33554687
100
AcDbHatch
 10
0.0
 20
0.0
 30
0.0
210
0.0
220
0.0
230
1.0
  2
SOLID
 70
     1
 71
     1
 91
        2
 92
        1
 93
        1
 72
     4
 94
        3
 73
     0
 74
     0
 95
       41
 96
       37
 40
0.0
 40
0.0
 40
0.0
 40
0.0
 40
1.0
 40
1.0
 40
1.0
 40
2.0
 40
2.0
 40
2.0
 40
3.0
 40
3.0
 40
3.0
 40
4.0
 40
4.0
 40
4.0
 40
5.0
 40
5.0
 40
5.0
 40
6.0
 40
6.0
 40
6.0
 40
7.0
 40
7.0
 40
7.0
 40
8.0
 40
8.0
 40
8.0
 40
9.0
 40
9.0
 40
9.0
 40
10.0
 40
10.0
 40
10.0
 40
11.0
 40
11.0
 40
11.0
 40
12.0
 40
12.0
 40
12.0
 40
12.0
 10
988.7754771833618
 20
-152.6332329262514
 10
988.7754771833618
 20
-153.1954725094442
 10
988.8181963673789
 20
-153.6640054954381
 10
988.903634735413
 20
-154.0388318842333
 10
988.9890731034473
 20
-154.4136582730285
 10
989.1275659419543
 20
-154.6940890455279
 10
989.3191132509342
 20
-154.8801242017314
 10
989.510660559914
 20
-155.0661593579348
 10
989.7621525303373
 20
-155.1591769360366
 10
990.0735891622039
 20
-155.1591769360366
 10
990.3850257940703
 20
-155.1591769360366
 10
990.6365177644936
 20
-155.0668483770319
 10
990.8280650734736
 20
-154.8821912590225
 10
991.0196123824535
 20
-154.6975341410131
 10
991.1587942400576
 20
-154.4177923876108
 10
991.2456106462858
 20
-154.0429659988156
 10
991.3324270525141
 20
-153.6681396100204
 10
991.3758352556284
 20
-153.1982285858324
 10
991.3758352556284
 20
-152.6332329262514
 10
991.3758352556284
 20
-152.0792615722232
 10
991.3331160716111
 20
-151.6155517199086
 10
991.247677703577
 20
-151.2421033693075
 10
991.1622393355427
 20
-150.8686550187064
 10
991.0244355161328
 20
-150.58753522711
 10
990.834266245347
 20
-150.3987439945183
 10
990.6440969745611
 20
-150.2099527619266
 10
990.3905379468469
 20
-150.1155571456308
 10
990.0735891622039
 20
-150.1155571456308
 10
989.7566403775609
 20
-150.1155571456308
 10
989.5030813498465
 20
-150.2099527619266
 10
989.3129120790606
 20
-150.3987439945183
 10
989.1227428082748
 20
-150.58753522711
 10
988.9856280079619
 20
-150.8686550187064
 10
988.9015676781218
 20
-151.2421033693075
 10
988.8175073482818
 20
-151.6155517199086
 10
988.7754771833618
 20
-152.0792615722232
 10
988.7754771833618
 20
-152.6332329262514
 97
        0
 97
        1
330
E0
 92
        1
 93
        1
 72
     4
 94
        3
 73
     0
 74
     0
 95
       44
 96
       40
 40
0.0
 40
0.0
 40
0.0
 40
0.0
 40
1.0
 40
1.0
 40
1.0
 40
2.0
 40
2.0
 40
2.0
 40
3.0
 40
3.0
 40
3.0
 40
4.0
 40
4.0
 40
4.0
 40
5.0
 40
5.0
 40
5.0
 40
6.0
 40
6.0
 40
6.0
 40
7.0
 40
7.0
 40
7.0
 40
8.0
 40
8.0
 40
8.0
 40
9.0
 40
9.0
 40
9.0
 40
10.0
 40
10.0
 40
10.0
 40
11.0
 40
11.0
 40
11.0
 40
12.0
 40
12.0
 40
12.0
 40
13.0
 40
13.0
 40
13.0
 40
13.0
 10
992.0703665054546
 20
-152.6332329262514
 10
992.0703665054546
 20
-153.123814523351
 10
992.033159474214
 20
-153.5620306690747
 10
991.9587454117326
 20
-153.9478813634227
 10
991.8843313492512
 20
-154.3337320577707
 10
991.7671981027526
 20
-154.6603271097724
 10
991.607345672237
 20
-154.9276665194278
 10
991.4474932417215
 20
-155.1950059290832
 10
991.2407875126065
 20
-155.3982665627129
 10
990.9872284848921
 20
-155.537448420317
 10
990.7336694571776
 20
-155.6766302779211
 10
990.4291230162817
 20
-155.7462212067231
 10
990.0735891622039
 20
-155.7462212067231
 10
989.6243487109272
 20
-155.7462212067231
 10
989.2529674176174
 20
-155.6235758074483
 10
988.9594452822739
 20
-155.3782850088985
 10
988.6659231469307
 20
-155.1329942103487
 10
988.4468150740689
 20
-154.778149375368
 10
988.3021210636885
 20
-154.3137505039563
 10
988.1574270533079
 20
-153.8493516325446
 10
988.0850800481177
 20
-153.289179106643
 10
988.0850800481177
 20
-152.6332329262514
 10
988.0850800481177
 20
-151.9883110514126
 10
988.1505368623374
 20
-151.4336506782874
 10
988.2814504907768
 20
-150.9692518068757
 10
988.4123641192163
 20
-150.504852935464
 10
988.6238929820107
 20
-150.1479410431922
 10
988.9160370791598
 20
-149.8985161300601
 10
989.2081811763091
 20
-149.649091216928
 10
989.5940318706571
 20
-149.5243787603619
 10
990.0735891622039
 20
-149.5243787603619
 10
990.5283417662568
 20
-149.5243787603619
 10
990.9031681550521
 20
-149.6477131787339
 10
991.1980683285895
 20
-149.8943820154778
 10
991.4929685021268
 20
-150.1410508522217
 10
991.7120765749887
 20
-150.4965847062995
 10
991.8553925471751
 20
-150.9609835777111
 10
991.9987085193614
 20
-151.4253824491228
 10
992.0703665054546
 20
-151.9827988986362
 10
992.0703665054546
 20
-152.6332329262514
 97
        0
 97
        1
330
E1
 75
     2
 76
     1
 98
        1
 10
0.0
 20
0.0
450
        0
451
        0
460
0.0
461
0.0
452
        0
462
0.0
453
        0
470

  0
SPLINE
  5
E3
330
D8
100
AcDbEntity
  8
Calque 1
100
AcDbSpline
210
0.0
220
0.0
230
1.0
 70
     9
 71
     3
 72
   101
 73
    97
 74
     0
 42
0.0000000001
 43
0.0000000001
 40
0.0
 40
0.0
 40
0.0
 40
0.0
 40
1.0
 40
1.0
 40
1.0
 40
2.0
 40
2.0
 40
2.0
 40
3.0
 40
3.0
 40
3.0
 40
4.0
 40
4.0
 40
4.0
 40
5.0
 40
5.0
 40
5.0
 40
6.0
 40
6.0
 40
6.0
 40
7.0
 40
7.0
 40
7.0
 40
8.0
 40
8.0
 40
8.0
 40
9.0
 40
9.0
 40
9.0
 40
10.0
 40
10.0
 40
10.0
 40
11.0
 40
11.0
 40
11.0
 40
12.0
 40
12.0
 40
12.0
 40
13.0
 40
13.0
 40
13.0
 40
14.0
 40
14.0
 40
14.0
 40
15.0
 40
15.0
 40
15.0
 40
16.0
 40
16.0
 40
16.0
 40
17.0
 40
17.0
 40
17.0
 40
18.0
 40
18.0
 40
18.0
 40
19.0
 40
19.0
 40
19.0
 40
20.0
 40
20.0
 40
20.0
 40
21.0
 40
21.0
 40
21.0
 40
22.0
 40
22.0
 40
22.0
 40
23.0
 40
23.0
 40
23.0
 40
24.0
 40
24.0
 40
24.0
 40
25.0
 40
25.0
 40
25.0
 40
26.0
 40
26.0
 40
26.0
 40
27.0
 40
27.0
 40
27.0
 40
28.0
 40
28.0
 40
28.0
 40
29.0
 40
29.0
 40
29.0
 40
30.0
 40
30.0
 40
30.0
 40
31.0
 40
31.0
 40
31.0
 40
32.0
 40
32.0
 40
32.0
 40
32.0
 10
1000.342729784637
 20
-151.0498670412306
 30
0.0
 10
1000.8415796109
 20
-151.0498670412306
 30
0.0
 10
1001.21778403789
 20
-151.180091650573
 30
0.0
 10
1001.471343065604
 20
-151.4405408692579
 30
0.0
 10
1001.724902093319
 20
-151.7009900879428
 30
0.0
 10
1001.851681607176
 20
-152.1192246798521
 30
0.0
 10
1001.851681607176
 20
-152.6952446449859
 30
0.0
 10
1001.851681607176
 20
-152.6952446449859
 30
0.0
 10
1001.851681607176
 20
-155.6635389150772
 30
0.0
 10
1001.851681607176
 20
-155.6635389150772
 30
0.0
 10
1001.851681607176
 20
-155.6635389150772
 30
0.0
 10
1001.173686815679
 20
-155.6635389150772
 30
0.0
 10
1001.173686815679
 20
-155.6635389150772
 30
0.0
 10
1001.173686815679
 20
-155.6635389150772
 30
0.0
 10
1001.173686815679
 20
-152.7283175616443
 30
0.0
 10
1001.173686815679
 20
-152.7283175616443
 30
0.0
 10
1001.173686815679
 20
-152.3617594020137
 30
0.0
 10
1001.094449619518
 20
-152.0868407822908
 30
0.0
 10
1000.935975227196
 20
-151.9035617024755
 30
0.0
 10
1000.777500834875
 20
-151.7202826226602
 30
0.0
 10
1000.542545322781
 20
-151.6286430827525
 30
0.0
 10
1000.231108690914
 20
-151.6286430827525
 30
0.0
 10
999.7928925451907
 20
-151.6286430827525
 30
0.0
 10
999.4745657223536
 20
-151.7554225966098
 30
0.0
 10
999.2761282224032
 20
-152.0089816243241
 30
0.0
 10
999.0776907224528
 20
-152.2625406520385
 30
0.0
 10
998.9784719724777
 20
-152.6359890026396
 30
0.0
 10
998.9784719724777
 20
-153.1293266761274
 30
0.0
 10
998.9784719724777
 20
-153.1293266761274
 30
0.0
 10
998.9784719724777
 20
-155.6635389150772
 30
0.0
 10
998.9784719724777
 20
-155.6635389150772
 30
0.0
 10
998.9784719724777
 20
-155.6635389150772
 30
0.0
 10
998.2963430663982
 20
-155.6635389150772
 30
0.0
 10
998.2963430663982
 20
-155.6635389150772
 30
0.0
 10
998.2963430663982
 20
-155.6635389150772
 30
0.0
 10
998.2963430663982
 20
-152.7283175616443
 30
0.0
 10
998.2963430663982
 20
-152.7283175616443
 30
0.0
 10
998.2963430663982
 20
-152.4830267630945
 30
0.0
 10
998.2612030924487
 20
-152.2790771103677
 30
0.0
 10
998.1909231445495
 20
-152.1164686034639
 30
0.0
 10
998.1206431966505
 20
-151.9538600965601
 30
0.0
 10
998.0159122938989
 20
-151.8319037163823
 30
0.0
 10
997.8767304362948
 20
-151.7505994629304
 30
0.0
 10
997.7375485786906
 20
-151.6692952094785
 30
0.0
 10
997.5618487089429
 20
-151.6286430827525
 30
0.0
 10
997.3496308270515
 20
-151.6286430827525
 30
0.0
 10
997.0492185007378
 20
-151.6286430827525
 30
0.0
 10
996.8080618167702
 20
-151.690654801487
 30
0.0
 10
996.6261607751491
 20
-151.814678238956
 30
0.0
 10
996.4442597335278
 20
-151.938701676425
 30
0.0
 10
996.3126570859913
 20
-152.1226697753374
 30
0.0
 10
996.2313528325394
 20
-152.3665825356931
 30
0.0
 10
996.1500485790875
 20
-152.6104952960487
 30
0.0
 10
996.1093964523616
 20
-152.9102186032655
 30
0.0
 10
996.1093964523616
 20
-153.2657524573433
 30
0.0
 10
996.1093964523616
 20
-153.2657524573433
 30
0.0
 10
996.1093964523616
 20
-155.6635389150772
 30
0.0
 10
996.1093964523616
 20
-155.6635389150772
 30
0.0
 10
996.1093964523616
 20
-155.6635389150772
 30
0.0
 10
995.4231334316999
 20
-155.6635389150772
 30
0.0
 10
995.4231334316999
 20
-155.6635389150772
 30
0.0
 10
995.4231334316999
 20
-155.6635389150772
 30
0.0
 10
995.4231334316999
 20
-151.1325493328766
 30
0.0
 10
995.4231334316999
 20
-151.1325493328766
 30
0.0
 10
995.4231334316999
 20
-151.1325493328766
 30
0.0
 10
995.977104785728
 20
-151.1325493328766
 30
0.0
 10
995.977104785728
 20
-151.1325493328766
 30
0.0
 10
995.977104785728
 20
-151.1325493328766
 30
0.0
 10
996.0804576502853
 20
-151.773337093133
 30
0.0
 10
996.0804576502853
 20
-151.773337093133
 30
0.0
 10
996.0804576502853
 20
-151.773337093133
 30
0.0
 10
996.1176646815262
 20
-151.773337093133
 30
0.0
 10
996.1176646815262
 20
-151.773337093133
 30
0.0
 10
996.2086152023367
 20
-151.6162407390056
 30
0.0
 10
996.3229923724471
 20
-151.4839490723721
 30
0.0
 10
996.460796191857
 20
-151.3764620932323
 30
0.0
 10
996.5986000112671
 20
-151.2689751140925
 30
0.0
 10
996.7529402890063
 20
-151.1876708606406
 30
0.0
 10
996.9238170250745
 20
-151.1325493328766
 30
0.0
 10
997.0946937611429
 20
-151.0774278051126
 30
0.0
 10
997.2765948027641
 20
-151.0498670412306
 30
0.0
 10
997.4695201499383
 20
-151.0498670412306
 30
0.0
 10
997.8140296984632
 20
-151.0498670412306
 30
0.0
 10
998.1027287001271
 20
-151.1139458172562
 30
0.0
 10
998.3356171549299
 20
-151.2421033693075
 30
0.0
 10
998.5685056097329
 20
-151.3702609213588
 30
0.0
 10
998.7373152885101
 20
-151.5652533258239
 30
0.0
 10
998.8420461912618
 20
-151.8270805827029
 30
0.0
 10
998.8420461912618
 20
-151.8270805827029
 30
0.0
 10
998.8792532225025
 20
-151.8270805827029
 30
0.0
 10
998.8792532225025
 20
-151.8270805827029
 30
0.0
 10
999.0280813474653
 20
-151.5652533258239
 30
0.0
 10
999.232031000192
 20
-151.3702609213588
 30
0.0
 10
999.4911021806828
 20
-151.2421033693075
 30
0.0
 10
999.7501733611736
 20
-151.1139458172562
 30
0.0
 10
1000.034049229158
 20
-151.0498670412306
 30
0.0
 10
1000.342729784637
 20
-151.0498670412306
 30
0.0
  0
HATCH
  5
E4
330
D8
100
AcDbEntity
  8
Calque 1
 62
    12
420
 14878227
440
 33554687
100
AcDbHatch
 10
0.0
 20
0.0
 30
0.0
210
0.0
220
0.0
230
1.0
  2
SOLID
 70
     1
 71
     1
 91
        1
 92
        1
 93
        1
 72
     4
 94
        3
 73
     0
 74
     0
 95
      101
 96
       97
 40
0.0
 40
0.0
 40
0.0
 40
0.0
 40
1.0
 40
1.0
 40
1.0
 40
2.0
 40
2.0
 40
2.0
 40
3.0
 40
3.0
 40
3.0
 40
4.0
 40
4.0
 40
4.0
 40
5.0
 40
5.0
 40
5.0
 40
6.0
 40
6.0
 40
6.0
 40
7.0
 40
7.0
 40
7.0
 40
8.0
 40
8.0
 40
8.0
 40
9.0
 40
9.0
 40
9.0
 40
10.0
 40
10.0
 40
10.0
 40
11.0
 40
11.0
 40
11.0
 40
12.0
 40
12.0
 40
12.0
 40
13.0
 40
13.0
 40
13.0
 40
14.0
 40
14.0
 40
14.0
 40
15.0
 40
15.0
 40
15.0
 40
16.0
 40
16.0
 40
16.0
 40
17.0
 40
17.0
 40
17.0
 40
18.0
 40
18.0
 40
18.0
 40
19.0
 40
19.0
 40
19.0
 40
20.0
 40
20.0
 40
20.0
 40
21.0
 40
21.0
 40
21.0
 40
22.0
 40
22.0
 40
22.0
 40
23.0
 40
23.0
 40
23.0
 40
24.0
 40
24.0
 40
24.0
 40
25.0
 40
25.0
 40
25.0
 40
26.0
 40
26.0
 40
26.0
 40
27.0
 40
27.0
 40
27.0
 40
28.0
 40
28.0
 40
28.0
 40
29.0
 40
29.0
 40
29.0
 40
30.0
 40
30.0
 40
30.0
 40
31.0
 40
31.0
 40
31.0
 40
32.0
 40
32.0
 40
32.0
 40
32.0
 10
1000.342729784637
 20
-151.0498670412306
 10
1000.8415796109
 20
-151.0498670412306
 10
1001.21778403789
 20
-151.180091650573
 10
1001.471343065604
 20
-151.4405408692579
 10
1001.724902093319
 20
-151.7009900879428
 10
1001.851681607176
 20
-152.1192246798521
 10
1001.851681607176
 20
-152.6952446449859
 10
1001.851681607176
 20
-152.6952446449859
 10
1001.851681607176
 20
-155.6635389150772
 10
1001.851681607176
 20
-155.6635389150772
 10
1001.851681607176
 20
-155.6635389150772
 10
1001.173686815679
 20
-155.6635389150772
 10
1001.173686815679
 20
-155.6635389150772
 10
1001.173686815679
 20
-155.6635389150772
 10
1001.173686815679
 20
-152.7283175616443
 10
1001.173686815679
 20
-152.7283175616443
 10
1001.173686815679
 20
-152.3617594020137
 10
1001.094449619518
 20
-152.0868407822908
 10
1000.935975227196
 20
-151.9035617024755
 10
1000.777500834875
 20
-151.7202826226602
 10
1000.542545322781
 20
-151.6286430827525
 10
1000.231108690914
 20
-151.6286430827525
 10
999.7928925451907
 20
-151.6286430827525
 10
999.4745657223536
 20
-151.7554225966098
 10
999.2761282224032
 20
-152.0089816243241
 10
999.0776907224528
 20
-152.2625406520385
 10
998.9784719724777
 20
-152.6359890026396
 10
998.9784719724777
 20
-153.1293266761274
 10
998.9784719724777
 20
-153.1293266761274
 10
998.9784719724777
 20
-155.6635389150772
 10
998.9784719724777
 20
-155.6635389150772
 10
998.9784719724777
 20
-155.6635389150772
 10
998.2963430663982
 20
-155.6635389150772
 10
998.2963430663982
 20
-155.6635389150772
 10
998.2963430663982
 20
-155.6635389150772
 10
998.2963430663982
 20
-152.7283175616443
 10
998.2963430663982
 20
-152.7283175616443
 10
998.2963430663982
 20
-152.4830267630945
 10
998.2612030924487
 20
-152.2790771103677
 10
998.1909231445495
 20
-152.1164686034639
 10
998.1206431966505
 20
-151.9538600965601
 10
998.0159122938989
 20
-151.8319037163823
 10
997.8767304362948
 20
-151.7505994629304
 10
997.7375485786906
 20
-151.6692952094785
 10
997.5618487089429
 20
-151.6286430827525
 10
997.3496308270515
 20
-151.6286430827525
 10
997.0492185007378
 20
-151.6286430827525
 10
996.8080618167702
 20
-151.690654801487
 10
996.6261607751491
 20
-151.814678238956
 10
996.4442597335278
 20
-151.938701676425
 10
996.3126570859913
 20
-152.1226697753374
 10
996.2313528325394
 20
-152.3665825356931
 10
996.1500485790875
 20
-152.6104952960487
 10
996.1093964523616
 20
-152.9102186032655
 10
996.1093964523616
 20
-153.2657524573433
 10
996.1093964523616
 20
-153.2657524573433
 10
996.1093964523616
 20
-155.6635389150772
 10
996.1093964523616
 20
-155.6635389150772
 10
996.1093964523616
 20
-155.6635389150772
 10
995.4231334316999
 20
-155.6635389150772
 10
995.4231334316999
 20
-155.6635389150772
 10
995.4231334316999
 20
-155.6635389150772
 10
995.4231334316999
 20
-151.1325493328766
 10
995.4231334316999
 20
-151.1325493328766
 10
995.4231334316999
 20
-151.1325493328766
 10
995.977104785728
 20
-151.1325493328766
 10
995.977104785728
 20
-151.1325493328766
 10
995.977104785728
 20
-151.1325493328766
 10
996.0804576502853
 20
-151.773337093133
 10
996.0804576502853
 20
-151.773337093133
 10
996.0804576502853
 20
-151.773337093133
 10
996.1176646815262
 20
-151.773337093133
 10
996.1176646815262
 20
-151.773337093133
 10
996.2086152023367
 20
-151.6162407390056
 10
996.3229923724471
 20
-151.4839490723721
 10
996.460796191857
 20
-151.3764620932323
 10
996.5986000112671
 20
-151.2689751140925
 10
996.7529402890063
 20
-151.1876708606406
 10
996.9238170250745
 20
-151.1325493328766
 10
997.0946937611429
 20
-151.0774278051126
 10
997.2765948027641
 20
-151.0498670412306
 10
997.4695201499383
 20
-151.0498670412306
 10
997.8140296984632
 20
-151.0498670412306
 10
998.1027287001271
 20
-151.1139458172562
 10
998.3356171549299
 20
-151.2421033693075
 10
998.5685056097329
 20
-151.3702609213588
 10
998.7373152885101
 20
-151.5652533258239
 10
998.8420461912618
 20
-151.8270805827029
 10
998.8420461912618
 20
-151.8270805827029
 10
998.8792532225025
 20
-151.8270805827029
 10
998.8792532225025
 20
-151.8270805827029
 10
999.0280813474653
 20
-151.5652533258239
 10
999.232031000192
 20
-151.3702609213588
 10
999.4911021806828
 20
-151.2421033693075
 10
999.7501733611736
 20
-151.1139458172562
 10
1000.034049229158
 20
-151.0498670412306
 10
1000.342729784637
 20
-151.0498670412306
 97
        0
 97
        1
330
E3
 75
     2
 76
     1
 98
        1
 10
0.0
 20
0.0
450
        0
451
        0
460
0.0
461
0.0
452
        0
462
0.0
453
        0
470

  0
SPLINE
  5
E5
330
D8
100
AcDbEntity
  8
Calque 1
100
AcDbSpline
210
0.0
220
0.0
230
1.0
 70
     9
 71
     3
 72
   101
 73
    97
 74
     0
 42
0.0000000001
 43
0.0000000001
 40
0.0
 40
0.0
 40
0.0
 40
0.0
 40
1.0
 40
1.0
 40
1.0
 40
2.0
 40
2.0
 40
2.0
 40
3.0
 40
3.0
 40
3.0
 40
4.0
 40
4.0
 40
4.0
 40
5.0
 40
5.0
 40
5.0
 40
6.0
 40
6.0
 40
6.0
 40
7.0
 40
7.0
 40
7.0
 40
8.0
 40
8.0
 40
8.0
 40
9.0
 40
9.0
 40
9.0
 40
10.0
 40
10.0
 40
10.0
 40
11.0
 40
11.0
 40
11.0
 40
12.0
 40
12.0
 40
12.0
 40
13.0
 40
13.0
 40
13.0
 40
14.0
 40
14.0
 40
14.0
 40
15.0
 40
15.0
 40
15.0
 40
16.0
 40
16.0
 40
16.0
 40
17.0
 40
17.0
 40
17.0
 40
18.0
 40
18.0
 40
18.0
 40
19.0
 40
19.0
 40
19.0
 40
20.0
 40
20.0
 40
20.0
 40
21.0
 40
21.0
 40
21.0
 40
22.0
 40
22.0
 40
22.0
 40
23.0
 40
23.0
 40
23.0
 40
24.0
 40
24.0
 40
24.0
 40
25.0
 40
25.0
 40
25.0
 40
26.0
 40
26.0
 40
26.0
 40
27.0
 40
27.0
 40
27.0
 40
28.0
 40
28.0
 40
28.0
 40
29.0
 40
29.0
 40
29.0
 40
30.0
 40
30.0
 40
30.0
 40
31.0
 40
31.0
 40
31.0
 40
32.0
 40
32.0
 40
32.0
 40
32.0
 10
1008.181011032677
 20
-151.0498670412306
 30
0.0
 10
1008.679860858941
 20
-151.0498670412306
 30
0.0
 10
1009.05606528593
 20
-151.180091650573
 30
0.0
 10
1009.309624313645
 20
-151.4405408692579
 30
0.0
 10
1009.563183341359
 20
-151.7009900879428
 30
0.0
 10
1009.689962855216
 20
-152.1192246798521
 30
0.0
 10
1009.689962855216
 20
-152.6952446449859
 30
0.0
 10
1009.689962855216
 20
-152.6952446449859
 30
0.0
 10
1009.689962855216
 20
-155.6635389150772
 30
0.0
 10
1009.689962855216
 20
-155.6635389150772
 30
0.0
 10
1009.689962855216
 20
-155.6635389150772
 30
0.0
 10
1009.011968063719
 20
-155.6635389150772
 30
0.0
 10
1009.011968063719
 20
-155.6635389150772
 30
0.0
 10
1009.011968063719
 20
-155.6635389150772
 30
0.0
 10
1009.011968063719
 20
-152.7283175616443
 30
0.0
 10
1009.011968063719
 20
-152.7283175616443
 30
0.0
 10
1009.011968063719
 20
-152.3617594020137
 30
0.0
 10
1008.932730867558
 20
-152.0868407822908
 30
0.0
 10
1008.774256475237
 20
-151.9035617024755
 30
0.0
 10
1008.615782082915
 20
-151.7202826226602
 30
0.0
 10
1008.380826570821
 20
-151.6286430827525
 30
0.0
 10
1008.069389938955
 20
-151.6286430827525
 30
0.0
 10
1007.631173793231
 20
-151.6286430827525
 30
0.0
 10
1007.312846970394
 20
-151.7554225966098
 30
0.0
 10
1007.114409470443
 20
-152.0089816243241
 30
0.0
 10
1006.915971970493
 20
-152.2625406520385
 30
0.0
 10
1006.816753220518
 20
-152.6359890026396
 30
0.0
 10
1006.816753220518
 20
-153.1293266761274
 30
0.0
 10
1006.816753220518
 20
-153.1293266761274
 30
0.0
 10
1006.816753220518
 20
-155.6635389150772
 30
0.0
 10
1006.816753220518
 20
-155.6635389150772
 30
0.0
 10
1006.816753220518
 20
-155.6635389150772
 30
0.0
 10
1006.134624314438
 20
-155.6635389150772
 30
0.0
 10
1006.134624314438
 20
-155.6635389150772
 30
0.0
 10
1006.134624314438
 20
-155.6635389150772
 30
0.0
 10
1006.134624314438
 20
-152.7283175616443
 30
0.0
 10
1006.134624314438
 20
-152.7283175616443
 30
0.0
 10
1006.134624314438
 20
-152.4830267630945
 30
0.0
 10
1006.099484340489
 20
-152.2790771103677
 30
0.0
 10
1006.02920439259
 20
-152.1164686034639
 30
0.0
 10
1005.958924444691
 20
-151.9538600965601
 30
0.0
 10
1005.854193541939
 20
-151.8319037163823
 30
0.0
 10
1005.715011684335
 20
-151.7505994629304
 30
0.0
 10
1005.575829826731
 20
-151.6692952094785
 30
0.0
 10
1005.400129956983
 20
-151.6286430827525
 30
0.0
 10
1005.187912075092
 20
-151.6286430827525
 30
0.0
 10
1004.887499748778
 20
-151.6286430827525
 30
0.0
 10
1004.64634306481
 20
-151.690654801487
 30
0.0
 10
1004.464442023189
 20
-151.814678238956
 30
0.0
 10
1004.282540981568
 20
-151.938701676425
 30
0.0
 10
1004.150938334031
 20
-152.1226697753374
 30
0.0
 10
1004.06963408058
 20
-152.3665825356931
 30
0.0
 10
1003.988329827128
 20
-152.6104952960487
 30
0.0
 10
1003.947677700402
 20
-152.9102186032655
 30
0.0
 10
1003.947677700402
 20
-153.2657524573433
 30
0.0
 10
1003.947677700402
 20
-153.2657524573433
 30
0.0
 10
1003.947677700402
 20
-155.6635389150772
 30
0.0
 10
1003.947677700402
 20
-155.6635389150772
 30
0.0
 10
1003.947677700402
 20
-155.6635389150772
 30
0.0
 10
1003.26141467974
 20
-155.6635389150772
 30
0.0
 10
1003.26141467974
 20
-155.6635389150772
 30
0.0
 10
1003.26141467974
 20
-155.6635389150772
 30
0.0
 10
1003.26141467974
 20
-151.1325493328766
 30
0.0
 10
1003.26141467974
 20
-151.1325493328766
 30
0.0
 10
1003.26141467974
 20
-151.1325493328766
 30
0.0
 10
1003.815386033768
 20
-151.1325493328766
 30
0.0
 10
1003.815386033768
 20
-151.1325493328766
 30
0.0
 10
1003.815386033768
 20
-151.1325493328766
 30
0.0
 10
1003.918738898326
 20
-151.773337093133
 30
0.0
 10
1003.918738898326
 20
-151.773337093133
 30
0.0
 10
1003.918738898326
 20
-151.773337093133
 30
0.0
 10
1003.955945929567
 20
-151.773337093133
 30
0.0
 10
1003.955945929567
 20
-151.773337093133
 30
0.0
 10
1004.046896450377
 20
-151.6162407390056
 30
0.0
 10
1004.161273620487
 20
-151.4839490723721
 30
0.0
 10
1004.299077439897
 20
-151.3764620932323
 30
0.0
 10
1004.436881259307
 20
-151.2689751140925
 30
0.0
 10
1004.591221537046
 20
-151.1876708606406
 30
0.0
 10
1004.762098273115
 20
-151.1325493328766
 30
0.0
 10
1004.932975009183
 20
-151.0774278051126
 30
0.0
 10
1005.114876050805
 20
-151.0498670412306
 30
0.0
 10
1005.307801397979
 20
-151.0498670412306
 30
0.0
 10
1005.652310946503
 20
-151.0498670412306
 30
0.0
 10
1005.941009948167
 20
-151.1139458172562
 30
0.0
 10
1006.17389840297
 20
-151.2421033693075
 30
0.0
 10
1006.406786857773
 20
-151.3702609213588
 30
0.0
 10
1006.57559653655
 20
-151.5652533258239
 30
0.0
 10
1006.680327439302
 20
-151.8270805827029
 30
0.0
 10
1006.680327439302
 20
-151.8270805827029
 30
0.0
 10
1006.717534470543
 20
-151.8270805827029
 30
0.0
 10
1006.717534470543
 20
-151.8270805827029
 30
0.0
 10
1006.866362595506
 20
-151.5652533258239
 30
0.0
 10
1007.070312248232
 20
-151.3702609213588
 30
0.0
 10
1007.329383428723
 20
-151.2421033693075
 30
0.0
 10
1007.588454609214
 20
-151.1139458172562
 30
0.0
 10
1007.872330477198
 20
-151.0498670412306
 30
0.0
 10
1008.181011032677
 20
-151.0498670412306
 30
0.0
  0
HATCH
  5
E6
330
D8
100
AcDbEntity
  8
Calque 1
 62
    12
420
 14878227
440
 33554687
100
AcDbHatch
 10
0.0
 20
0.0
 30
0.0
210
0.0
220
0.0
230
1.0
  2
SOLID
 70
     1
 71
     1
 91
        1
 92
        1
 93
        1
 72
     4
 94
        3
 73
     0
 74
     0
 95
      101
 96
       97
 40
0.0
 40
0.0
 40
0.0
 40
0.0
 40
1.0
 40
1.0
 40
1.0
 40
2.0
 40
2.0
 40
2.0
 40
3.0
 40
3.0
 40
3.0
 40
4.0
 40
4.0
 40
4.0
 40
5.0
 40
5.0
 40
5.0
 40
6.0
 40
6.0
 40
6.0
 40
7.0
 40
7.0
 40
7.0
 40
8.0
 40
8.0
 40
8.0
 40
9.0
 40
9.0
 40
9.0
 40
10.0
 40
10.0
 40
10.0
 40
11.0
 40
11.0
 40
11.0
 40
12.0
 40
12.0
 40
12.0
 40
13.0
 40
13.0
 40
13.0
 40
14.0
 40
14.0
 40
14.0
 40
15.0
 40
15.0
 40
15.0
 40
16.0
 40
16.0
 40
16.0
 40
17.0
 40
17.0
 40
17.0
 40
18.0
 40
18.0
 40
18.0
 40
19.0
 40
19.0
 40
19.0
 40
20.0
 40
20.0
 40
20.0
 40
21.0
 40
21.0
 40
21.0
 40
22.0
 40
22.0
 40
22.0
 40
23.0
 40
23.0
 40
23.0
 40
24.0
 40
24.0
 40
24.0
 40
25.0
 40
25.0
 40
25.0
 40
26.0
 40
26.0
 40
26.0
 40
27.0
 40
27.0
 40
27.0
 40
28.0
 40
28.0
 40
28.0
 40
29.0
 40
29.0
 40
29.0
 40
30.0
 40
30.0
 40
30.0
 40
31.0
 40
31.0
 40
31.0
 40
32.0
 40
32.0
 40
32.0
 40
32.0
 10
1008.181011032677
 20
-151.0498670412306
 10
1008.679860858941
 20
-151.0498670412306
 10
1009.05606528593
 20
-151.180091650573
 10
1009.309624313645
 20
-151.4405408692579
 10
1009.563183341359
 20
-151.7009900879428
 10
1009.689962855216
 20
-152.1192246798521
 10
1009.689962855216
 20
-152.6952446449859
 10
1009.689962855216
 20
-152.6952446449859
 10
1009.689962855216
 20
-155.6635389150772
 10
1009.689962855216
 20
-155.6635389150772
 10
1009.689962855216
 20
-155.6635389150772
 10
1009.011968063719
 20
-155.6635389150772
 10
1009.011968063719
 20
-155.6635389150772
 10
1009.011968063719
 20
-155.6635389150772
 10
1009.011968063719
 20
-152.7283175616443
 10
1009.011968063719
 20
-152.7283175616443
 10
1009.011968063719
 20
-152.3617594020137
 10
1008.932730867558
 20
-152.0868407822908
 10
1008.774256475237
 20
-151.9035617024755
 10
1008.615782082915
 20
-151.7202826226602
 10
1008.380826570821
 20
-151.6286430827525
 10
1008.069389938955
 20
-151.6286430827525
 10
1007.631173793231
 20
-151.6286430827525
 10
1007.312846970394
 20
-151.7554225966098
 10
1007.114409470443
 20
-152.0089816243241
 10
1006.915971970493
 20
-152.2625406520385
 10
1006.816753220518
 20
-152.6359890026396
 10
1006.816753220518
 20
-153.1293266761274
 10
1006.816753220518
 20
-153.1293266761274
 10
1006.816753220518
 20
-155.6635389150772
 10
1006.816753220518
 20
-155.6635389150772
 10
1006.816753220518
 20
-155.6635389150772
 10
1006.134624314438
 20
-155.6635389150772
 10
1006.134624314438
 20
-155.6635389150772
 10
1006.134624314438
 20
-155.6635389150772
 10
1006.134624314438
 20
-152.7283175616443
 10
1006.134624314438
 20
-152.7283175616443
 10
1006.134624314438
 20
-152.4830267630945
 10
1006.099484340489
 20
-152.2790771103677
 10
1006.02920439259
 20
-152.1164686034639
 10
1005.958924444691
 20
-151.9538600965601
 10
1005.854193541939
 20
-151.8319037163823
 10
1005.715011684335
 20
-151.7505994629304
 10
1005.575829826731
 20
-151.6692952094785
 10
1005.400129956983
 20
-151.6286430827525
 10
1005.187912075092
 20
-151.6286430827525
 10
1004.887499748778
 20
-151.6286430827525
 10
1004.64634306481
 20
-151.690654801487
 10
1004.464442023189
 20
-151.814678238956
 10
1004.282540981568
 20
-151.938701676425
 10
1004.150938334031
 20
-152.1226697753374
 10
1004.06963408058
 20
-152.3665825356931
 10
1003.988329827128
 20
-152.6104952960487
 10
1003.947677700402
 20
-152.9102186032655
 10
1003.947677700402
 20
-153.2657524573433
 10
1003.947677700402
 20
-153.2657524573433
 10
1003.947677700402
 20
-155.6635389150772
 10
1003.947677700402
 20
-155.6635389150772
 10
1003.947677700402
 20
-155.6635389150772
 10
1003.26141467974
 20
-155.6635389150772
 10
1003.26141467974
 20
-155.6635389150772
 10
1003.26141467974
 20
-155.6635389150772
 10
1003.26141467974
 20
-151.1325493328766
 10
1003.26141467974
 20
-151.1325493328766
 10
1003.26141467974
 20
-151.1325493328766
 10
1003.815386033768
 20
-151.1325493328766
 10
1003.815386033768
 20
-151.1325493328766
 10
1003.815386033768
 20
-151.1325493328766
 10
1003.918738898326
 20
-151.773337093133
 10
1003.918738898326
 20
-151.773337093133
 10
1003.918738898326
 20
-151.773337093133
 10
1003.955945929567
 20
-151.773337093133
 10
1003.955945929567
 20
-151.773337093133
 10
1004.046896450377
 20
-151.6162407390056
 10
1004.161273620487
 20
-151.4839490723721
 10
1004.299077439897
 20
-151.3764620932323
 10
1004.436881259307
 20
-151.2689751140925
 10
1004.591221537046
 20
-151.1876708606406
 10
1004.762098273115
 20
-151.1325493328766
 10
1004.932975009183
 20
-151.0774278051126
 10
1005.114876050805
 20
-151.0498670412306
 10
1005.307801397979
 20
-151.0498670412306
 10
1005.652310946503
 20
-151.0498670412306
 10
1005.941009948167
 20
-151.1139458172562
 10
1006.17389840297
 20
-151.2421033693075
 10
1006.406786857773
 20
-151.3702609213588
 10
1006.57559653655
 20
-151.5652533258239
 10
1006.680327439302
 20
-151.8270805827029
 10
1006.680327439302
 20
-151.8270805827029
 10
1006.717534470543
 20
-151.8270805827029
 10
1006.717534470543
 20
-151.8270805827029
 10
1006.866362595506
 20
-151.5652533258239
 10
1007.070312248232
 20
-151.3702609213588
 10
1007.329383428723
 20
-151.2421033693075
 10
1007.588454609214
 20
-151.1139458172562
 10
1007.872330477198
 20
-151.0498670412306
 10
1008.181011032677
 20
-151.0498670412306
 97
        0
 97
        1
330
E5
 75
     2
 76
     1
 98
        1
 10
0.0
 20
0.0
450
        0
451
        0
460
0.0
461
0.0
452
        0
462
0.0
453
        0
470

  0
ENDBLK
  5
DB
330
D8
100
AcDbEntity
  8
0
100
AcDbBlockEnd
  0
ENDSEC
  0
SECTION
  2
ENTITIES
  0
INSERT
  5
7A
330
70
100
AcDbEntity
  8
Calque 1
100
AcDbBlockReference
  2
Block_0
 10
0.0
 20
0.0
 30
0.0
  0
INSERT
  5
88
330
70
100
AcDbEntity
  8
Calque 1
100
AcDbBlockReference
  2
Block_1
 10
0.0
 20
0.0
 30
0.0
  0
SPLINE
  5
95
330
70
100
AcDbEntity
  8
Calque 1
 62
   250
420
  1907995
370
    13
100
AcDbSpline
210
0.0
220
0.0
230
1.0
 70
    11
 71
     3
 72
    44
 73
    40
 74
     0
 42
0.0000000001
 43
0.0000000001
 40
0.0
 40
0.0
 40
0.0
 40
0.0
 40
1.0
 40
1.0
 40
1.0
 40
2.0
 40
2.0
 40
2.0
 40
3.0
 40
3.0
 40
3.0
 40
4.0
 40
4.0
 40
4.0
 40
5.0
 40
5.0
 40
5.0
 40
6.0
 40
6.0
 40
6.0
 40
7.0
 40
7.0
 40
7.0
 40
8.0
 40
8.0
 40
8.0
 40
9.0
 40
9.0
 40
9.0
 40
10.0
 40
10.0
 40
10.0
 40
11.0
 40
11.0
 40
11.0
 40
12.0
 40
12.0
 40
12.0
 40
13.0
 40
13.0
 40
13.0
 40
13.0
 10
845.7150689263082
 20
-262.9479464403394
 30
0.0
 10
845.7150689263082
 20
-262.9479464403394
 30
0.0
 10
850.7151513225217
 20
-262.9479464403394
 30
0.0
 10
850.7151513225217
 20
-262.9479464403394
 30
0.0
 10
905.943563173947
 20
-262.9479464403394
 30
0.0
 10
950.7150766989973
 20
-218.1764544471378
 30
0.0
 10
950.7150766989973
 20
-162.9480425957105
 30
0.0
 10
950.7150766989973
 20
-162.9480425957105
 30
0.0
 10
950.7150766989973
 20
-162.9479349364765
 30
0.0
 10
950.7150766989973
 20
-162.9479349364765
 30
0.0
 10
950.7150766989973
 20
-162.9479349364765
 30
0.0
 10
950.7150766989973
 20
-162.9478488090894
 30
0.0
 10
950.7150766989973
 20
-162.9478488090894
 30
0.0
 10
950.7150766989973
 20
-104.957999139614
 30
0.0
 10
903.7050262550208
 20
-57.94794869563736
 30
0.0
 10
845.7151981173895
 20
-57.94794869563736
 30
0.0
 10
845.7151981173895
 20
-57.94794869563736
 30
0.0
 10
845.7150689263082
 20
-57.94794869563736
 30
0.0
 10
845.7150689263082
 20
-57.94794869563736
 30
0.0
 10
845.7150689263082
 20
-57.94794869563736
 30
0.0
 10
845.7149397352299
 20
-57.94794869563736
 30
0.0
 10
845.7149397352299
 20
-57.94794869563736
 30
0.0
 10
787.7251115975988
 20
-57.94794869563736
 30
0.0
 10
740.7150611536222
 20
-104.957999139614
 30
0.0
 10
740.7150611536222
 20
-162.9478488090894
 30
0.0
 10
740.7150611536222
 20
-162.9478488090894
 30
0.0
 10
740.7150611536222
 20
-162.9479349364765
 30
0.0
 10
740.7150611536222
 20
-162.9479349364765
 30
0.0
 10
740.7150611536222
 20
-162.9479349364765
 30
0.0
 10
740.7150611536222
 20
-162.9480425957105
 30
0.0
 10
740.7150611536222
 20
-162.9480425957105
 30
0.0
 10
740.7150611536222
 20
-218.1764544471378
 30
0.0
 10
785.4865316149764
 20
-262.9479464403394
 30
0.0
 10
840.7149865300979
 20
-262.9479464403394
 30
0.0
 10
840.7149865300979
 20
-262.9479464403394
 30
0.0
 10
845.7150258626151
 20
-262.9479464403394
 30
0.0
 10
845.7150258626151
 20
-262.9479464403394
 30
0.0
 10
845.7150258626151
 20
-262.9479464403394
 30
0.0
 10
845.7150689263082
 20
-262.9479464403394
 30
0.0
 10
845.7150689263082
 20
-262.9479464403394
 30
0.0
  0
LWPOLYLINE
  5
96
330
70
100
AcDbEntity
  8
Calque 1
 62
   250
420
  1907995
370
    13
100
AcDbPolyline
 90
        4
 70
     1
 43
0.0
 10
1271.718440084065
 20
-303.0256610978188
 10
1021.718440146563
 20
-303.0256610978188
 10
1021.718440146563
 20
-53.02566116031787
 10
1271.718440084065
 20
-53.02566116031787
  0
LINE
  5
97
330
70
100
AcDbEntity
  8
Calque 1
 62
    12
420
 14878227
370
    13
100
AcDbLine
 10
1021.718440146563
 20
-44.48742057771996
 30
0.0
 11
1271.718440084065
 21
-44.48742057771996
 31
0.0
  0
LINE
  5
98
330
70
100
AcDbEntity
  8
Calque 1
 62
    12
420
 14878227
370
    13
100
AcDbLine
 10
736.8645005392296
 20
-48.50000041173057
 30
0.0
 11
950.7150766989973
 21
-48.50000041173057
 31
0.0
  0
LINE
  5
99
330
70
100
AcDbEntity
  8
Calque 1
 62
    12
420
 14878227
370
    13
100
AcDbLine
 10
733.1928860976261
 20
-58.18602662927694
 30
0.0
 11
733.1928860976261
 21
-262.9477745796582
 31
0.0
  0
LINE
  5
9A
330
70
100
AcDbEntity
  8
Calque 1
 62
    12
420
 14878227
370
    13
100
AcDbLine
 10
1013.678335856703
 20
-53.02566116031883
 30
0.0
 11
1013.678335856703
 21
-303.0256610978175
 31
0.0
  0
INSERT
  5
9C
330
70
100
AcDbEntity
  8
Calque 1
100
AcDbBlockReference
  2
Block_2
 10
0.0
 20
0.0
 30
0.0
  0
INSERT
  5
AF
330
70
100
AcDbEntity
  8
Calque 1
100
AcDbBlockReference
  2
Block_4
 10
0.0
 20
0.0
 30
0.0
  0
INSERT
  5
C2
330
70
100
AcDbEntity
  8
Calque 1
100
AcDbBlockReference
  2
Block_6
 10
0.0
 20
0.0
 30
0.0
  0
INSERT
  5
D5
330
70
100
AcDbEntity
  8
Calque 1
100
AcDbBlockReference
  2
Block_8
 10
0.0
 20
0.0
 30
0.0
  0
ENDSEC
  0
SECTION
  2
OBJECTS
  0
DICTIONARY
  5
C
330
0
100
AcDbDictionary
281
     1
  3
ACAD_COLOR
350
63
  3
ACAD_DETAILVIEWSTYLE
350
6A
  3
ACAD_GROUP
350
D
  3
ACAD_LAYOUT
350
62
  3
ACAD_MATERIAL
350
10
  3
ACAD_MLEADERSTYLE
350
66
  3
ACAD_MLINESTYLE
350
5F
  3
ACAD_PLOTSETTINGS
350
61
  3
ACAD_PLOTSTYLENAME
350
E
  3
ACAD_SCALELIST
350
42
  3
ACAD_SECTIONVIEWSTYLE
350
68
  3
ACAD_TABLESTYLE
350
64
  3
ACAD_VISUALSTYLE
350
29
  3
ACDB_RECOMPOSE_DATA
350
EF
  3
AcDbVariableDictionary
350
E7
  0
DICTIONARY
  5
63
102
{ACAD_REACTORS
330
C
102
}
330
C
100
AcDbDictionary
281
     1
  0
DICTIONARY
  5
6A
102
{ACAD_REACTORS
330
C
102
}
330
C
100
AcDbDictionary
281
     1
  3
Imperial24
350
6B
  0
DICTIONARY
  5
D
102
{ACAD_REACTORS
330
C
102
}
330
C
100
AcDbDictionary
281
     1
  0
DICTIONARY
  5
62
102
{ACAD_REACTORS
330
C
102
}
330
C
100
AcDbDictionary
281
     1
  3
Layout1
350
6F
  3
Layout2
350
77
  3
Model
350
73
  0
DICTIONARY
  5
10
102
{ACAD_REACTORS
330
C
102
}
330
C
100
AcDbDictionary
281
     1
  3
ByBlock
350
19
  3
ByLayer
350
11
  3
Global
350
21
  0
DICTIONARY
  5
66
102
{ACAD_REACTORS
330
C
102
}
330
C
100
AcDbDictionary
281
     1
  3
Standard
350
67
  0
DICTIONARY
  5
5F
102
{ACAD_REACTORS
330
C
102
}
330
C
100
AcDbDictionary
281
     1
  3
Standard
350
60
  0
DICTIONARY
  5
61
102
{ACAD_REACTORS
330
C
102
}
330
C
100
AcDbDictionary
281
     1
  0
ACDBDICTIONARYWDFLT
  5
E
102
{ACAD_REACTORS
330
C
102
}
330
C
100
AcDbDictionary
281
     1
  3
Normal
350
F
100
AcDbDictionaryWithDefault
340
F
  0
DICTIONARY
  5
42
102
{ACAD_REACTORS
330
C
102
}
330
C
100
AcDbDictionary
281
     1
  3
A0
350
43
  3
A1
350
44
  3
A2
350
45
  3
A3
350
46
  3
A4
350
47
  3
A5
350
48
  3
A6
350
49
  3
A7
350
4A
  3
A8
350
4B
  3
A9
350
4C
  3
B0
350
4D
  3
B1
350
4E
  3
B2
350
4F
  3
B3
350
50
  3
B4
350
51
  3
B5
350
52
  3
B6
350
53
  0
DICTIONARY
  5
68
102
{ACAD_REACTORS
330
C
102
}
330
C
100
AcDbDictionary
281
     1
  3
Imperial24
350
69
  0
DICTIONARY
  5
64
102
{ACAD_REACTORS
330
C
102
}
330
C
100
AcDbDictionary
281
     1
  3
Standard
350
65
  0
DICTIONARY
  5
29
102
{ACAD_REACTORS
330
C
102
}
330
C
100
AcDbDictionary
281
     1
  3
2dWireframe
350
2F
  3
Basic
350
2E
  3
Brighten
350
35
  3
ColorChange
350
39
  3
Conceptual
350
32
  3
Dim
350
34
  3
EdgeColorOff
350
41
  3
Facepattern
350
38
  3
Flat
350
2A
  3
FlatWithEdges
350
2B
  3
Gouraud
350
2C
  3
GouraudWithEdges
350
2D
  3
Hidden
350
31
  3
JitterOff
350
3F
  3
Linepattern
350
37
  3
OverhangOff
350
40
  3
Realistic
350
33
  3
Shaded
350
3E
  3
Shaded with edges
350
3D
  3
Shades of Gray
350
3A
  3
Sketchy
350
3B
  3
Thicken
350
36
  3
Wireframe
350
30
  3
X-Ray
350
3C
  0
XRECORD
  5
EF
102
{ACAD_REACTORS
330
C
102
}
330
C
100
AcDbXrecord
280
     1
 90
        1
330
65
  0
DICTIONARY
  5
E7
102
{ACAD_REACTORS
330
C
102
}
330
C
100
AcDbDictionary
281
     1
  3
CANNOSCALE
350
EC
  3
CMLEADERSTYLE
350
E9
  3
CTABLESTYLE
350
E8
  3
CVIEWDETAILSTYLE
350
EA
  3
CVIEWSECTIONSTYLE
350
EB
  0
ACDBDETAILVIEWSTYLE
  5
6B
102
{ACAD_XDICTIONARY
360
F2
102
}
102
{ACAD_REACTORS
330
6A
102
}
330
6A
100
AcDbModelDocViewStyle
 70
     0
  3
Imperial24
290
     0
100
AcDbDetailViewStyle
 70
     0
 71
     0
 90
        3
 71
     1
340
55
 62
   256
 40
0.24
340
0
 62
   256
 40
0.24
300

 40
0.36
280
     3
 71
     2
340
5D
 90
       25
 62
   256
 71
     3
340
55
 62
   256
 40
0.24
 90
        1
 40
0.75
 90
        1
300
%<\AcVar ViewType \f "%tc1">% %<\AcVar ViewDetailId>%\PSCALE %<\AcVar ViewScale \f "%sn">%
 71
     4
340
5D
 90
       25
 62
   256
340
5D
 90
       25
 62
   256
280
     0
  0
LAYOUT
  5
6F
102
{ACAD_REACTORS
330
62
102
}
330
62
100
AcDbPlotSettings
  1

  2

  4

  6

 40
0.0
 41
0.0
 42
0.0
 43
0.0
 44
0.0
 45
0.0
 46
0.0
 47
0.0
 48
0.0
 49
0.0
140
0.0
141
0.0
142
1.0
143
1.0
 70
   688
 72
     0
 73
     0
 74
     5
  7

 75
    16
147
1.0
 76
     0
 77
     2
 78
   300
148
0.0
149
0.0
100
AcDbLayout
  1
Layout1
 70
     1
 71
     1
 10
0.0
 20
0.0
 11
12.0
 21
9.0
 12
0.0
 22
0.0
 32
0.0
 14
0.0
 24
0.0
 34
0.0
 15
0.0
 25
0.0
 35
0.0
146
0.0
 13
0.0
 23
0.0
 33
0.0
 16
1.0
 26
0.0
 36
0.0
 17
0.0
 27
1.0
 37
0.0
 76
     0
330
6C
  0
LAYOUT
  5
77
102
{ACAD_REACTORS
330
62
102
}
330
62
100
AcDbPlotSettings
  1

  2

  4

  6

 40
0.0
 41
0.0
 42
0.0
 43
0.0
 44
0.0
 45
0.0
 46
0.0
 47
0.0
 48
0.0
 49
0.0
140
0.0
141
0.0
142
1.0
143
1.0
 70
   688
 72
     0
 73
     0
 74
     5
  7

 75
    16
147
1.0
 76
     0
 77
     2
 78
   300
148
0.0
149
0.0
100
AcDbLayout
  1
Layout2
 70
     1
 71
     2
 10
0.0
 20
0.0
 11
12.0
 21
9.0
 12
0.0
 22
0.0
 32
0.0
 14
0.0
 24
0.0
 34
0.0
 15
0.0
 25
0.0
 35
0.0
146
0.0
 13
0.0
 23
0.0
 33
0.0
 16
1.0
 26
0.0
 36
0.0
 17
0.0
 27
1.0
 37
0.0
 76
     0
330
74
  0
LAYOUT
  5
73
102
{ACAD_REACTORS
330
62
102
}
330
62
100
AcDbPlotSettings
  1

  2

  4

  6

 40
0.0
 41
0.0
 42
0.0
 43
0.0
 44
0.0
 45
0.0
 46
0.0
 47
0.0
 48
0.0
 49
0.0
140
0.0
141
0.0
142
1.0
143
1.0
 70
  1712
 72
     0
 73
     0
 74
     0
  7

 75
     0
147
1.0
 76
     0
 77
     2
 78
   300
148
0.0
149
0.0
100
AcDbLayout
  1
Model
 70
     1
 71
     0
 10
0.0
 20
0.0
 11
12.0
 21
9.0
 12
0.0
 22
0.0
 32
0.0
 14
0.0
 24
0.0
 34
0.0
 15
0.0
 25
0.0
 35
0.0
146
0.0
 13
0.0
 23
0.0
 33
0.0
 16
1.0
 26
0.0
 36
0.0
 17
0.0
 27
1.0
 37
0.0
 76
     0
330
70
  0
MATERIAL
  5
19
102
{ACAD_XDICTIONARY
360
1A
102
}
102
{ACAD_REACTORS
330
10
102
}
330
10
100
AcDbMaterial
  1
ByBlock
 72
     0
 43
0.0208333333333333
 43
0.0
 43
0.0
 43
0.0
 43
0.0
 43
0.0208333333333333
 43
0.0
 43
0.0
 43
0.0
 43
0.0
 43
1.0
 43
0.0
 43
0.0
 43
0.0
 43
0.0
 43
1.0
 77
     0
 47
0.0208333333333333
 47
0.0
 47
0.0
 47
0.0
 47
0.0
 47
0.0208333333333333
 47
0.0
 47
0.0
 47
0.0
 47
0.0
 47
1.0
 47
0.0
 47
0.0
 47
0.0
 47
0.0
 47
1.0
171
     0
 49
0.0208333333333333
 49
0.0
 49
0.0
 49
0.0
 49
0.0
 49
0.0208333333333333
 49
0.0
 49
0.0
 49
0.0
 49
0.0
 49
1.0
 49
0.0
 49
0.0
 49
0.0
 49
0.0
 49
1.0
175
     0
142
0.0208333333333333
142
0.0
142
0.0
142
0.0
142
0.0
142
0.0208333333333333
142
0.0
142
0.0
142
0.0
142
0.0
142
1.0
142
0.0
142
0.0
142
0.0
142
0.0
142
1.0
179
     0
144
0.0208333333333333
144
0.0
144
0.0
144
0.0
144
0.0
144
0.0208333333333333
144
0.0
144
0.0
144
0.0
144
0.0
144
1.0
144
0.0
144
0.0
144
0.0
144
0.0
144
1.0
147
0.0208333333333333
147
0.0
147
0.0
147
0.0
147
0.0
147
0.0208333333333333
147
0.0
147
0.0
147
0.0
147
0.0
147
1.0
147
0.0
147
0.0
147
0.0
147
0.0
147
1.0
  0
MATERIAL
  5
11
102
{ACAD_XDICTIONARY
360
12
102
}
102
{ACAD_REACTORS
330
10
102
}
330
10
100
AcDbMaterial
  1
ByLayer
 72
     0
 43
0.0208333333333333
 43
0.0
 43
0.0
 43
0.0
 43
0.0
 43
0.0208333333333333
 43
0.0
 43
0.0
 43
0.0
 43
0.0
 43
1.0
 43
0.0
 43
0.0
 43
0.0
 43
0.0
 43
1.0
 77
     0
 47
0.0208333333333333
 47
0.0
 47
0.0
 47
0.0
 47
0.0
 47
0.0208333333333333
 47
0.0
 47
0.0
 47
0.0
 47
0.0
 47
1.0
 47
0.0
 47
0.0
 47
0.0
 47
0.0
 47
1.0
171
     0
 49
0.0208333333333333
 49
0.0
 49
0.0
 49
0.0
 49
0.0
 49
0.0208333333333333
 49
0.0
 49
0.0
 49
0.0
 49
0.0
 49
1.0
 49
0.0
 49
0.0
 49
0.0
 49
0.0
 49
1.0
175
     0
142
0.0208333333333333
142
0.0
142
0.0
142
0.0
142
0.0
142
0.0208333333333333
142
0.0
142
0.0
142
0.0
142
0.0
142
1.0
142
0.0
142
0.0
142
0.0
142
0.0
142
1.0
179
     0
144
0.0208333333333333
144
0.0
144
0.0
144
0.0
144
0.0
144
0.0208333333333333
144
0.0
144
0.0
144
0.0
144
0.0
144
1.0
144
0.0
144
0.0
144
0.0
144
0.0
144
1.0
147
0.0208333333333333
147
0.0
147
0.0
147
0.0
147
0.0
147
0.0208333333333333
147
0.0
147
0.0
147
0.0
147
0.0
147
1.0
147
0.0
147
0.0
147
0.0
147
0.0
147
1.0
  0
MATERIAL
  5
21
102
{ACAD_XDICTIONARY
360
22
102
}
102
{ACAD_REACTORS
330
10
102
}
330
10
100
AcDbMaterial
  1
Global
 72
     0
 43
0.0208333333333333
 43
0.0
 43
0.0
 43
0.0
 43
0.0
 43
0.0208333333333333
 43
0.0
 43
0.0
 43
0.0
 43
0.0
 43
1.0
 43
0.0
 43
0.0
 43
0.0
 43
0.0
 43
1.0
 77
     0
 47
0.0208333333333333
 47
0.0
 47
0.0
 47
0.0
 47
0.0
 47
0.0208333333333333
 47
0.0
 47
0.0
 47
0.0
 47
0.0
 47
1.0
 47
0.0
 47
0.0
 47
0.0
 47
0.0
 47
1.0
171
     0
 49
0.0208333333333333
 49
0.0
 49
0.0
 49
0.0
 49
0.0
 49
0.0208333333333333
 49
0.0
 49
0.0
 49
0.0
 49
0.0
 49
1.0
 49
0.0
 49
0.0
 49
0.0
 49
0.0
 49
1.0
175
     0
142
0.0208333333333333
142
0.0
142
0.0
142
0.0
142
0.0
142
0.0208333333333333
142
0.0
142
0.0
142
0.0
142
0.0
142
1.0
142
0.0
142
0.0
142
0.0
142
0.0
142
1.0
179
     0
144
0.0208333333333333
144
0.0
144
0.0
144
0.0
144
0.0
144
0.0208333333333333
144
0.0
144
0.0
144
0.0
144
0.0
144
1.0
144
0.0
144
0.0
144
0.0
144
0.0
144
1.0
147
0.0208333333333333
147
0.0
147
0.0
147
0.0
147
0.0
147
0.0208333333333333
147
0.0
147
0.0
147
0.0
147
0.0
147
1.0
147
0.0
147
0.0
147
0.0
147
0.0
147
1.0
  0
MLEADERSTYLE
  5
67
102
{ACAD_REACTORS
330
66
102
}
330
66
100
AcDbMLeaderStyle
179
     2
170
     2
171
     1
172
     0
 90
        2
 40
0.0
 41
0.0
173
     1
 91
-1056964608
340
5B
 92
       -2
290
     1
 42
0.09
291
     1
 43
0.36
  3
Standard
 44
0.18
300

342
55
174
     1
178
     6
175
     1
176
     0
 93
-1056964608
 45
0.18
292
     0
297
     0
 46
0.18
 94
-1056964608
 47
1.0
 49
1.0
140
1.0
293
     1
141
0.0
294
     1
177
     0
142
1.0
295
     0
296
     0
143
0.125
271
     0
272
     9
273
     9
298
     1
  0
MLINESTYLE
  5
60
102
{ACAD_REACTORS
330
5F
102
}
330
5F
100
AcDbMlineStyle
  2
STANDARD
 70
     0
  3

 62
   256
 51
90.0
 52
90.0
 71
     2
 49
0.5
 62
   256
  6
BYLAYER
 49
-0.5
 62
   256
  6
BYLAYER
  0
ACDBPLACEHOLDER
  5
F
102
{ACAD_REACTORS
330
E
102
}
330
E
  0
SCALE
  5
43
102
{ACAD_REACTORS
330
42
102
}
330
42
100
AcDbScale
 70
     0
300
1:1
140
1.0
141
1.0
290
     1
  0
SCALE
  5
44
102
{ACAD_REACTORS
330
42
102
}
330
42
100
AcDbScale
 70
     0
300
1/128" = 1'-0"
140
0.0078125
141
12.0
290
     0
  0
SCALE
  5
45
102
{ACAD_REACTORS
330
42
102
}
330
42
100
AcDbScale
 70
     0
300
1/64" = 1'-0"
140
0.015625
141
12.0
290
     0
  0
SCALE
  5
46
102
{ACAD_REACTORS
330
42
102
}
330
42
100
AcDbScale
 70
     0
300
1/32" = 1'-0"
140
0.03125
141
12.0
290
     0
  0
SCALE
  5
47
102
{ACAD_REACTORS
330
42
102
}
330
42
100
AcDbScale
 70
     0
300
1/16" = 1'-0"
140
0.0625
141
12.0
290
     0
  0
SCALE
  5
48
102
{ACAD_REACTORS
330
42
102
}
330
42
100
AcDbScale
 70
     0
300
3/32" = 1'-0"
140
0.09375
141
12.0
290
     0
  0
SCALE
  5
49
102
{ACAD_REACTORS
330
42
102
}
330
42
100
AcDbScale
 70
     0
300
1/8" = 1'-0"
140
0.125
141
12.0
290
     0
  0
SCALE
  5
4A
102
{ACAD_REACTORS
330
42
102
}
330
42
100
AcDbScale
 70
     0
300
3/16" = 1'-0"
140
0.1875
141
12.0
290
     0
  0
SCALE
  5
4B
102
{ACAD_REACTORS
330
42
102
}
330
42
100
AcDbScale
 70
     0
300
1/4" = 1'-0"
140
0.25
141
12.0
290
     0
  0
SCALE
  5
4C
102
{ACAD_REACTORS
330
42
102
}
330
42
100
AcDbScale
 70
     0
300
3/8" = 1'-0"
140
0.375
141
12.0
290
     0
  0
SCALE
  5
4D
102
{ACAD_REACTORS
330
42
102
}
330
42
100
AcDbScale
 70
     0
300
1/2" = 1'-0"
140
0.5
141
12.0
290
     0
  0
SCALE
  5
4E
102
{ACAD_REACTORS
330
42
102
}
330
42
100
AcDbScale
 70
     0
300
3/4" = 1'-0"
140
0.75
141
12.0
290
     0
  0
SCALE
  5
4F
102
{ACAD_REACTORS
330
42
102
}
330
42
100
AcDbScale
 70
     0
300
1" = 1'-0"
140
1.0
141
12.0
290
     0
  0
SCALE
  5
50
102
{ACAD_REACTORS
330
42
102
}
330
42
100
AcDbScale
 70
     0
300
1-1/2" = 1'-0"
140
1.5
141
12.0
290
     0
  0
SCALE
  5
51
102
{ACAD_REACTORS
330
42
102
}
330
42
100
AcDbScale
 70
     0
300
3" = 1'-0"
140
3.0
141
12.0
290
     0
  0
SCALE
  5
52
102
{ACAD_REACTORS
330
42
102
}
330
42
100
AcDbScale
 70
     0
300
6" = 1'-0"
140
6.0
141
12.0
290
     0
  0
SCALE
  5
53
102
{ACAD_REACTORS
330
42
102
}
330
42
100
AcDbScale
 70
     0
300
1'-0" = 1'-0"
140
12.0
141
12.0
290
     0
  0
ACDBSECTIONVIEWSTYLE
  5
69
102
{ACAD_XDICTIONARY
360
F0
102
}
102
{ACAD_REACTORS
330
68
102
}
330
68
100
AcDbModelDocViewStyle
 70
     0
  3
Imperial24
290
     0
100
AcDbSectionViewStyle
 70
     0
 71
     0
 90
       78
 71
     1
340
55
 62
   256
 40
0.24
340
0
340
0
 62
   256
 40
0.24
300
I, O, Q, S, X, Z
 40
0.48
 90
        3
 40
0.18
 90
        1
 71
     2
340
5D
 90
       25
 62
   256
340
5D
 90
       50
 62
   256
 40
0.24
 40
0.0
 40
0.24
 71
     3
340
55
 62
   256
 40
0.24
 90
        1
 40
0.75
 90
        1
300
%<\AcVar ViewType \f "%tc1">% %<\AcVar ViewSectionStartId>%-%<\AcVar ViewSectionEndId>%\PSCALE %<\AcVar ViewScale \f "%sn">%
 71
     4
 62
   256
 62
   257
300
ANSI31
 40
1.0
 90
        0
290
     0
290
     0
 90
        6
 40
0.0
 40
1.570796326794896
 40
0.2617993877991494
 40
1.308996938995747
 40
-0.2617993877991494
 40
1.832595714594046
  0
TABLESTYLE
  5
65
102
{ACAD_XDICTIONARY
360
ED
102
}
102
{ACAD_REACTORS
330
64
102
}
330
64
100
AcDbTableStyle
280
     0
  3
Standard
 70
     0
 71
     0
 40
0.06
 41
0.06
280
     0
281
     0
  7
Standard
140
0.18
170
     2
 62
     0
 63
     7
283
     0
 90
      512
 91
        0
  1

274
    -2
284
     1
 64
     0
275
    -2
285
     1
 65
     0
276
    -2
286
     1
 66
     0
277
    -2
287
     1
 67
     0
278
    -2
288
     1
 68
     0
279
    -2
289
     1
 69
     0
  7
Standard
140
0.25
170
     5
 62
     0
 63
     7
283
     0
 90
      512
 91
        0
  1

274
    -2
284
     1
 64
     0
275
    -2
285
     1
 65
     0
276
    -2
286
     1
 66
     0
277
    -2
287
     1
 67
     0
278
    -2
288
     1
 68
     0
279
    -2
289
     1
 69
     0
  7
Standard
140
0.18
170
     5
 62
     0
 63
     7
283
     0
 90
      512
 91
        0
  1

274
    -2
284
     1
 64
     0
275
    -2
285
     1
 65
     0
276
    -2
286
     1
 66
     0
277
    -2
287
     1
 67
     0
278
    -2
288
     1
 68
     0
279
    -2
289
     1
 69
     0
  0
VISUALSTYLE
  5
2F
102
{ACAD_REACTORS
330
29
102
}
330
29
100
AcDbVisualStyle
  2
2dWireframe
 70
     4
177
     3
291
     0
 70
    58
 90
        0
176
     1
 90
        2
176
     1
 90
        0
176
     1
 90
        0
176
     1
 40
0.6
176
     1
 40
30.0
176
     1
 62
     7
420
 16777215
176
     1
 90
        1
176
     1
 90
        4
176
     1
 62
     7
176
     1
 62
   257
176
     1
 90
        1
176
     1
 90
        1
176
     1
 40
1.0
176
     1
 90
        0
176
     1
 62
   257
176
     1
 40
1.0
176
     1
 90
        1
176
     1
 90
        6
176
     1
 90
        2
176
     1
 62
     7
176
     1
 90
        5
176
     1
 90
        0
176
     1
 90
        0
176
     1
290
     0
176
     1
 90
        1
176
     1
 40
0.0
176
     1
 90
        0
176
     1
290
     1
176
     1
290
     1
176
     1
290
     0
176
     1
290
     0
176
     1
290
     0
176
     1
290
     0
176
     1
290
     0
176
     1
290
     0
176
     1
290
     0
176
     1
 90
       50
176
     1
 40
0.0
176
     1
 40
1.0
176
     1
 90
        0
176
     1
 62
    18
420
        0
176
     1
 90
       50
176
     1
 90
        3
176
     1
 62
     5
420
      255
176
     1
290
     0
176
     1
 90
       50
176
     1
 90
       50
176
     1
 90
       50
176
     1
290
     0
176
     1
 90
       50
176
     1
 62
   256
176
     0
 40
1.0
176
     0
 90
        2
176
     1
  1
strokes_ogs.tif
176
     1
290
     0
176
     1
 40
1.0
176
     1
 40
1.0
176
     1
1001
ACAD
1000
AcDbSavedByObjectVersion
1070
     0
  0
VISUALSTYLE
  5
2E
102
{ACAD_REACTORS
330
29
102
}
330
29
100
AcDbVisualStyle
  2
Basic
 70
     7
177
     3
291
     1
 70
    58
 90
        1
176
     1
 90
        0
176
     1
 90
        1
176
     1
 90
        0
176
     1
 40
0.6
176
     1
 40
30.0
176
     1
 62
     7
420
 16777215
176
     1
 90
        0
176
     1
 90
        4
176
     1
 62
     7
176
     1
 62
   257
176
     1
 90
        1
176
     1
 90
        1
176
     1
 40
1.0
176
     1
 90
        8
176
     1
 62
     7
176
     1
 40
1.0
176
     1
 90
        1
176
     1
 90
        6
176
     1
 90
        2
176
     1
 62
     7
176
     1
 90
        5
176
     1
 90
        0
176
     1
 90
        0
176
     1
290
     0
176
     1
 90
        1
176
     1
 40
0.0
176
     1
 90
        0
176
     1
290
     0
176
     1
290
     1
176
     1
290
     1
176
     1
290
     0
176
     1
290
     0
176
     1
290
     0
176
     1
290
     0
176
     1
290
     0
176
     1
290
     0
176
     1
 90
       50
176
     1
 40
0.0
176
     1
 40
1.0
176
     1
 90
        0
176
     1
 62
    18
420
        0
176
     1
 90
       50
176
     1
 90
        3
176
     1
 62
     5
420
      255
176
     1
290
     0
176
     1
 90
       50
176
     1
 90
       50
176
     1
 90
       50
176
     1
290
     0
176
     1
 90
       50
176
     1
 62
   256
176
     0
 40
1.0
176
     0
 90
        2
176
     1
  1
strokes_ogs.tif
176
     1
290
     0
176
     1
 40
1.0
176
     1
 40
1.0
176
     1
1001
ACAD
1000
AcDbSavedByObjectVersion
1070
     0
  0
VISUALSTYLE
  5
35
102
{ACAD_REACTORS
330
29
102
}
330
29
100
AcDbVisualStyle
  2
Brighten
 70
    12
177
     3
291
     1
 70
    58
 90
        2
176
     1
 90
        2
176
     1
 90
        0
176
     1
 90
        0
176
     1
 40
0.6
176
     1
 40
30.0
176
     1
 62
     7
420
 16777215
176
     1
 90
        1
176
     1
 90
        4
176
     1
 62
     7
176
     1
 62
   257
176
     1
 90
        1
176
     1
 90
        1
176
     1
 40
1.0
176
     1
 90
        8
176
     1
 62
     7
176
     1
 40
1.0
176
     1
 90
        1
176
     1
 90
        6
176
     1
 90
        2
176
     1
 62
     7
176
     1
 90
        5
176
     1
 90
        0
176
     1
 90
        0
176
     1
290
     0
176
     1
 90
        1
176
     1
 40
50.0
176
     1
 90
        0
176
     1
290
     0
176
     1
290
     1
176
     1
290
     1
176
     1
290
     0
176
     1
290
     0
176
     1
290
     0
176
     1
290
     0
176
     1
290
     0
176
     1
290
     0
176
     1
 90
       50
176
     1
 40
0.0
176
     1
 40
1.0
176
     1
 90
        0
176
     1
 62
    18
420
        0
176
     1
 90
       50
176
     1
 90
        3
176
     1
 62
     5
420
      255
176
     1
290
     0
176
     1
 90
       50
176
     1
 90
       50
176
     1
 90
       50
176
     1
290
     0
176
     1
 90
       50
176
     1
 62
   256
176
     0
 40
1.0
176
     0
 90
        2
176
     1
  1
strokes_ogs.tif
176
     1
290
     0
176
     1
 40
1.0
176
     1
 40
1.0
176
     1
1001
ACAD
1000
AcDbSavedByObjectVersion
1070
     0
  0
VISUALSTYLE
  5
39
102
{ACAD_REACTORS
330
29
102
}
330
29
100
AcDbVisualStyle
  2
ColorChange
 70
    16
177
     3
291
     1
 70
    58
 90
        2
176
     1
 90
        2
176
     1
 90
        3
176
     1
 90
        0
176
     1
 40
0.6
176
     1
 40
30.0
176
     1
 62
     8
420
  8421504
176
     1
 90
        1
176
     1
 90
        4
176
     1
 62
     7
176
     1
 62
   257
176
     1
 90
        1
176
     1
 90
        1
176
     1
 40
1.0
176
     1
 90
        8
176
     1
 62
     8
420
  8421504
176
     1
 40
1.0
176
     1
 90
        1
176
     1
 90
        6
176
     1
 90
        2
176
     1
 62
     7
176
     1
 90
        5
176
     1
 90
        0
176
     1
 90
        0
176
     1
290
     0
176
     1
 90
        1
176
     1
 40
0.0
176
     1
 90
        0
176
     1
290
     0
176
     1
290
     1
176
     1
290
     1
176
     1
290
     0
176
     1
290
     0
176
     1
290
     0
176
     1
290
     0
176
     1
290
     0
176
     1
290
     0
176
     1
 90
       50
176
     1
 40
0.0
176
     1
 40
1.0
176
     1
 90
        0
176
     1
 62
    18
420
        0
176
     1
 90
       50
176
     1
 90
        3
176
     1
 62
     5
420
      255
176
     1
290
     0
176
     1
 90
       50
176
     1
 90
       50
176
     1
 90
       50
176
     1
290
     0
176
     1
 90
       50
176
     1
 62
   256
176
     0
 40
1.0
176
     0
 90
        2
176
     1
  1
strokes_ogs.tif
176
     1
290
     0
176
     1
 40
1.0
176
     1
 40
1.0
176
     1
1001
ACAD
1000
AcDbSavedByObjectVersion
1070
     0
  0
VISUALSTYLE
  5
32
102
{ACAD_REACTORS
330
29
102
}
330
29
100
AcDbVisualStyle
  2
Conceptual
 70
     9
177
     3
291
     0
 70
    58
 90
        3
176
     1
 90
        2
176
     1
 90
        0
176
     1
 90
        0
176
     1
 40
0.6
176
     1
 40
30.0
176
     1
 62
     7
420
 16777215
176
     1
 90
        2
176
     1
 90
        2
176
     1
 62
     7
176
     1
 62
   257
176
     1
 90
        1
176
     1
 90
        1
176
     1
 40
179.0
176
     1
 90
        8
176
     1
 62
     7
176
     1
 40
1.0
176
     1
 90
        1
176
     1
 90
        6
176
     1
 90
        2
176
     1
 62
     7
176
     1
 90
        3
176
     1
 90
        0
176
     1
 90
        0
176
     1
290
     0
176
     1
 90
        1
176
     1
 40
0.0
176
     1
 90
        0
176
     1
290
     0
176
     1
290
     1
176
     1
290
     1
176
     1
290
     0
176
     1
290
     0
176
     1
290
     0
176
     1
290
     0
176
     1
290
     0
176
     1
290
     0
176
     1
 90
       50
176
     1
 40
0.0
176
     1
 40
1.0
176
     1
 90
        0
176
     1
 62
    18
420
        0
176
     1
 90
       50
176
     1
 90
        3
176
     1
 62
     5
420
      255
176
     1
290
     0
176
     1
 90
       50
176
     1
 90
       50
176
     1
 90
       50
176
     1
290
     0
176
     1
 90
       50
176
     1
 62
   256
176
     0
 40
1.0
176
     0
 90
        2
176
     1
  1
strokes_ogs.tif
176
     1
290
     0
176
     1
 40
1.0
176
     1
 40
1.0
176
     1
1001
ACAD
1000
AcDbSavedByObjectVersion
1070
     0
  0
VISUALSTYLE
  5
34
102
{ACAD_REACTORS
330
29
102
}
330
29
100
AcDbVisualStyle
  2
Dim
 70
    11
177
     3
291
     1
 70
    58
 90
        2
176
     1
 90
        2
176
     1
 90
        0
176
     1
 90
        0
176
     1
 40
0.6
176
     1
 40
30.0
176
     1
 62
     7
420
 16777215
176
     1
 90
        1
176
     1
 90
        4
176
     1
 62
     7
176
     1
 62
   257
176
     1
 90
        1
176
     1
 90
        1
176
     1
 40
1.0
176
     1
 90
        8
176
     1
 62
     7
176
     1
 40
1.0
176
     1
 90
        1
176
     1
 90
        6
176
     1
 90
        2
176
     1
 62
     7
176
     1
 90
        5
176
     1
 90
        0
176
     1
 90
        0
176
     1
290
     0
176
     1
 90
        1
176
     1
 40
-50.0
176
     1
 90
        0
176
     1
290
     0
176
     1
290
     1
176
     1
290
     1
176
     1
290
     0
176
     1
290
     0
176
     1
290
     0
176
     1
290
     0
176
     1
290
     0
176
     1
290
     0
176
     1
 90
       50
176
     1
 40
0.0
176
     1
 40
1.0
176
     1
 90
        0
176
     1
 62
    18
420
        0
176
     1
 90
       50
176
     1
 90
        3
176
     1
 62
     5
420
      255
176
     1
290
     0
176
     1
 90
       50
176
     1
 90
       50
176
     1
 90
       50
176
     1
290
     0
176
     1
 90
       50
176
     1
 62
   256
176
     0
 40
1.0
176
     0
 90
        2
176
     1
  1
strokes_ogs.tif
176
     1
290
     0
176
     1
 40
1.0
176
     1
 40
1.0
176
     1
1001
ACAD
1000
AcDbSavedByObjectVersion
1070
     0
  0
VISUALSTYLE
  5
41
102
{ACAD_REACTORS
330
29
102
}
330
29
100
AcDbVisualStyle
  2
EdgeColorOff
 70
    22
177
     3
291
     1
 70
    58
 90
        2
176
     0
 90
        2
176
     0
 90
        0
176
     0
 90
        0
176
     0
 40
0.6
176
     0
 40
30.0
176
     0
 62
     7
420
 16777215
176
     0
 90
        1
176
     0
 90
        4
176
     0
 62
     7
176
     0
 62
   257
176
     0
 90
        1
176
     0
 90
        1
176
     0
 40
1.0
176
     0
 90
        8
176
     2
 62
     7
176
     0
 40
1.0
176
     0
 90
        1
176
     0
 90
        6
176
     0
 90
        2
176
     0
 62
     7
176
     0
 90
        5
176
     0
 90
        0
176
     0
 90
        0
176
     0
290
     0
176
     0
 90
        1
176
     0
 40
0.0
176
     0
 90
        0
176
     0
290
     0
176
     0
290
     1
176
     0
290
     1
176
     0
290
     0
176
     0
290
     0
176
     0
290
     0
176
     0
290
     0
176
     0
290
     0
176
     0
290
     0
176
     0
 90
       50
176
     0
 40
0.0
176
     0
 40
1.0
176
     0
 90
        0
176
     0
 62
    18
420
        0
176
     0
 90
       50
176
     0
 90
        3
176
     0
 62
     5
420
      255
176
     0
290
     0
176
     0
 90
       50
176
     0
 90
       50
176
     0
 90
       50
176
     0
290
     0
176
     0
 90
       50
176
     0
 62
   256
176
     0
 40
1.0
176
     0
 90
        2
176
     0
  1
strokes_ogs.tif
176
     0
290
     0
176
     0
 40
1.0
176
     0
 40
1.0
176
     0
1001
ACAD
1000
AcDbSavedByObjectVersion
1070
     0
  0
VISUALSTYLE
  5
38
102
{ACAD_REACTORS
330
29
102
}
330
29
100
AcDbVisualStyle
  2
Facepattern
 70
    15
177
     3
291
     1
 70
    58
 90
        2
176
     1
 90
        2
176
     1
 90
        0
176
     1
 90
        0
176
     1
 40
0.6
176
     1
 40
30.0
176
     1
 62
     7
420
 16777215
176
     1
 90
        1
176
     1
 90
        4
176
     1
 62
     7
176
     1
 62
   257
176
     1
 90
        1
176
     1
 90
        1
176
     1
 40
1.0
176
     1
 90
        8
176
     1
 62
     7
176
     1
 40
1.0
176
     1
 90
        1
176
     1
 90
        6
176
     1
 90
        2
176
     1
 62
     7
176
     1
 90
        5
176
     1
 90
        0
176
     1
 90
        0
176
     1
290
     0
176
     1
 90
        1
176
     1
 40
0.0
176
     1
 90
        0
176
     1
290
     0
176
     1
290
     1
176
     1
290
     1
176
     1
290
     0
176
     1
290
     0
176
     1
290
     0
176
     1
290
     0
176
     1
290
     0
176
     1
290
     0
176
     1
 90
       50
176
     1
 40
0.0
176
     1
 40
1.0
176
     1
 90
        0
176
     1
 62
    18
420
        0
176
     1
 90
       50
176
     1
 90
        3
176
     1
 62
     5
420
      255
176
     1
290
     0
176
     1
 90
       50
176
     1
 90
       50
176
     1
 90
       50
176
     1
290
     0
176
     1
 90
       50
176
     1
 62
   256
176
     0
 40
1.0
176
     0
 90
        2
176
     1
  1
strokes_ogs.tif
176
     1
290
     0
176
     1
 40
1.0
176
     1
 40
1.0
176
     1
1001
ACAD
1000
AcDbSavedByObjectVersion
1070
     0
  0
VISUALSTYLE
  5
2A
102
{ACAD_REACTORS
330
29
102
}
330
29
100
AcDbVisualStyle
  2
Flat
 70
     0
177
     3
291
     1
 70
    58
 90
        2
176
     1
 90
        1
176
     1
 90
        1
176
     1
 90
        2
176
     1
 40
0.6
176
     1
 40
30.0
176
     1
 62
     7
420
 16777215
176
     1
 90
        0
176
     1
 90
        0
176
     1
 62
     7
176
     1
 62
   257
176
     1
 90
        1
176
     1
 90
        1
176
     1
 40
1.0
176
     1
 90
        8
176
     1
 62
     7
176
     1
 40
1.0
176
     1
 90
        1
176
     1
 90
        6
176
     1
 90
        2
176
     1
 62
     7
176
     1
 90
        5
176
     1
 90
        0
176
     1
 90
        0
176
     1
290
     0
176
     1
 90
       13
176
     1
 40
0.0
176
     1
 90
        0
176
     1
290
     0
176
     1
290
     1
176
     1
290
     1
176
     1
290
     0
176
     1
290
     0
176
     1
290
     0
176
     1
290
     0
176
     1
290
     0
176
     1
290
     0
176
     1
 90
       50
176
     1
 40
0.0
176
     1
 40
1.0
176
     1
 90
        0
176
     1
 62
    18
420
        0
176
     1
 90
       50
176
     1
 90
        3
176
     1
 62
     5
420
      255
176
     1
290
     0
176
     1
 90
       50
176
     1
 90
       50
176
     1
 90
       50
176
     1
290
     0
176
     1
 90
       50
176
     1
 62
   256
176
     0
 40
1.0
176
     0
 90
        2
176
     1
  1
strokes_ogs.tif
176
     1
290
     0
176
     1
 40
1.0
176
     1
 40
1.0
176
     1
1001
ACAD
1000
AcDbSavedByObjectVersion
1070
     0
  0
VISUALSTYLE
  5
2B
102
{ACAD_REACTORS
330
29
102
}
330
29
100
AcDbVisualStyle
  2
FlatWithEdges
 70
     1
177
     3
291
     1
 70
    58
 90
        2
176
     1
 90
        1
176
     1
 90
        1
176
     1
 90
        2
176
     1
 40
0.6
176
     1
 40
30.0
176
     1
 62
     7
420
 16777215
176
     1
 90
        1
176
     1
 90
        0
176
     1
 62
     7
176
     1
 62
   257
176
     1
 90
        1
176
     1
 90
        1
176
     1
 40
1.0
176
     1
 90
        0
176
     1
 62
   257
176
     1
 40
1.0
176
     1
 90
        1
176
     1
 90
        6
176
     1
 90
        2
176
     1
 62
     7
176
     1
 90
        5
176
     1
 90
        0
176
     1
 90
        0
176
     1
290
     0
176
     1
 90
       13
176
     1
 40
0.0
176
     1
 90
        0
176
     1
290
     0
176
     1
290
     1
176
     1
290
     1
176
     1
290
     0
176
     1
290
     0
176
     1
290
     0
176
     1
290
     0
176
     1
290
     0
176
     1
290
     0
176
     1
 90
       50
176
     1
 40
0.0
176
     1
 40
1.0
176
     1
 90
        0
176
     1
 62
    18
420
        0
176
     1
 90
       50
176
     1
 90
        3
176
     1
 62
     5
420
      255
176
     1
290
     0
176
     1
 90
       50
176
     1
 90
       50
176
     1
 90
       50
176
     1
290
     0
176
     1
 90
       50
176
     1
 62
   256
176
     0
 40
1.0
176
     0
 90
        2
176
     1
  1
strokes_ogs.tif
176
     1
290
     0
176
     1
 40
1.0
176
     1
 40
1.0
176
     1
1001
ACAD
1000
AcDbSavedByObjectVersion
1070
     0
  0
VISUALSTYLE
  5
2C
102
{ACAD_REACTORS
330
29
102
}
330
29
100
AcDbVisualStyle
  2
Gouraud
 70
     2
177
     3
291
     1
 70
    58
 90
        2
176
     1
 90
        2
176
     1
 90
        1
176
     1
 90
        2
176
     1
 40
0.6
176
     1
 40
30.0
176
     1
 62
     7
420
 16777215
176
     1
 90
        0
176
     1
 90
        0
176
     1
 62
     7
176
     1
 62
   257
176
     1
 90
        1
176
     1
 90
        1
176
     1
 40
1.0
176
     1
 90
        0
176
     1
 62
     7
176
     1
 40
1.0
176
     1
 90
        1
176
     1
 90
        6
176
     1
 90
        2
176
     1
 62
     7
176
     1
 90
        5
176
     1
 90
        0
176
     1
 90
        0
176
     1
290
     0
176
     1
 90
       13
176
     1
 40
0.0
176
     1
 90
        0
176
     1
290
     0
176
     1
290
     1
176
     1
290
     1
176
     1
290
     0
176
     1
290
     0
176
     1
290
     0
176
     1
290
     0
176
     1
290
     0
176
     1
290
     0
176
     1
 90
       50
176
     1
 40
0.0
176
     1
 40
1.0
176
     1
 90
        0
176
     1
 62
    18
420
        0
176
     1
 90
       50
176
     1
 90
        3
176
     1
 62
     5
420
      255
176
     1
290
     0
176
     1
 90
       50
176
     1
 90
       50
176
     1
 90
       50
176
     1
290
     0
176
     1
 90
       50
176
     1
 62
   256
176
     0
 40
1.0
176
     0
 90
        2
176
     1
  1
strokes_ogs.tif
176
     1
290
     0
176
     1
 40
1.0
176
     1
 40
1.0
176
     1
1001
ACAD
1000
AcDbSavedByObjectVersion
1070
     0
  0
VISUALSTYLE
  5
2D
102
{ACAD_REACTORS
330
29
102
}
330
29
100
AcDbVisualStyle
  2
GouraudWithEdges
 70
     3
177
     3
291
     1
 70
    58
 90
        2
176
     1
 90
        2
176
     1
 90
        1
176
     1
 90
        2
176
     1
 40
0.6
176
     1
 40
30.0
176
     1
 62
     7
420
 16777215
176
     1
 90
        1
176
     1
 90
        0
176
     1
 62
     7
176
     1
 62
   257
176
     1
 90
        1
176
     1
 90
        1
176
     1
 40
1.0
176
     1
 90
        0
176
     1
 62
   257
176
     1
 40
1.0
176
     1
 90
        1
176
     1
 90
        6
176
     1
 90
        2
176
     1
 62
     7
176
     1
 90
        5
176
     1
 90
        0
176
     1
 90
        0
176
     1
290
     0
176
     1
 90
       13
176
     1
 40
0.0
176
     1
 90
        0
176
     1
290
     0
176
     1
290
     1
176
     1
290
     1
176
     1
290
     0
176
     1
290
     0
176
     1
290
     0
176
     1
290
     0
176
     1
290
     0
176
     1
290
     0
176
     1
 90
       50
176
     1
 40
0.0
176
     1
 40
1.0
176
     1
 90
        0
176
     1
 62
    18
420
        0
176
     1
 90
       50
176
     1
 90
        3
176
     1
 62
     5
420
      255
176
     1
290
     0
176
     1
 90
       50
176
     1
 90
       50
176
     1
 90
       50
176
     1
290
     0
176
     1
 90
       50
176
     1
 62
   256
176
     0
 40
1.0
176
     0
 90
        2
176
     1
  1
strokes_ogs.tif
176
     1
290
     0
176
     1
 40
1.0
176
     1
 40
1.0
176
     1
1001
ACAD
1000
AcDbSavedByObjectVersion
1070
     0
  0
VISUALSTYLE
  5
31
102
{ACAD_REACTORS
330
29
102
}
330
29
100
AcDbVisualStyle
  2
Hidden
 70
     6
177
     3
291
     0
 70
    58
 90
        1
176
     1
 90
        2
176
     1
 90
        2
176
     1
 90
        0
176
     1
 40
0.6
176
     1
 40
30.0
176
     1
 62
     7
420
 16777215
176
     1
 90
        2
176
     1
 90
        2
176
     1
 62
     7
176
     1
 62
   257
176
     1
 90
        2
176
     1
 90
        1
176
     1
 40
40.0
176
     1
 90
        0
176
     1
 62
   257
176
     1
 40
1.0
176
     1
 90
        1
176
     1
 90
        6
176
     1
 90
        2
176
     1
 62
     7
176
     1
 90
        3
176
     1
 90
        0
176
     1
 90
        0
176
     1
290
     0
176
     1
 90
        1
176
     1
 40
0.0
176
     1
 90
        0
176
     1
290
     0
176
     1
290
     1
176
     1
290
     1
176
     1
290
     0
176
     1
290
     0
176
     1
290
     0
176
     1
290
     0
176
     1
290
     0
176
     1
290
     0
176
     1
 90
       50
176
     1
 40
0.0
176
     1
 40
1.0
176
     1
 90
        0
176
     1
 62
    18
420
        0
176
     1
 90
       50
176
     1
 90
        3
176
     1
 62
     5
420
      255
176
     1
290
     0
176
     1
 90
       50
176
     1
 90
       50
176
     1
 90
       50
176
     1
290
     0
176
     1
 90
       50
176
     1
 62
   256
176
     0
 40
1.0
176
     0
 90
        2
176
     1
  1
strokes_ogs.tif
176
     1
290
     0
176
     1
 40
1.0
176
     1
 40
1.0
176
     1
1001
ACAD
1000
AcDbSavedByObjectVersion
1070
     0
  0
VISUALSTYLE
  5
3F
102
{ACAD_REACTORS
330
29
102
}
330
29
100
AcDbVisualStyle
  2
JitterOff
 70
    20
177
     3
291
     1
 70
    58
 90
        2
176
     0
 90
        2
176
     0
 90
        0
176
     0
 90
        0
176
     0
 40
0.6
176
     0
 40
30.0
176
     0
 62
     7
420
 16777215
176
     0
 90
        1
176
     0
 90
        4
176
     0
 62
     7
176
     0
 62
   257
176
     0
 90
        1
176
     0
 90
        1
176
     0
 40
1.0
176
     0
 90
       10
176
     2
 62
     7
176
     0
 40
1.0
176
     0
 90
        1
176
     0
 90
        6
176
     0
 90
        2
176
     0
 62
     7
176
     0
 90
        5
176
     0
 90
        0
176
     0
 90
        0
176
     0
290
     0
176
     0
 90
        1
176
     0
 40
0.0
176
     0
 90
        0
176
     0
290
     0
176
     0
290
     1
176
     0
290
     1
176
     0
290
     0
176
     0
290
     0
176
     0
290
     0
176
     0
290
     0
176
     0
290
     0
176
     0
290
     0
176
     0
 90
       50
176
     0
 40
0.0
176
     0
 40
1.0
176
     0
 90
        0
176
     0
 62
    18
420
        0
176
     0
 90
       50
176
     0
 90
        3
176
     0
 62
     5
420
      255
176
     0
290
     0
176
     0
 90
       50
176
     0
 90
       50
176
     0
 90
       50
176
     0
290
     0
176
     0
 90
       50
176
     0
 62
   256
176
     0
 40
1.0
176
     0
 90
        2
176
     0
  1
strokes_ogs.tif
176
     0
290
     0
176
     0
 40
1.0
176
     0
 40
1.0
176
     0
1001
ACAD
1000
AcDbSavedByObjectVersion
1070
     0
  0
VISUALSTYLE
  5
37
102
{ACAD_REACTORS
330
29
102
}
330
29
100
AcDbVisualStyle
  2
Linepattern
 70
    14
177
     3
291
     1
 70
    58
 90
        2
176
     1
 90
        2
176
     1
 90
        0
176
     1
 90
        0
176
     1
 40
0.6
176
     1
 40
30.0
176
     1
 62
     7
420
 16777215
176
     1
 90
        1
176
     1
 90
        4
176
     1
 62
     7
176
     1
 62
   257
176
     1
 90
        7
176
     1
 90
        7
176
     1
 40
1.0
176
     1
 90
        8
176
     1
 62
     7
176
     1
 40
1.0
176
     1
 90
        1
176
     1
 90
        6
176
     1
 90
        2
176
     1
 62
     7
176
     1
 90
        5
176
     1
 90
        0
176
     1
 90
        0
176
     1
290
     0
176
     1
 90
        1
176
     1
 40
0.0
176
     1
 90
        0
176
     1
290
     0
176
     1
290
     1
176
     1
290
     1
176
     1
290
     0
176
     1
290
     0
176
     1
290
     0
176
     1
290
     0
176
     1
290
     0
176
     1
290
     0
176
     1
 90
       50
176
     1
 40
0.0
176
     1
 40
1.0
176
     1
 90
        0
176
     1
 62
    18
420
        0
176
     1
 90
       50
176
     1
 90
        3
176
     1
 62
     5
420
      255
176
     1
290
     0
176
     1
 90
       50
176
     1
 90
       50
176
     1
 90
       50
176
     1
290
     0
176
     1
 90
       50
176
     1
 62
   256
176
     0
 40
1.0
176
     0
 90
        2
176
     1
  1
strokes_ogs.tif
176
     1
290
     0
176
     1
 40
1.0
176
     1
 40
1.0
176
     1
1001
ACAD
1000
AcDbSavedByObjectVersion
1070
     0
  0
VISUALSTYLE
  5
40
102
{ACAD_REACTORS
330
29
102
}
330
29
100
AcDbVisualStyle
  2
OverhangOff
 70
    21
177
     3
291
     1
 70
    58
 90
        2
176
     0
 90
        2
176
     0
 90
        0
176
     0
 90
        0
176
     0
 40
0.6
176
     0
 40
30.0
176
     0
 62
     7
420
 16777215
176
     0
 90
        1
176
     0
 90
        4
176
     0
 62
     7
176
     0
 62
   257
176
     0
 90
        1
176
     0
 90
        1
176
     0
 40
1.0
176
     0
 90
        9
176
     2
 62
     7
176
     0
 40
1.0
176
     0
 90
        1
176
     0
 90
        6
176
     0
 90
        2
176
     0
 62
     7
176
     0
 90
        5
176
     0
 90
        0
176
     0
 90
        0
176
     0
290
     0
176
     0
 90
        1
176
     0
 40
0.0
176
     0
 90
        0
176
     0
290
     0
176
     0
290
     1
176
     0
290
     1
176
     0
290
     0
176
     0
290
     0
176
     0
290
     0
176
     0
290
     0
176
     0
290
     0
176
     0
290
     0
176
     0
 90
       50
176
     0
 40
0.0
176
     0
 40
1.0
176
     0
 90
        0
176
     0
 62
    18
420
        0
176
     0
 90
       50
176
     0
 90
        3
176
     0
 62
     5
420
      255
176
     0
290
     0
176
     0
 90
       50
176
     0
 90
       50
176
     0
 90
       50
176
     0
290
     0
176
     0
 90
       50
176
     0
 62
   256
176
     0
 40
1.0
176
     0
 90
        2
176
     0
  1
strokes_ogs.tif
176
     0
290
     0
176
     0
 40
1.0
176
     0
 40
1.0
176
     0
1001
ACAD
1000
AcDbSavedByObjectVersion
1070
     0
  0
VISUALSTYLE
  5
33
102
{ACAD_REACTORS
330
29
102
}
330
29
100
AcDbVisualStyle
  2
Realistic
 70
     8
177
     3
291
     0
 70
    58
 90
        2
176
     1
 90
        3
176
     1
 90
        0
176
     1
 90
        2
176
     1
 40
0.6
176
     1
 40
30.0
176
     1
 62
     7
420
 16777215
176
     1
 90
        0
176
     1
 90
        0
176
     1
 62
     7
176
     1
 62
   257
176
     1
 90
        1
176
     1
 90
        1
176
     1
 40
1.0
176
     1
 90
        8
176
     1
 62
   257
176
     1
 40
1.0
176
     1
 90
        1
176
     1
 90
        6
176
     1
 90
        2
176
     1
 62
     7
176
     1
 90
        3
176
     1
 90
        0
176
     1
 90
        0
176
     1
290
     0
176
     1
 90
       13
176
     1
 40
0.0
176
     1
 90
        0
176
     1
290
     0
176
     1
290
     1
176
     1
290
     1
176
     1
290
     0
176
     1
290
     0
176
     1
290
     0
176
     1
290
     0
176
     1
290
     0
176
     1
290
     0
176
     1
 90
       50
176
     1
 40
0.0
176
     1
 40
1.0
176
     1
 90
        0
176
     1
 62
    18
420
        0
176
     1
 90
       50
176
     1
 90
        3
176
     1
 62
     5
420
      255
176
     1
290
     0
176
     1
 90
       50
176
     1
 90
       50
176
     1
 90
       50
176
     1
290
     0
176
     1
 90
       50
176
     1
 62
   256
176
     0
 40
1.0
176
     0
 90
        2
176
     1
  1
strokes_ogs.tif
176
     1
290
     0
176
     1
 40
1.0
176
     1
 40
1.0
176
     1
1001
ACAD
1000
AcDbSavedByObjectVersion
1070
     0
  0
VISUALSTYLE
  5
3E
102
{ACAD_REACTORS
330
29
102
}
330
29
100
AcDbVisualStyle
  2
Shaded
 70
    27
177
     3
291
     0
 70
    58
 90
        2
176
     1
 90
        2
176
     1
 90
        1
176
     1
 90
        2
176
     1
 40
0.6
176
     1
 40
30.0
176
     1
 62
     7
420
 16777215
176
     1
 90
        0
176
     1
 90
        4
176
     1
 62
     7
176
     1
 62
   257
176
     1
 90
        1
176
     1
 90
        1
176
     1
 40
1.0
176
     1
 90
        8
176
     1
 62
   257
176
     1
 40
1.0
176
     1
 90
        1
176
     1
 90
        6
176
     1
 90
        2
176
     1
 62
     8
420
  7895160
176
     1
 90
        3
176
     1
 90
        0
176
     1
 90
        0
176
     1
290
     0
176
     1
 90
        5
176
     1
 40
0.0
176
     1
 90
        0
176
     1
290
     0
176
     1
290
     1
176
     1
290
     1
176
     1
290
     0
176
     1
290
     0
176
     1
290
     0
176
     1
290
     0
176
     1
290
     0
176
     1
290
     0
176
     1
 90
       50
176
     1
 40
0.0
176
     1
 40
1.0
176
     1
 90
        0
176
     1
 62
    18
420
        0
176
     1
 90
       50
176
     1
 90
        3
176
     1
 62
     5
420
      255
176
     1
290
     0
176
     1
 90
       50
176
     1
 90
       50
176
     1
 90
       50
176
     1
290
     0
176
     1
 90
       50
176
     1
 62
   256
176
     0
 40
1.0
176
     0
 90
        2
176
     1
  1
strokes_ogs.tif
176
     1
290
     0
176
     1
 40
1.0
176
     1
 40
1.0
176
     1
1001
ACAD
1000
AcDbSavedByObjectVersion
1070
     0
  0
VISUALSTYLE
  5
3D
102
{ACAD_REACTORS
330
29
102
}
330
29
100
AcDbVisualStyle
  2
Shaded with edges
 70
    26
177
     3
291
     0
 70
    58
 90
        2
176
     1
 90
        2
176
     1
 90
        1
176
     1
 90
        2
176
     1
 40
0.6
176
     1
 40
30.0
176
     1
 62
     7
420
 16777215
176
     1
 90
        1
176
     1
 90
        2
176
     1
 62
     7
176
     1
 62
   257
176
     1
 90
        2
176
     1
 90
        1
176
     1
 40
1.0
176
     1
 90
        8
176
     1
 62
   257
176
     1
 40
1.0
176
     1
 90
        1
176
     1
 90
        6
176
     1
 90
        2
176
     1
 62
     7
176
     1
 90
        3
176
     1
 90
        0
176
     1
 90
        0
176
     1
290
     0
176
     1
 90
        5
176
     1
 40
0.0
176
     1
 90
        0
176
     1
290
     0
176
     1
290
     1
176
     1
290
     1
176
     1
290
     0
176
     1
290
     0
176
     1
290
     0
176
     1
290
     0
176
     1
290
     0
176
     1
290
     0
176
     1
 90
       50
176
     1
 40
0.0
176
     1
 40
1.0
176
     1
 90
        0
176
     1
 62
    18
420
        0
176
     1
 90
       50
176
     1
 90
        3
176
     1
 62
     5
420
      255
176
     1
290
     0
176
     1
 90
       50
176
     1
 90
       50
176
     1
 90
       50
176
     1
290
     0
176
     1
 90
       50
176
     1
 62
   256
176
     0
 40
1.0
176
     0
 90
        2
176
     1
  1
strokes_ogs.tif
176
     1
290
     0
176
     1
 40
1.0
176
     1
 40
1.0
176
     1
1001
ACAD
1000
AcDbSavedByObjectVersion
1070
     0
  0
VISUALSTYLE
  5
3A
102
{ACAD_REACTORS
330
29
102
}
330
29
100
AcDbVisualStyle
  2
Shades of Gray
 70
    23
177
     3
291
     0
 70
    58
 90
        2
176
     1
 90
        2
176
     1
 90
        3
176
     1
 90
        0
176
     1
 40
0.6
176
     1
 40
30.0
176
     1
 62
     7
420
 16777215
176
     1
 90
        2
176
     1
 90
        2
176
     1
 62
     7
176
     1
 62
     7
176
     1
 90
        1
176
     1
 90
        1
176
     1
 40
40.0
176
     1
 90
        8
176
     1
 62
     7
176
     1
 40
1.0
176
     1
 90
        1
176
     1
 90
        6
176
     1
 90
        2
176
     1
 62
     7
176
     1
 90
        3
176
     1
 90
        0
176
     1
 90
        0
176
     1
290
     0
176
     1
 90
        1
176
     1
 40
0.0
176
     1
 90
        0
176
     1
290
     0
176
     1
290
     1
176
     1
290
     1
176
     1
290
     0
176
     1
290
     0
176
     1
290
     0
176
     1
290
     0
176
     1
290
     0
176
     1
290
     0
176
     1
 90
       50
176
     1
 40
0.0
176
     1
 40
1.0
176
     1
 90
        0
176
     1
 62
    18
420
        0
176
     1
 90
       50
176
     1
 90
        3
176
     1
 62
     5
420
      255
176
     1
290
     0
176
     1
 90
       50
176
     1
 90
       50
176
     1
 90
       50
176
     1
290
     0
176
     1
 90
       50
176
     1
 62
   256
176
     0
 40
1.0
176
     0
 90
        2
176
     1
  1
strokes_ogs.tif
176
     1
290
     0
176
     1
 40
1.0
176
     1
 40
1.0
176
     1
1001
ACAD
1000
AcDbSavedByObjectVersion
1070
     0
  0
VISUALSTYLE
  5
3B
102
{ACAD_REACTORS
330
29
102
}
330
29
100
AcDbVisualStyle
  2
Sketchy
 70
    24
177
     3
291
     0
 70
    58
 90
        1
176
     1
 90
        2
176
     1
 90
        2
176
     1
 90
        0
176
     1
 40
0.6
176
     1
 40
30.0
176
     1
 62
     7
420
 16777215
176
     1
 90
        2
176
     1
 90
        2
176
     1
 62
     7
176
     1
 62
     7
176
     1
 90
        1
176
     1
 90
        1
176
     1
 40
40.0
176
     1
 90
       11
176
     1
 62
     7
176
     1
 40
1.0
176
     1
 90
        1
176
     1
 90
        6
176
     1
 90
        2
176
     1
 62
     7
176
     1
 90
        6
176
     1
 90
        0
176
     1
 90
        0
176
     1
290
     0
176
     1
 90
        1
176
     1
 40
0.0
176
     1
 90
        0
176
     1
290
     0
176
     1
290
     1
176
     1
290
     1
176
     1
290
     0
176
     1
290
     0
176
     1
290
     0
176
     1
290
     0
176
     1
290
     0
176
     1
290
     0
176
     1
 90
       50
176
     1
 40
0.0
176
     1
 40
1.0
176
     1
 90
        0
176
     1
 62
    18
420
        0
176
     1
 90
       50
176
     1
 90
        3
176
     1
 62
     5
420
      255
176
     1
290
     0
176
     1
 90
       50
176
     1
 90
       50
176
     1
 90
       50
176
     1
290
     0
176
     1
 90
       50
176
     1
 62
   256
176
     0
 40
1.0
176
     0
 90
        2
176
     1
  1
strokes_ogs.tif
176
     1
290
     0
176
     1
 40
1.0
176
     1
 40
1.0
176
     1
1001
ACAD
1000
AcDbSavedByObjectVersion
1070
     0
  0
VISUALSTYLE
  5
36
102
{ACAD_REACTORS
330
29
102
}
330
29
100
AcDbVisualStyle
  2
Thicken
 70
    13
177
     3
291
     1
 70
    58
 90
        2
176
     1
 90
        2
176
     1
 90
        0
176
     1
 90
        0
176
     1
 40
0.6
176
     1
 40
30.0
176
     1
 62
     7
420
 16777215
176
     1
 90
        1
176
     1
 90
        4
176
     1
 62
     7
176
     1
 62
   257
176
     1
 90
        1
176
     1
 90
        1
176
     1
 40
1.0
176
     1
 90
       12
176
     1
 62
     7
176
     1
 40
1.0
176
     1
 90
        1
176
     1
 90
        6
176
     1
 90
        2
176
     1
 62
     7
176
     1
 90
        5
176
     1
 90
        0
176
     1
 90
        0
176
     1
290
     0
176
     1
 90
        1
176
     1
 40
0.0
176
     1
 90
        0
176
     1
290
     0
176
     1
290
     1
176
     1
290
     1
176
     1
290
     0
176
     1
290
     0
176
     1
290
     0
176
     1
290
     0
176
     1
290
     0
176
     1
290
     0
176
     1
 90
       50
176
     1
 40
0.0
176
     1
 40
1.0
176
     1
 90
        0
176
     1
 62
    18
420
        0
176
     1
 90
       50
176
     1
 90
        3
176
     1
 62
     5
420
      255
176
     1
290
     0
176
     1
 90
       50
176
     1
 90
       50
176
     1
 90
       50
176
     1
290
     0
176
     1
 90
       50
176
     1
 62
   256
176
     0
 40
1.0
176
     0
 90
        2
176
     1
  1
strokes_ogs.tif
176
     1
290
     0
176
     1
 40
1.0
176
     1
 40
1.0
176
     1
1001
ACAD
1000
AcDbSavedByObjectVersion
1070
     0
  0
VISUALSTYLE
  5
30
102
{ACAD_REACTORS
330
29
102
}
330
29
100
AcDbVisualStyle
  2
Wireframe
 70
     5
177
     3
291
     0
 70
    58
 90
        0
176
     1
 90
        2
176
     1
 90
        0
176
     1
 90
        0
176
     1
 40
0.6
176
     1
 40
30.0
176
     1
 62
     7
420
 16777215
176
     1
 90
        1
176
     1
 90
        4
176
     1
 62
     7
176
     1
 62
   257
176
     1
 90
        1
176
     1
 90
        1
176
     1
 40
1.0
176
     1
 90
        0
176
     1
 62
   257
176
     1
 40
1.0
176
     1
 90
        1
176
     1
 90
        6
176
     1
 90
        2
176
     1
 62
     7
176
     1
 90
        3
176
     1
 90
        0
176
     1
 90
        0
176
     1
290
     0
176
     1
 90
        1
176
     1
 40
0.0
176
     1
 90
        0
176
     1
290
     0
176
     1
290
     1
176
     1
290
     1
176
     1
290
     0
176
     1
290
     0
176
     1
290
     0
176
     1
290
     0
176
     1
290
     0
176
     1
290
     0
176
     1
 90
       50
176
     1
 40
0.0
176
     1
 40
1.0
176
     1
 90
        0
176
     1
 62
    18
420
        0
176
     1
 90
       50
176
     1
 90
        3
176
     1
 62
     5
420
      255
176
     1
290
     0
176
     1
 90
       50
176
     1
 90
       50
176
     1
 90
       50
176
     1
290
     0
176
     1
 90
       50
176
     1
 62
   256
176
     0
 40
1.0
176
     0
 90
        2
176
     1
  1
strokes_ogs.tif
176
     1
290
     0
176
     1
 40
1.0
176
     1
 40
1.0
176
     1
1001
ACAD
1000
AcDbSavedByObjectVersion
1070
     0
  0
VISUALSTYLE
  5
3C
102
{ACAD_REACTORS
330
29
102
}
330
29
100
AcDbVisualStyle
  2
X-Ray
 70
    25
177
     3
291
     0
 70
    58
 90
        2
176
     1
 90
        2
176
     1
 90
        1
176
     1
 90
        1
176
     1
 40
0.5
176
     1
 40
30.0
176
     1
 62
     7
420
 16777215
176
     1
 90
        1
176
     1
 90
        0
176
     1
 62
     7
176
     1
 62
   257
176
     1
 90
        1
176
     1
 90
        1
176
     1
 40
1.0
176
     1
 90
        8
176
     1
 62
     7
176
     1
 40
1.0
176
     1
 90
        1
176
     1
 90
        6
176
     1
 90
        2
176
     1
 62
     7
176
     1
 90
        3
176
     1
 90
        0
176
     1
 90
        0
176
     1
290
     0
176
     1
 90
       13
176
     1
 40
0.0
176
     1
 90
        0
176
     1
290
     0
176
     1
290
     1
176
     1
290
     1
176
     1
290
     0
176
     1
290
     0
176
     1
290
     0
176
     1
290
     0
176
     1
290
     0
176
     1
290
     0
176
     1
 90
       50
176
     1
 40
0.0
176
     1
 40
1.0
176
     1
 90
        0
176
     1
 62
    18
420
        0
176
     1
 90
       50
176
     1
 90
        3
176
     1
 62
     5
420
      255
176
     1
290
     0
176
     1
 90
       50
176
     1
 90
       50
176
     1
 90
       50
176
     1
290
     0
176
     1
 90
       50
176
     1
 62
   256
176
     0
 40
1.0
176
     0
 90
        2
176
     1
  1
strokes_ogs.tif
176
     1
290
     0
176
     1
 40
1.0
176
     1
 40
1.0
176
     1
1001
ACAD
1000
AcDbSavedByObjectVersion
1070
     0
  0
DICTIONARYVAR
  5
EC
102
{ACAD_REACTORS
330
E7
102
}
330
E7
100
DictionaryVariables
280
     0
  1
1:1
  0
DICTIONARYVAR
  5
E9
102
{ACAD_REACTORS
330
E7
102
}
330
E7
100
DictionaryVariables
280
     0
  1
STANDARD
  0
DICTIONARYVAR
  5
E8
102
{ACAD_REACTORS
330
E7
102
}
330
E7
100
DictionaryVariables
280
     0
  1
STANDARD
  0
DICTIONARYVAR
  5
EA
102
{ACAD_REACTORS
330
E7
102
}
330
E7
100
DictionaryVariables
280
     0
  1
Imperial24
  0
DICTIONARYVAR
  5
EB
102
{ACAD_REACTORS
330
E7
102
}
330
E7
100
DictionaryVariables
280
     0
  1
Imperial24
  0
DICTIONARY
  5
F2
330
6B
100
AcDbDictionary
280
     1
281
     1
  3
ACAD_XREC_ROUNDTRIP
360
F3
  0
DICTIONARY
  5
1A
330
19
100
AcDbDictionary
280
     1
281
     1
  3
BUMPTILE
360
1C
  3
DIFFUSETILE
360
1B
  3
OPACITYTILE
360
1F
  3
REFLECTIONTILE
360
1E
  3
REFRACTIONTILE
360
20
  3
SPECULARTILE
360
1D
  0
DICTIONARY
  5
12
330
11
100
AcDbDictionary
280
     1
281
     1
  3
BUMPTILE
360
14
  3
DIFFUSETILE
360
13
  3
OPACITYTILE
360
17
  3
REFLECTIONTILE
360
16
  3
REFRACTIONTILE
360
18
  3
SPECULARTILE
360
15
  0
DICTIONARY
  5
22
330
21
100
AcDbDictionary
280
     1
281
     1
  3
BUMPTILE
360
24
  3
DIFFUSETILE
360
23
  3
OPACITYTILE
360
27
  3
REFLECTIONTILE
360
26
  3
REFRACTIONTILE
360
28
  3
SPECULARTILE
360
25
  0
DICTIONARY
  5
F0
330
69
100
AcDbDictionary
280
     1
281
     1
  3
ACAD_XREC_ROUNDTRIP
360
F1
  0
DICTIONARY
  5
ED
330
65
100
AcDbDictionary
280
     1
281
     1
  3
ACAD_ROUNDTRIP_2008_TABLESTYLE_CELLSTYLEMAP
360
EE
  0
XRECORD
  5
F3
102
{ACAD_REACTORS
330
F2
102
}
330
F2
100
AcDbXrecord
280
     1
102
DISPLAYNAME
  1
Imperial24
102
FLAGS
 90
        0
  0
XRECORD
  5
1C
102
{ACAD_REACTORS
330
1A
102
}
330
1A
100
AcDbXrecord
280
     1
270
     1
271
     1
  0
XRECORD
  5
1B
102
{ACAD_REACTORS
330
1A
102
}
330
1A
100
AcDbXrecord
280
     1
270
     1
271
     1
  0
XRECORD
  5
1F
102
{ACAD_REACTORS
330
1A
102
}
330
1A
100
AcDbXrecord
280
     1
270
     1
271
     1
  0
XRECORD
  5
1E
102
{ACAD_REACTORS
330
1A
102
}
330
1A
100
AcDbXrecord
280
     1
270
     1
271
     1
  0
XRECORD
  5
20
102
{ACAD_REACTORS
330
1A
102
}
330
1A
100
AcDbXrecord
280
     1
270
     1
271
     1
  0
XRECORD
  5
1D
102
{ACAD_REACTORS
330
1A
102
}
330
1A
100
AcDbXrecord
280
     1
270
     1
271
     1
  0
XRECORD
  5
14
102
{ACAD_REACTORS
330
12
102
}
330
12
100
AcDbXrecord
280
     1
270
     1
271
     1
  0
XRECORD
  5
13
102
{ACAD_REACTORS
330
12
102
}
330
12
100
AcDbXrecord
280
     1
270
     1
271
     1
  0
XRECORD
  5
17
102
{ACAD_REACTORS
330
12
102
}
330
12
100
AcDbXrecord
280
     1
270
     1
271
     1
  0
XRECORD
  5
16
102
{ACAD_REACTORS
330
12
102
}
330
12
100
AcDbXrecord
280
     1
270
     1
271
     1
  0
XRECORD
  5
18
102
{ACAD_REACTORS
330
12
102
}
330
12
100
AcDbXrecord
280
     1
270
     1
271
     1
  0
XRECORD
  5
15
102
{ACAD_REACTORS
330
12
102
}
330
12
100
AcDbXrecord
280
     1
270
     1
271
     1
  0
XRECORD
  5
24
102
{ACAD_REACTORS
330
22
102
}
330
22
100
AcDbXrecord
280
     1
270
     1
271
     1
  0
XRECORD
  5
23
102
{ACAD_REACTORS
330
22
102
}
330
22
100
AcDbXrecord
280
     1
270
     1
271
     1
  0
XRECORD
  5
27
102
{ACAD_REACTORS
330
22
102
}
330
22
100
AcDbXrecord
280
     1
270
     1
271
     1
  0
XRECORD
  5
26
102
{ACAD_REACTORS
330
22
102
}
330
22
100
AcDbXrecord
280
     1
270
     1
271
     1
  0
XRECORD
  5
28
102
{ACAD_REACTORS
330
22
102
}
330
22
100
AcDbXrecord
280
     1
270
     1
271
     1
  0
XRECORD
  5
25
102
{ACAD_REACTORS
330
22
102
}
330
22
100
AcDbXrecord
280
     1
270
     1
271
     1
  0
XRECORD
  5
F1
102
{ACAD_REACTORS
330
F0
102
}
330
F0
100
AcDbXrecord
280
     1
102
DISPLAYNAME
  1
Imperial24
102
FLAGS
 90
        0
  0
CELLSTYLEMAP
  5
EE
102
{ACAD_REACTORS
330
ED
102
}
330
ED
100
AcDbCellStyleMap
 90
        3
300
CELLSTYLE
  1
TABLEFORMAT_BEGIN
 90
        5
170
     1
 91
        0
 92
    32768
 62
   257
 93
        1
300
CONTENTFORMAT
  1
CONTENTFORMAT_BEGIN
 90
        0
 91
        0
 92
      512
 93
        0
300

 40
0.0
140
1.0
 94
        5
 62
     0
340
55
144
0.25
309
CONTENTFORMAT_END
171
     0
 94
        0
309
TABLEFORMAT_END
  1
CELLSTYLE_BEGIN
 90
        1
 91
        1
300
_TITLE
309
CELLSTYLE_END
300
CELLSTYLE
  1
TABLEFORMAT_BEGIN
 90
        5
170
     1
 91
        0
 92
        0
 62
   257
 93
        1
300
CONTENTFORMAT
  1
CONTENTFORMAT_BEGIN
 90
        0
 91
        0
 92
      512
 93
        0
300

 40
0.0
140
1.0
 94
        5
 62
     0
340
55
144
0.18
309
CONTENTFORMAT_END
171
     0
 94
        0
309
TABLEFORMAT_END
  1
CELLSTYLE_BEGIN
 90
        2
 91
        1
300
_HEADER
309
CELLSTYLE_END
300
CELLSTYLE
  1
TABLEFORMAT_BEGIN
 90
        5
170
     1
 91
        0
 92
        0
 62
   257
 93
        1
300
CONTENTFORMAT
  1
CONTENTFORMAT_BEGIN
 90
        0
 91
        0
 92
      512
 93
        0
300

 40
0.0
140
1.0
 94
        2
 62
     0
340
55
144
0.18
309
CONTENTFORMAT_END
171
     0
 94
        0
309
TABLEFORMAT_END
  1
CELLSTYLE_BEGIN
 90
        3
 91
        2
300
_DATA
309
CELLSTYLE_END
  0
ENDSEC
  0
EOF
